  0
SECTION
  2
HEADER
  9
$ACADVER
  1
AC1009
  9
$INSBASE
 10
4069.6334893762527827
 20
142.98311844674339
 30
0.0
  9
$EXTMIN
 10
4064.9898912543158076
 20
136.9499853051237039
 30
-0.0000000349181948
  9
$EXTMAX
 10
4073.9800720380799248
 20
143.9384587683798884
 30
0.0000000814935746
  9
$LIMMIN
 10
0.0
 20
0.0
  9
$LIMMAX
 10
11.6929133858000007
 20
8.2677165353999982
  9
$ORTHOMODE
 70
     0
  9
$REGENMODE
 70
     1
  9
$FILLMODE
 70
     1
  9
$QTEXTMODE
 70
     0
  9
$MIRRTEXT
 70
     0
  9
$DRAGMODE
 70
     2
  9
$LTSCALE
 40
0.6431102362
  9
$OSMODE
 70
  4095
  9
$ATTMODE
 70
     1
  9
$TEXTSIZE
 40
0.2
  9
$TRACEWID
 40
0.05
  9
$TEXTSTYLE
  7
STANDARD
  9
$CLAYER
  8
0
  9
$CELTYPE
  6
BYLAYER
  9
$CECOLOR
 62
   256
  9
$DIMSCALE
 40
1.0
  9
$DIMASZ
 40
0.1875
  9
$DIMEXO
 40
0.0625
  9
$DIMDLI
 40
0.4443307087
  9
$DIMRND
 40
0.0
  9
$DIMDLE
 40
0.0
  9
$DIMEXE
 40
0.125
  9
$DIMTP
 40
0.01
  9
$DIMTM
 40
0.01
  9
$DIMTXT
 40
2.0
  9
$DIMCEN
 40
0.1052362205
  9
$DIMTSZ
 40
0.0
  9
$DIMTOL
 70
     1
  9
$DIMLIM
 70
     0
  9
$DIMTIH
 70
     1
  9
$DIMTOH
 70
     1
  9
$DIMSE1
 70
     0
  9
$DIMSE2
 70
     0
  9
$DIMTAD
 70
     0
  9
$DIMZIN
 70
     0
  9
$DIMBLK
  1

  9
$DIMASO
 70
     1
  9
$DIMSHO
 70
     1
  9
$DIMPOST
  1
\X
  9
$DIMAPOST
  1

  9
$DIMALT
 70
     1
  9
$DIMALTD
 70
     2
  9
$DIMALTF
 40
25.3999999999999986
  9
$DIMLFAC
 40
1.0
  9
$DIMTOFL
 70
     0
  9
$DIMTVP
 40
0.0
  9
$DIMTIX
 70
     0
  9
$DIMSOXD
 70
     0
  9
$DIMSAH
 70
     0
  9
$DIMBLK1
  1

  9
$DIMBLK2
  1

  9
$DIMSTYLE
  2
STANDARD
  9
$DIMCLRD
 70
     0
  9
$DIMCLRE
 70
     0
  9
$DIMCLRT
 70
     0
  9
$DIMTFAC
 40
1.0
  9
$DIMGAP
 40
0.09
  9
$LUNITS
 70
     2
  9
$LUPREC
 70
     4
  9
$SKETCHINC
 40
0.1
  9
$FILLETRAD
 40
0.0
  9
$AUNITS
 70
     0
  9
$AUPREC
 70
     0
  9
$MENU
  1
.
  9
$ELEVATION
 40
0.0
  9
$PELEVATION
 40
0.0
  9
$THICKNESS
 40
0.0
  9
$LIMCHECK
 70
     0
  9
$BLIPMODE
 70
     0
  9
$CHAMFERA
 40
0.0
  9
$CHAMFERB
 40
0.0
  9
$SKPOLY
 70
     0
  9
$TDCREATE
 40
2458060.468368056230247
  9
$TDUPDATE
 40
2459102.7655902779661119
  9
$TDINDWG
 40
0.395284838
  9
$TDUSRTIMER
 40
0.395284838
  9
$USRTIMER
 70
     1
  9
$ANGBASE
 50
0.0
  9
$ANGDIR
 70
     0
  9
$PDMODE
 70
     0
  9
$PDSIZE
 40
0.3125
  9
$PLINEWID
 40
0.0
  9
$COORDS
 70
     1
  9
$SPLFRAME
 70
     0
  9
$SPLINETYPE
 70
     6
  9
$SPLINESEGS
 70
     8
  9
$ATTDIA
 70
     1
  9
$ATTREQ
 70
     1
  9
$HANDLING
 70
     1
  9
$HANDSEED
  5
FAFC
  9
$SURFTAB1
 70
     6
  9
$SURFTAB2
 70
     6
  9
$SURFTYPE
 70
     6
  9
$SURFU
 70
     6
  9
$SURFV
 70
     6
  9
$UCSNAME
  2

  9
$UCSORG
 10
0.0
 20
0.0
 30
0.0
  9
$UCSXDIR
 10
1.0
 20
0.0
 30
0.0
  9
$UCSYDIR
 10
0.0
 20
1.0
 30
0.0
  9
$PUCSNAME
  2

  9
$PUCSORG
 10
0.0
 20
0.0
 30
0.0
  9
$PUCSXDIR
 10
1.0
 20
0.0
 30
0.0
  9
$PUCSYDIR
 10
0.0
 20
1.0
 30
0.0
  9
$USERI1
 70
     0
  9
$USERI2
 70
     0
  9
$USERI3
 70
     0
  9
$USERI4
 70
     0
  9
$USERI5
 70
     0
  9
$USERR1
 40
0.0
  9
$USERR2
 40
0.0
  9
$USERR3
 40
0.0
  9
$USERR4
 40
0.0
  9
$USERR5
 40
0.0
  9
$WORLDVIEW
 70
     1
  9
$SHADEDGE
 70
     3
  9
$SHADEDIF
 70
    70
  9
$TILEMODE
 70
     1
  9
$MAXACTVP
 70
    64
  9
$PLIMCHECK
 70
     0
  9
$PEXTMIN
 10
1.0000000000000000E+20
 20
1.0000000000000000E+20
 30
1.0000000000000000E+20
  9
$PEXTMAX
 10
-1.0000000000000000E+20
 20
-1.0000000000000000E+20
 30
-1.0000000000000000E+20
  9
$PLIMMIN
 10
0.0
 20
0.0
  9
$PLIMMAX
 10
12.0
 20
9.0
  9
$UNITMODE
 70
     0
  9
$VISRETAIN
 70
     1
  9
$PLINEGEN
 70
     0
  9
$PSLTSCALE
 70
     1
  0
ENDSEC
  0
SECTION
  2
TABLES
  0
TABLE
  2
VPORT
 70
     1
  0
VPORT
  2
*ACTIVE
 70
     0
 10
0.0
 20
0.0
 11
1.0
 21
1.0
 12
160.1226376906653002
 22
8.5346794390710556
 13
0.0
 23
0.0
 14
1.0
 24
1.0
 15
0.0
 25
0.0
 16
0.0
 26
0.0
 36
60.4960186965801583
 17
3911.3653564453120453
 27
132.5796051025390057
 37
0.0
 40
21.940788668307281
 41
1.788248337028824
 42
50.0
 43
0.0
 44
0.0
 50
0.0
 51
0.0
 71
     0
 72
   100
 73
     1
 74
     1
 75
     0
 76
     0
 77
     0
 78
     0
  0
ENDTAB
  0
TABLE
  2
LTYPE
 70
     2
  0
LTYPE
  2
CONTINUOUS
 70
     0
  3
Solid line
 72
    65
 73
     0
 40
0.0
  0
LTYPE
  2
PHANTOM2
 70
     0
  3
___ _ _ ___ _ _ ___ _ _ ___ _ _
 72
    65
 73
     6
 40
1.25
 49
0.625
 49
-0.125
 49
0.125
 49
-0.125
 49
0.125
 49
-0.125
  0
ENDTAB
  0
TABLE
  2
LAYER
 70
     2
  0
LAYER
  2
0
 70
     0
 62
   255
  6
CONTINUOUS
  0
LAYER
  2
DEFPOINTS
 70
     0
 62
     7
  6
CONTINUOUS
  0
ENDTAB
  0
TABLE
  2
STYLE
 70
     1
  0
STYLE
  2
STANDARD
 70
     0
 40
0.0
 41
0.8
 50
0.0
 71
     0
 42
0.2
  3
txt
  4

  0
ENDTAB
  0
TABLE
  2
VIEW
 70
     0
  0
ENDTAB
  0
TABLE
  2
UCS
 70
     0
  0
ENDTAB
  0
TABLE
  2
APPID
 70
    10
  0
APPID
  2
ACAD
 70
     0
  0
APPID
  2
ACAD_MLEADERVER
 70
     0
  0
APPID
  2
ACAD_EXEMPT_FROM_CAD_STANDARDS
 70
     0
  0
APPID
  2
ACAD_NAV_VCDISPLAY
 70
     0
  0
APPID
  2
ACAECLAYERSTANDARD
 70
     0
  0
APPID
  2
ACCMTRANSPARENCY
 70
     0
  0
APPID
  2
ACAD_DSTYLE_DIMJAG
 70
     0
  0
APPID
  2
ACAD_DSTYLE_DIMTALN
 70
     0
  0
APPID
  2
ACDBATTR
 70
     0
  0
APPID
  2
ACADANNOTATIVE
 70
     0
  0
ENDTAB
  0
TABLE
  2
DIMSTYLE
 70
     1
  0
DIMSTYLE
  2
STANDARD
 70
     0
  3

  4

  5

  6

  7

 40
1.0
 41
0.1875
 42
0.0625
 43
0.38
 44
0.125
 45
0.0
 46
0.0
 47
0.01
 48
0.01
140
0.15625
141
0.09
142
0.0
143
25.3999999999999986
144
1.0
145
0.0
146
1.0
147
0.09
 71
     1
 72
     0
 73
     1
 74
     1
 75
     0
 76
     0
 77
     0
 78
     4
170
     0
171
     2
172
     0
173
     0
174
     0
175
     0
176
     0
177
     0
178
     0
  0
ENDTAB
  0
ENDSEC
  0
SECTION
  2
BLOCKS
  0
BLOCK
  8
0
  2
$MODEL_SPACE
 70
     0
 10
0.0
 20
0.0
 30
0.0
  3
$MODEL_SPACE
  1

  0
ENDBLK
  5
21
  8
0
  0
BLOCK
 67
     1
  8
0
  2
$PAPER_SPACE
 70
     0
 10
0.0
 20
0.0
 30
0.0
  3
$PAPER_SPACE
  1

  0
ENDBLK
  5
1D
 67
     1
  8
0
  0
ENDSEC
  0
SECTION
  2
ENTITIES
  0
LINE
  5
F8D8
  8
0
 10
4066.3657728408529692
 20
137.5105253665433906
 30
0.0
 11
4072.5468752030537871
 21
137.5105253665433906
 31
0.0
  0
LINE
  5
F8D9
  8
0
 10
4065.5782191307530411
 20
138.9772129349433953
 30
0.0
 11
4065.027342298953954
 21
138.9772129349433953
 31
0.0
  0
LINE
  5
F8DA
  8
0
 10
4068.6098673290539409
 20
143.3768192341433974
 30
0.0
 11
4068.6098673290539409
 21
142.5894176593434111
 31
0.0
  0
LINE
  5
F8DB
  8
0
 10
4070.6571114235530331
 20
142.5894176593434111
 30
0.0
 11
4070.6571114235530331
 21
143.3768192341433974
 31
0.0
  0
LINE
  5
F8DC
  8
0
 10
4070.6571114235530331
 20
142.5894176593434111
 30
0.0
 11
4068.6098673290539409
 21
142.5894176593434111
 31
0.0
  0
LINE
  5
F8DD
  8
0
 10
4072.5468752030537871
 20
142.7076800308433917
 30
0.0
 11
4070.6571114235530331
 21
142.7076800308433917
 31
0.0
  0
LINE
  5
F8DE
  8
0
 10
4070.6571114235530331
 20
143.3768192341433974
 30
0.0
 11
4068.6098673290539409
 21
143.3768192341433974
 31
0.0
  0
LINE
  5
F8DF
  8
0
 10
4073.3344289131528058
 20
138.2980790766434041
 30
0.0
 11
4073.3344289131528058
 21
141.9201263207434067
 31
0.0
  0
ARC
  5
F8E0
  8
0
 10
4072.5468721264542182
 20
141.9201232442433991
 30
0.0
 40
1.3385844074999991
 50
0.8600064015396974
 51
89.4055908716614169
  0
ARC
  5
F8E1
  8
0
 10
4072.5468721264542182
 20
138.2980821532433993
 30
0.0
 40
1.3385844074999991
 50
270.8600105934622775
 51
359.1399935984603076
  0
ARC
  5
F8E2
  8
0
 10
4066.3657759150542006
 20
138.2980821508434133
 30
0.0
 40
1.3385844074999991
 50
180.860017152431908
 51
269.1399825623676065
  0
ARC
  5
F8E3
  8
0
 10
4069.6334893762527827
 20
142.98311844674339
 30
0.0
 40
0.9448818898
 50
24.6243183510483412
 51
155.3756816489515984
  0
ARC
  5
F8E4
  8
0
 10
4069.6334893762527827
 20
142.98311844674339
 30
0.0
 40
0.9448818898
 50
204.6243183510482879
 51
335.3756816489516837
  0
ARC
  5
F8E5
  8
0
 10
4072.5465044719030629
 20
141.9197555895927962
 30
0.0
 40
0.7879245284680499
 50
0.0269585858511641
 51
89.9730414141586152
  0
ARC
  5
F8E6
  8
0
 10
4072.5465044787388251
 20
138.2984498009579966
 30
0.0
 40
0.7879245216289219
 50
270.0269580889965937
 51
359.9730419110034063
  0
ARC
  5
F8E7
  8
0
 10
4066.3661434271480175
 20
138.2984495909537941
 30
0.0
 40
0.7879243115597468
 50
180.0112412056705011
 51
269.9730519402393725
  0
LINE
  5
F8E8
  8
0
 10
4070.6571114235530331
 20
143.2586356177409073
 30
0.0
 11
4072.5607588825992025
 21
143.2586356177409073
 31
0.0
  0
LINE
  5
F8E9
  8
0
 10
4072.5669635459858
 20
136.9596485348434101
 30
0.0
 11
4066.345684335641181
 21
136.9596485348434101
 31
0.0
  0
LINE
  5
F8EA
  8
0
 10
4073.8853057463238656
 20
138.2779908316346962
 30
0.0
 11
4073.8853057463238656
 21
141.9402145658521022
 31
0.0
  0
LINE
  5
F8EC
  8
0
 10
4065.027342298953954
 20
138.9772129349433953
 30
0.0
 11
4065.027342298953954
 21
138.277990578093096
 31
0.0
  0
LINE
  5
F8ED
  8
0
 10
4065.5782191307530411
 20
138.9772129349433953
 30
0.0
 11
4065.5782191307530411
 21
138.2982950033164968
 31
0.0
  0
ATTDEF
  5
F8EE
  8
DEFPOINTS
 10
4069.6338972526950784
 20
142.981842959129807
 30
0.0
 40
0.001
  1
K-14456T
  3

  2
MODELNUMBER
 70
     0
1001
ACDBATTR
1070
     0
1070
     1
  0
ATTDEF
  5
F8EF
  8
DEFPOINTS
 10
4069.6338404663802066
 20
142.9801762924631987
 30
0.0
 40
0.001
  1
STILLNESS
  3

  2
TRADENAME
 70
     0
1001
ACDBATTR
1070
     0
1070
     1
  0
ATTDEF
  5
F8F0
  8
DEFPOINTS
 10
4069.6338972526950784
 20
142.9785096257965051
 30
0.0
 40
0.001
  1
TOWEL RING
  3

  2
PRODUCT
 70
     0
1001
ACDBATTR
1070
     0
1070
     1
  0
ENDSEC
  0
EOF
