  0
SECTION
  2
HEADER
  9
$ACADVER
  1
AC1009
  9
$INSBASE
 10
284.5085463409112094
 20
-1.8861811805550519
 30
0.0
  9
$EXTMIN
 10
282.5664264918136155
 20
-3.8276118373621131
 30
-0.0000000349181948
  9
$EXTMAX
 10
286.4611006727431004
 20
0.0542472046111584
 30
0.0000000814935746
  9
$LIMMIN
 10
0.0
 20
0.0
  9
$LIMMAX
 10
22.0
 20
17.0
  9
$ORTHOMODE
 70
     0
  9
$REGENMODE
 70
     1
  9
$FILLMODE
 70
     1
  9
$QTEXTMODE
 70
     0
  9
$MIRRTEXT
 70
     0
  9
$DRAGMODE
 70
     2
  9
$LTSCALE
 40
1.2099999999999991
  9
$OSMODE
 70
  4095
  9
$ATTMODE
 70
     1
  9
$TEXTSIZE
 40
0.2
  9
$TRACEWID
 40
0.05
  9
$TEXTSTYLE
  7
STANDARD
  9
$CLAYER
  8
0
  9
$CELTYPE
  6
BYLAYER
  9
$CECOLOR
 62
   256
  9
$DIMSCALE
 40
1.0
  9
$DIMASZ
 40
0.1875
  9
$DIMEXO
 40
0.0625
  9
$DIMDLI
 40
0.38
  9
$DIMRND
 40
0.0
  9
$DIMDLE
 40
0.0
  9
$DIMEXE
 40
0.125
  9
$DIMTP
 40
1.5
  9
$DIMTM
 40
1.5
  9
$DIMTXT
 40
1.5
  9
$DIMCEN
 40
0.09
  9
$DIMTSZ
 40
0.0
  9
$DIMTOL
 70
     0
  9
$DIMLIM
 70
     0
  9
$DIMTIH
 70
     1
  9
$DIMTOH
 70
     1
  9
$DIMSE1
 70
     0
  9
$DIMSE2
 70
     0
  9
$DIMTAD
 70
     0
  9
$DIMZIN
 70
     4
  9
$DIMBLK
  1

  9
$DIMASO
 70
     1
  9
$DIMSHO
 70
     1
  9
$DIMPOST
  1

  9
$DIMAPOST
  1

  9
$DIMALT
 70
     0
  9
$DIMALTD
 70
     2
  9
$DIMALTF
 40
25.3999999999999986
  9
$DIMLFAC
 40
1.0
  9
$DIMTOFL
 70
     0
  9
$DIMTVP
 40
0.0
  9
$DIMTIX
 70
     0
  9
$DIMSOXD
 70
     0
  9
$DIMSAH
 70
     0
  9
$DIMBLK1
  1

  9
$DIMBLK2
  1

  9
$DIMSTYLE
  2
STANDARD
  9
$DIMCLRD
 70
     0
  9
$DIMCLRE
 70
     0
  9
$DIMCLRT
 70
     0
  9
$DIMTFAC
 40
1.0
  9
$DIMGAP
 40
0.09
  9
$LUNITS
 70
     2
  9
$LUPREC
 70
     4
  9
$SKETCHINC
 40
0.1
  9
$FILLETRAD
 40
0.0
  9
$AUNITS
 70
     0
  9
$AUPREC
 70
     0
  9
$MENU
  1
.
  9
$ELEVATION
 40
0.0
  9
$PELEVATION
 40
0.0
  9
$THICKNESS
 40
0.0
  9
$LIMCHECK
 70
     0
  9
$BLIPMODE
 70
     0
  9
$CHAMFERA
 40
0.0
  9
$CHAMFERB
 40
0.0
  9
$SKPOLY
 70
     0
  9
$TDCREATE
 40
2457827.4934837957844138
  9
$TDUPDATE
 40
2459781.6296412041410804
  9
$TDINDWG
 40
0.3566686343
  9
$TDUSRTIMER
 40
0.3566686343
  9
$USRTIMER
 70
     1
  9
$ANGBASE
 50
0.0
  9
$ANGDIR
 70
     0
  9
$PDMODE
 70
     0
  9
$PDSIZE
 40
0.3125
  9
$PLINEWID
 40
0.0
  9
$COORDS
 70
     1
  9
$SPLFRAME
 70
     0
  9
$SPLINETYPE
 70
     6
  9
$SPLINESEGS
 70
     8
  9
$ATTDIA
 70
     1
  9
$ATTREQ
 70
     1
  9
$HANDLING
 70
     1
  9
$HANDSEED
  5
550F
  9
$SURFTAB1
 70
     6
  9
$SURFTAB2
 70
     6
  9
$SURFTYPE
 70
     6
  9
$SURFU
 70
     6
  9
$SURFV
 70
     6
  9
$UCSNAME
  2

  9
$UCSORG
 10
0.0
 20
0.0
 30
0.0
  9
$UCSXDIR
 10
1.0
 20
0.0
 30
0.0
  9
$UCSYDIR
 10
0.0
 20
1.0
 30
0.0
  9
$PUCSNAME
  2

  9
$PUCSORG
 10
0.0
 20
0.0
 30
0.0
  9
$PUCSXDIR
 10
1.0
 20
0.0
 30
0.0
  9
$PUCSYDIR
 10
0.0
 20
1.0
 30
0.0
  9
$USERI1
 70
     0
  9
$USERI2
 70
     0
  9
$USERI3
 70
     0
  9
$USERI4
 70
     0
  9
$USERI5
 70
     0
  9
$USERR1
 40
0.0
  9
$USERR2
 40
0.0
  9
$USERR3
 40
0.0
  9
$USERR4
 40
0.0
  9
$USERR5
 40
0.0
  9
$WORLDVIEW
 70
     1
  9
$SHADEDGE
 70
     3
  9
$SHADEDIF
 70
    70
  9
$TILEMODE
 70
     1
  9
$MAXACTVP
 70
    48
  9
$PLIMCHECK
 70
     0
  9
$PEXTMIN
 10
1.0000000000000000E+20
 20
1.0000000000000000E+20
 30
1.0000000000000000E+20
  9
$PEXTMAX
 10
-1.0000000000000000E+20
 20
-1.0000000000000000E+20
 30
-1.0000000000000000E+20
  9
$PLIMMIN
 10
0.0
 20
0.0
  9
$PLIMMAX
 10
12.0
 20
9.0
  9
$UNITMODE
 70
     0
  9
$VISRETAIN
 70
     1
  9
$PLINEGEN
 70
     0
  9
$PSLTSCALE
 70
     1
  0
ENDSEC
  0
SECTION
  2
TABLES
  0
TABLE
  2
VPORT
 70
     1
  0
VPORT
  2
*ACTIVE
 70
     0
 10
0.0
 20
0.0
 11
1.0
 21
1.0
 12
-14.8688977202367596
 22
-24.9766687020999214
 13
0.0
 23
0.0
 14
1.0
 24
1.0
 15
0.0
 25
0.0
 16
-0.0000000000000568
 26
0.0
 36
161.3760680385011881
 17
299.3826613025150891
 27
23.0899863857244405
 37
0.0
 40
3.909685988510716
 41
2.2858851674641141
 42
50.0
 43
0.0
 44
0.0
 50
0.0
 51
0.0
 71
     0
 72
   100
 73
     1
 74
     1
 75
     0
 76
     0
 77
     0
 78
     0
  0
ENDTAB
  0
TABLE
  2
LTYPE
 70
     2
  0
LTYPE
  2
CONTINUOUS
 70
     0
  3
Solid line
 72
    65
 73
     0
 40
0.0
  0
LTYPE
  2
PHANTOM2
 70
     0
  3
___ _ _ ___ _ _ ___ _ _ ___ _ _
 72
    65
 73
     6
 40
1.25
 49
0.625
 49
-0.125
 49
0.125
 49
-0.125
 49
0.125
 49
-0.125
  0
ENDTAB
  0
TABLE
  2
LAYER
 70
     2
  0
LAYER
  2
0
 70
     0
 62
     7
  6
CONTINUOUS
  0
LAYER
  2
DEFPOINTS
 70
     0
 62
     7
  6
CONTINUOUS
  0
ENDTAB
  0
TABLE
  2
STYLE
 70
     1
  0
STYLE
  2
STANDARD
 70
     0
 40
0.0
 41
0.8
 50
0.0
 71
     0
 42
0.2
  3
txt
  4

  0
ENDTAB
  0
TABLE
  2
VIEW
 70
     0
  0
ENDTAB
  0
TABLE
  2
UCS
 70
     0
  0
ENDTAB
  0
TABLE
  2
APPID
 70
     8
  0
APPID
  2
ACAD
 70
     0
  0
APPID
  2
ACAD_MLEADERVER
 70
     0
  0
APPID
  2
ACAD_EXEMPT_FROM_CAD_STANDARDS
 70
     0
  0
APPID
  2
ACAD_NAV_VCDISPLAY
 70
     0
  0
APPID
  2
ACADANNOMONITORALERTICONDI
 70
     0
  0
APPID
  2
ACAD_DSTYLE_DIMJAG
 70
     0
  0
APPID
  2
ACAD_DSTYLE_DIMTALN
 70
     0
  0
APPID
  2
ACDBATTR
 70
     0
  0
ENDTAB
  0
TABLE
  2
DIMSTYLE
 70
     1
  0
DIMSTYLE
  2
STANDARD
 70
     0
  3

  4

  5

  6

  7

 40
1.0
 41
0.1875
 42
0.0625
 43
0.38
 44
0.125
 45
0.0
 46
0.0
 47
1.5
 48
1.5
140
1.5
141
0.09
142
0.0
143
25.3999999999999986
144
1.0
145
0.0
146
1.0
147
0.09
 71
     0
 72
     0
 73
     1
 74
     1
 75
     0
 76
     0
 77
     0
 78
     4
170
     0
171
     2
172
     0
173
     0
174
     0
175
     0
176
     0
177
     0
178
     0
  0
ENDTAB
  0
ENDSEC
  0
SECTION
  2
BLOCKS
  0
BLOCK
  8
0
  2
$MODEL_SPACE
 70
     0
 10
0.0
 20
0.0
 30
0.0
  3
$MODEL_SPACE
  1

  0
ENDBLK
  5
21
  8
0
  0
BLOCK
 67
     1
  8
0
  2
$PAPER_SPACE
 70
     0
 10
0.0
 20
0.0
 30
0.0
  3
$PAPER_SPACE
  1

  0
ENDBLK
  5
1D
 67
     1
  8
0
  0
BLOCK
  8
0
  2
_FILLED
 70
     0
 10
0.0
 20
0.0
 30
0.0
  3
_FILLED
  1

  0
SOLID
  5
4F44
  8
0
  6
BYBLOCK
 62
     0
 10
0.0
 20
0.0
 30
0.0
 11
-1.0
 21
0.1666666667
 31
0.0
 12
-1.0
 22
-0.1666666667
 32
0.0
 13
-1.0
 23
-0.1666666667
 33
0.0
  0
ENDBLK
  5
4F45
  8
0
  6
BYBLOCK
 62
     0
  0
ENDSEC
  0
SECTION
  2
ENTITIES
  0
CIRCLE
  5
52E9
  8
0
 10
284.5085790691592251
 20
-1.8862238340226949
 30
0.0
 40
1.9400477185442171
  0
LINE
  5
52EA
  8
0
 10
284.2485463409111048
 20
-2.2220955096783381
 30
0.0
 11
284.2485463409111048
 21
-3.6361811805550519
 31
0.0
  0
LINE
  5
52EB
  8
0
 10
284.2485463409111048
 20
-1.5489745359740481
 30
0.0
 11
284.2485463409111048
 21
-0.1381811805550521
 31
0.0
  0
LINE
  5
52EC
  8
0
 10
284.1711629332776852
 20
-1.6261811805550519
 30
0.0
 11
282.7585463409110957
 21
-1.6261811805550519
 31
0.0
  0
LINE
  5
52EE
  8
0
 10
284.173537758124894
 20
-2.1461811805550521
 30
0.0
 11
282.7585463409110957
 21
-2.1461811805550521
 31
0.0
  0
ARC
  5
52F0
  8
0
 10
284.1683668436659218
 20
-1.5459950793713499
 30
0.0
 40
0.0802348362007455
 50
271.9970948483119741
 51
357.8718776721021868
  0
ARC
  5
52F1
  8
0
 10
284.1679761737340755
 20
-2.2266903948588981
 30
0.0
 40
0.0807010830705397
 50
3.2640203943325612
 51
86.0482799218689252
  0
LINE
  5
52F2
  8
0
 10
282.7485463409112185
 20
-1.6361811805550519
 30
0.0
 11
282.7485463409112185
 21
-2.1361811805550519
 31
0.0
  0
ARC
  5
52F3
  8
0
 10
282.7585463409110957
 20
-1.636181180555049
 30
0.0
 40
0.0099999999999906
 50
89.9999999999576659
 51
180.0166839812141859
  0
ARC
  5
52F4
  8
0
 10
282.7585463409110957
 20
-2.136181180555055
 30
0.0
 40
0.0099999999999906
 50
179.9833160187857004
 51
270.0000000000391083
  0
LINE
  5
52F5
  8
0
 10
284.2585463409112094
 20
-0.1281811805550523
 30
0.0
 11
284.7585463409112094
 21
-0.1281811805550523
 31
0.0
  0
LINE
  5
52F7
  8
0
 10
284.258543429995882
 20
-3.6461811805550521
 30
0.0
 11
284.7586584273528274
 21
-3.6461811805550521
 31
0.0
  0
ARC
  5
52F9
  8
0
 10
284.2584888422333051
 20
-3.6362386629192431
 30
0.0
 40
0.0099426674872647
 50
179.6687493355007064
 51
270.3145699207667008
  0
ARC
  5
52FA
  8
0
 10
284.2585463409112094
 20
-0.1381811805550273
 30
0.0
 40
0.0099999999999749
 50
90.0
 51
180.0000000001220997
  0
LINE
  5
52FB
  8
0
 10
284.7685463409112003
 20
-2.2220955096783381
 30
0.0
 11
284.7685463409112003
 21
-3.6361811805550519
 31
0.0
  0
LINE
  5
52FC
  8
0
 10
284.7685463409112003
 20
-1.5489745359740481
 30
0.0
 11
284.7685463409112003
 21
-0.1381811805550521
 31
0.0
  0
LINE
  5
52FD
  8
0
 10
284.84592974854462
 20
-1.6261811805550519
 30
0.0
 11
286.2585463409112094
 21
-1.6261811805550519
 31
0.0
  0
LINE
  5
52FE
  8
0
 10
284.8435549236975248
 20
-2.1461811805550521
 30
0.0
 11
286.2585463409112094
 21
-2.1461811805550521
 31
0.0
  0
ARC
  5
52FF
  8
0
 10
284.848725838156497
 20
-1.5459950793713499
 30
0.0
 40
0.0802348362007455
 50
182.1281223278976995
 51
268.0029051516880259
  0
ARC
  5
5300
  8
0
 10
284.8491165080881728
 20
-2.2266903948588981
 30
0.0
 40
0.0807010830705397
 50
93.9517200781310748
 51
176.7359796056674099
  0
LINE
  5
5301
  8
0
 10
286.2685463409110866
 20
-1.6361811805550519
 30
0.0
 11
286.2685463409110866
 21
-2.1361811805550519
 31
0.0
  0
ARC
  5
5302
  8
0
 10
286.2585463409112094
 20
-1.636181180555049
 30
0.0
 40
0.0099999999999906
 50
359.9833160187857857
 51
90.0000000000390656
  0
ARC
  5
5303
  8
0
 10
286.2585463409112094
 20
-2.136181180555055
 30
0.0
 40
0.0099999999999906
 50
269.9999999999575948
 51
0.0166839812142452
  0
ARC
  5
5304
  8
0
 10
284.758603839589
 20
-3.6362386629192431
 30
0.0
 40
0.0099426674872647
 50
269.6854300792331856
 51
0.3312506644992777
  0
ARC
  5
5305
  8
0
 10
284.7585463409112094
 20
-0.1381811805550273
 30
0.0
 40
0.0099999999999749
 50
359.9999999998777866
 51
90.0
  0
LINE
  5
5306
  8
0
 10
284.2250365312903
 20
-1.602794511100152
 30
0.0
 11
284.7920438078800771
 21
-2.1696345301321829
 31
0.0
  0
LINE
  5
5307
  8
0
 10
284.7920561505321189
 20
-1.6027945111001509
 30
0.0
 11
284.2253818877231879
 21
-2.1699695978778459
 31
0.0
  0
ARC
  5
5308
  8
0
 10
284.5087967914984119
 20
-1.8864710668302651
 30
0.0
 40
0.5403820766708961
 50
118.7902482683256977
 51
151.204980568107004
  0
ARC
  5
5309
  8
0
 10
284.5087967914984119
 20
-1.8864710668302651
 30
0.0
 40
0.5403820766708961
 50
208.7248970705655893
 51
241.209751731674487
  0
ARC
  5
530A
  8
0
 10
284.5087967914984119
 20
-1.8864710668302651
 30
0.0
 40
0.5403820766708961
 50
298.7296652482090735
 51
331.2751029294344107
  0
ARC
  5
530B
  8
0
 10
284.5087967914984119
 20
-1.8864710668302651
 30
0.0
 40
0.5403820766708961
 50
28.7950194318930208
 51
61.2703347517907915
  0
ARC
  5
530C
  8
0
 10
284.508540169585217
 20
-1.8862145206161669
 30
0.0
 40
0.8078706746434766
 50
108.7733926928278976
 51
161.2236475970792924
  0
ARC
  5
530D
  8
0
 10
284.508540169585217
 20
-1.8862145206161669
 30
0.0
 40
0.8078706746434766
 50
198.7713575734879043
 51
251.2266073071722019
  0
ARC
  5
530E
  8
0
 10
284.508540169585217
 20
-1.8862145206161669
 30
0.0
 40
0.8078706746434766
 50
288.7743172478474207
 51
341.2286424265121241
  0
ARC
  5
530F
  8
0
 10
284.508540169585217
 20
-1.8862145206161669
 30
0.0
 40
0.8078706746434766
 50
18.7763524029206295
 51
71.2256827521526077
  0
ATTDEF
  5
537F
  8
DEFPOINTS
 10
284.4938596876293104
 20
-1.8885050433506581
 30
0.0
 40
0.001
  1
K-14491B-3
  3

  2
MODELNUMBER
 70
     0
1001
ACDBATTR
1070
     0
1070
     1
  0
ATTDEF
  5
5380
  8
DEFPOINTS
 10
284.4938596876293104
 20
-1.8901717100173381
 30
0.0
 40
0.001
  1
VEIL
  3

  2
TRADENAME
 70
     0
1001
ACDBATTR
1070
     0
1070
     1
  0
ATTDEF
  5
5381
  8
DEFPOINTS
 10
284.4938596876293104
 20
-1.891838376684017
 30
0.0
 40
0.001
  1
TOILET
  3

  2
PRODUCT
 70
     0
1001
ACDBATTR
1070
     0
1070
     1
  0
ENDSEC
  0
EOF
