  0
SECTION
  2
HEADER
  9
$ACADVER
  1
AC1009
  9
$INSBASE
 10
4306.023444450685929
 20
231.5524847044796957
 30
0.0
  9
$EXTMIN
 10
4304.9998224034361556
 20
224.1489413973062028
 30
0.0
  9
$EXTMAX
 10
4309.3226570491351595
 20
232.5761067516062042
 30
0.0
  9
$LIMMIN
 10
0.0
 20
0.0
  9
$LIMMAX
 10
11.6929133858000007
 20
8.2677165353999982
  9
$ORTHOMODE
 70
     0
  9
$REGENMODE
 70
     1
  9
$FILLMODE
 70
     1
  9
$QTEXTMODE
 70
     0
  9
$MIRRTEXT
 70
     0
  9
$DRAGMODE
 70
     2
  9
$LTSCALE
 40
0.6431102362
  9
$OSMODE
 70
  4095
  9
$ATTMODE
 70
     1
  9
$TEXTSIZE
 40
0.2
  9
$TRACEWID
 40
0.05
  9
$TEXTSTYLE
  7
STANDARD
  9
$CLAYER
  8
0
  9
$CELTYPE
  6
BYLAYER
  9
$CECOLOR
 62
   256
  9
$DIMSCALE
 40
1.0
  9
$DIMASZ
 40
0.1875
  9
$DIMEXO
 40
0.0625
  9
$DIMDLI
 40
0.4443307087
  9
$DIMRND
 40
0.0
  9
$DIMDLE
 40
0.0
  9
$DIMEXE
 40
0.125
  9
$DIMTP
 40
0.01
  9
$DIMTM
 40
0.01
  9
$DIMTXT
 40
2.0
  9
$DIMCEN
 40
0.1052362205
  9
$DIMTSZ
 40
0.0
  9
$DIMTOL
 70
     1
  9
$DIMLIM
 70
     0
  9
$DIMTIH
 70
     1
  9
$DIMTOH
 70
     1
  9
$DIMSE1
 70
     0
  9
$DIMSE2
 70
     0
  9
$DIMTAD
 70
     0
  9
$DIMZIN
 70
     0
  9
$DIMBLK
  1

  9
$DIMASO
 70
     1
  9
$DIMSHO
 70
     1
  9
$DIMPOST
  1
\X
  9
$DIMAPOST
  1

  9
$DIMALT
 70
     1
  9
$DIMALTD
 70
     2
  9
$DIMALTF
 40
25.3999999999999986
  9
$DIMLFAC
 40
1.0
  9
$DIMTOFL
 70
     0
  9
$DIMTVP
 40
0.0
  9
$DIMTIX
 70
     0
  9
$DIMSOXD
 70
     0
  9
$DIMSAH
 70
     0
  9
$DIMBLK1
  1

  9
$DIMBLK2
  1

  9
$DIMSTYLE
  2
STANDARD
  9
$DIMCLRD
 70
     0
  9
$DIMCLRE
 70
     0
  9
$DIMCLRT
 70
     0
  9
$DIMTFAC
 40
1.0
  9
$DIMGAP
 40
0.09
  9
$LUNITS
 70
     2
  9
$LUPREC
 70
     4
  9
$SKETCHINC
 40
0.1
  9
$FILLETRAD
 40
0.0
  9
$AUNITS
 70
     0
  9
$AUPREC
 70
     0
  9
$MENU
  1
.
  9
$ELEVATION
 40
0.0
  9
$PELEVATION
 40
0.0
  9
$THICKNESS
 40
0.0
  9
$LIMCHECK
 70
     0
  9
$BLIPMODE
 70
     0
  9
$CHAMFERA
 40
0.0
  9
$CHAMFERB
 40
0.0
  9
$SKPOLY
 70
     0
  9
$TDCREATE
 40
2458060.468368056230247
  9
$TDUPDATE
 40
2459227.4617939810268581
  9
$TDINDWG
 40
0.6334792824
  9
$TDUSRTIMER
 40
0.6334792824
  9
$USRTIMER
 70
     1
  9
$ANGBASE
 50
0.0
  9
$ANGDIR
 70
     0
  9
$PDMODE
 70
     0
  9
$PDSIZE
 40
0.3125
  9
$PLINEWID
 40
0.0
  9
$COORDS
 70
     1
  9
$SPLFRAME
 70
     0
  9
$SPLINETYPE
 70
     6
  9
$SPLINESEGS
 70
     8
  9
$ATTDIA
 70
     1
  9
$ATTREQ
 70
     1
  9
$HANDLING
 70
     1
  9
$HANDSEED
  5
12B79
  9
$SURFTAB1
 70
     6
  9
$SURFTAB2
 70
     6
  9
$SURFTYPE
 70
     6
  9
$SURFU
 70
     6
  9
$SURFV
 70
     6
  9
$UCSNAME
  2

  9
$UCSORG
 10
0.0
 20
0.0
 30
0.0
  9
$UCSXDIR
 10
1.0
 20
0.0
 30
0.0
  9
$UCSYDIR
 10
0.0
 20
1.0
 30
0.0
  9
$PUCSNAME
  2

  9
$PUCSORG
 10
0.0
 20
0.0
 30
0.0
  9
$PUCSXDIR
 10
1.0
 20
0.0
 30
0.0
  9
$PUCSYDIR
 10
0.0
 20
1.0
 30
0.0
  9
$USERI1
 70
     0
  9
$USERI2
 70
     0
  9
$USERI3
 70
     0
  9
$USERI4
 70
     0
  9
$USERI5
 70
     0
  9
$USERR1
 40
0.0
  9
$USERR2
 40
0.0
  9
$USERR3
 40
0.0
  9
$USERR4
 40
0.0
  9
$USERR5
 40
0.0
  9
$WORLDVIEW
 70
     1
  9
$SHADEDGE
 70
     3
  9
$SHADEDIF
 70
    70
  9
$TILEMODE
 70
     1
  9
$MAXACTVP
 70
    64
  9
$PLIMCHECK
 70
     0
  9
$PEXTMIN
 10
1.0000000000000000E+20
 20
1.0000000000000000E+20
 30
1.0000000000000000E+20
  9
$PEXTMAX
 10
-1.0000000000000000E+20
 20
-1.0000000000000000E+20
 30
-1.0000000000000000E+20
  9
$PLIMMIN
 10
0.0
 20
0.0
  9
$PLIMMAX
 10
12.0
 20
9.0
  9
$UNITMODE
 70
     0
  9
$VISRETAIN
 70
     1
  9
$PLINEGEN
 70
     0
  9
$PSLTSCALE
 70
     1
  0
ENDSEC
  0
SECTION
  2
TABLES
  0
TABLE
  2
VPORT
 70
     1
  0
VPORT
  2
*ACTIVE
 70
     0
 10
0.0
 20
0.0
 11
1.0
 21
1.0
 12
145.6048432419111123
 22
2.251691860100705
 13
0.0
 23
0.0
 14
1.0
 24
1.0
 15
0.0
 25
0.0
 16
0.0
 26
0.0
 36
202.37134017897489
 17
4161.556396484375
 27
226.1108322143554972
 37
0.0
 40
8.5356696292480692
 41
2.9182795698924728
 42
50.0
 43
0.0
 44
0.0
 50
0.0
 51
0.0
 71
     0
 72
   100
 73
     1
 74
     1
 75
     0
 76
     0
 77
     0
 78
     0
  0
ENDTAB
  0
TABLE
  2
LTYPE
 70
     2
  0
LTYPE
  2
CONTINUOUS
 70
     0
  3
Solid line
 72
    65
 73
     0
 40
0.0
  0
LTYPE
  2
PHANTOM2
 70
     0
  3
___ _ _ ___ _ _ ___ _ _ ___ _ _
 72
    65
 73
     6
 40
1.25
 49
0.625
 49
-0.125
 49
0.125
 49
-0.125
 49
0.125
 49
-0.125
  0
ENDTAB
  0
TABLE
  2
LAYER
 70
     2
  0
LAYER
  2
0
 70
     0
 62
   255
  6
CONTINUOUS
  0
LAYER
  2
DEFPOINTS
 70
     0
 62
     7
  6
CONTINUOUS
  0
ENDTAB
  0
TABLE
  2
STYLE
 70
     1
  0
STYLE
  2
STANDARD
 70
     0
 40
0.0
 41
0.8
 50
0.0
 71
     0
 42
0.2
  3
txt
  4

  0
ENDTAB
  0
TABLE
  2
VIEW
 70
     0
  0
ENDTAB
  0
TABLE
  2
UCS
 70
     0
  0
ENDTAB
  0
TABLE
  2
APPID
 70
     9
  0
APPID
  2
ACAD
 70
     0
  0
APPID
  2
ACAD_MLEADERVER
 70
     0
  0
APPID
  2
ACAD_EXEMPT_FROM_CAD_STANDARDS
 70
     0
  0
APPID
  2
ACAD_NAV_VCDISPLAY
 70
     0
  0
APPID
  2
ACAECLAYERSTANDARD
 70
     0
  0
APPID
  2
ACCMTRANSPARENCY
 70
     0
  0
APPID
  2
ACAD_DSTYLE_DIMJAG
 70
     0
  0
APPID
  2
ACAD_DSTYLE_DIMTALN
 70
     0
  0
APPID
  2
ACDBATTR
 70
     0
  0
ENDTAB
  0
TABLE
  2
DIMSTYLE
 70
     1
  0
DIMSTYLE
  2
STANDARD
 70
     0
  3

  4

  5

  6

  7

 40
1.0
 41
0.1875
 42
0.0625
 43
0.38
 44
0.125
 45
0.0
 46
0.0
 47
0.01
 48
0.01
140
0.15625
141
0.09
142
0.0
143
25.3999999999999986
144
1.0
145
0.0
146
1.0
147
0.09
 71
     1
 72
     0
 73
     1
 74
     1
 75
     0
 76
     0
 77
     0
 78
     4
170
     0
171
     2
172
     0
173
     0
174
     0
175
     0
176
     0
177
     0
178
     0
  0
ENDTAB
  0
ENDSEC
  0
SECTION
  2
BLOCKS
  0
BLOCK
  8
0
  2
$MODEL_SPACE
 70
     0
 10
0.0
 20
0.0
 30
0.0
  3
$MODEL_SPACE
  1

  0
ENDBLK
  5
21
  8
0
  0
BLOCK
 67
     1
  8
0
  2
$PAPER_SPACE
 70
     0
 10
0.0
 20
0.0
 30
0.0
  3
$PAPER_SPACE
  1

  0
ENDBLK
  5
1D
 67
     1
  8
0
  0
ENDSEC
  0
SECTION
  2
ENTITIES
  0
ATTDEF
  5
3930
  8
DEFPOINTS
 10
4306.0198947686048996
 20
231.5500419109528991
 30
0.0
 40
0.001
  1
K-14598M-4
  3

  2
MODELNUMBER
 70
     0
1001
ACDBATTR
1070
     0
1070
     1
  0
ATTDEF
  5
3931
  8
DEFPOINTS
 10
4306.0198947686048996
 20
231.5483752442862055
 30
0.0
 40
0.001
  1
PURIST 
  3

  2
TRADENAME
 70
     0
1001
ACDBATTR
1070
     0
1070
     1
  0
ATTDEF
  5
3932
  8
DEFPOINTS
 10
4306.0198947686048996
 20
231.546708577619512
 30
0.0
 40
0.001
  1
BATHROOM SINK FAUCET
  3

  2
PRODUCT
 70
     0
1001
ACDBATTR
1070
     0
1070
     1
  0
LINE
  5
12AC3
  8
0
 10
4305.6199011435355715
 20
231.5524847044061119
 30
0.0
 11
4305.6199011435355715
 21
224.5524847044061971
 31
0.0
  0
LINE
  5
12AC4
  8
0
 10
4305.8069090175358724
 20
232.3792563580061881
 30
0.0
 11
4305.8069090175358724
 21
232.3595713186062142
 31
0.0
  0
LINE
  5
12AC5
  8
0
 10
4305.8659641356362044
 20
232.3516973029061035
 30
0.0
 11
4305.8659641356362044
 21
232.3360284031421088
 31
0.0
  0
LINE
  5
12AC6
  8
0
 10
4305.8877861999362722
 20
232.3438232871060904
 30
0.0
 11
4305.8877861999362722
 21
232.3400998492950009
 31
0.0
  0
LINE
  5
12AC7
  8
0
 10
4306.159102701336451
 20
232.3400998492950009
 30
0.0
 11
4306.159102701336451
 21
232.3438232871060904
 31
0.0
  0
LINE
  5
12AC8
  8
0
 10
4306.1809247656356092
 20
232.3516973029061035
 30
0.0
 11
4306.1809247656356092
 21
232.3360284031421088
 31
0.0
  0
LINE
  5
12AC9
  8
0
 10
4306.2399798837359413
 20
232.3792563580061881
 30
0.0
 11
4306.2399798837359413
 21
232.3595713186062142
 31
0.0
  0
LINE
  5
12ACA
  8
0
 10
4306.4269877577371517
 20
231.5524847044061119
 30
0.0
 11
4306.4269877577371517
 21
224.5524847044061971
 31
0.0
  0
LINE
  5
12ACB
  8
0
 10
4307.4880113797362355
 20
230.8595862792062121
 30
0.0
 11
4307.4880113797362355
 21
232.2453831296062106
 31
0.0
  0
ARC
  5
12ACC
  8
0
 10
4307.4683113797364058
 20
232.2453831296062106
 30
0.0
 40
0.0197
 50
0.0
 51
90.0
  0
ARC
  5
12ACD
  8
0
 10
4307.4683113797364058
 20
230.8595862792062121
 30
0.0
 40
0.0197
 50
270.0
 51
0.0
  0
LINE
  5
12ACE
  8
0
 10
4307.5273814587362722
 20
230.9225634446061122
 30
0.0
 11
4307.5273814587362722
 21
232.1824059643060991
 31
0.0
  0
LINE
  5
12ACF
  8
0
 10
4307.5549405136362111
 20
232.2453831296062106
 30
0.0
 11
4307.5549405136362111
 21
230.8595883312436001
 31
0.0
  0
LINE
  5
12AD0
  8
0
 10
4308.4407672852357791
 20
230.8595713186062142
 30
0.0
 11
4308.4407672852357791
 21
232.2453980903061961
 31
0.0
  0
LINE
  5
12AD1
  8
0
 10
4308.8935231908362766
 20
231.3320122635061864
 30
0.0
 11
4308.8935231908362766
 21
231.3469668598062015
 31
0.0
  0
LINE
  5
12AD2
  8
0
 10
4308.8935231908362766
 20
231.7580025491062088
 30
0.0
 11
4308.8935231908362766
 21
231.7729571454061954
 31
0.0
  0
LINE
  5
12AD3
  8
0
 10
4306.4269877577371517
 20
230.8398862792062118
 30
0.0
 11
4307.4683113797364058
 21
230.8398862792062118
 31
0.0
  0
LINE
  5
12AD4
  8
0
 10
4307.4880113797362355
 20
230.9225634446061122
 30
0.0
 11
4307.5273814587362722
 21
230.9225634446061122
 31
0.0
  0
LINE
  5
12AD5
  8
0
 10
4308.4210821982132984
 20
230.8398862792062971
 30
0.0
 11
4307.5746404658775646
 21
230.8398883312435999
 31
0.0
  0
ARC
  5
12AD6
  8
0
 10
4307.5746405136360409
 20
230.8595883312436001
 30
0.0
 40
0.0197
 50
180.0
 51
269.9998610972705819
  0
LINE
  5
12AD7
  8
0
 10
4308.6927357892363943
 20
231.3320122635061864
 30
0.0
 11
4308.8935231908362766
 21
231.3320122635061864
 31
0.0
  0
LINE
  5
12AD8
  8
0
 10
4308.6927357892363943
 20
231.7729571454061954
 30
0.0
 11
4308.8935231908362766
 21
231.7729571454061954
 31
0.0
  0
LINE
  5
12AD9
  8
0
 10
4307.4880113797362355
 20
232.1824059643060991
 30
0.0
 11
4307.5273814587362722
 21
232.1824059643060991
 31
0.0
  0
LINE
  5
12ADA
  8
0
 10
4306.3853066645287981
 20
232.2650831296062108
 30
0.0
 11
4307.4683113797364058
 21
232.2650831296062108
 31
0.0
  0
LINE
  5
12ADB
  8
0
 10
4307.5746405136360409
 20
232.2650831296062108
 30
0.0
 11
4308.4210822459363044
 21
232.2650831296062108
 31
0.0
  0
ARC
  5
12ADC
  8
0
 10
4307.5746405136360409
 20
232.2453831296062106
 30
0.0
 40
0.0197
 50
90.0
 51
180.0
  0
LINE
  5
12ADD
  8
0
 10
4305.8877861999362722
 20
232.3438232871060904
 30
0.0
 11
4305.9115336603981632
 21
232.3438232871060904
 31
0.0
  0
LINE
  5
12ADE
  8
0
 10
4306.1353552408736505
 20
232.3438232871060904
 30
0.0
 11
4306.159102701336451
 21
232.3438232871060904
 31
0.0
  0
LINE
  5
12ADF
  8
0
 10
4305.8147830333364254
 20
232.3516973029061035
 30
0.0
 11
4306.2321058679372072
 21
232.3516973029061035
 31
0.0
  0
LINE
  5
12AE0
  8
0
 10
4306.2084838207365465
 20
232.4107524210062081
 30
0.0
 11
4305.8384050805361767
 21
232.4107524210062081
 31
0.0
  0
ARC
  5
12AE1
  8
0
 10
4306.0234444506359068
 20
224.5524847044061971
 30
0.0
 40
0.4035433071
 50
180.0
 51
0.0
  0
ARC
  5
12AE2
  8
0
 10
4305.8384050805361767
 20
232.3792563580061881
 30
0.0
 40
0.031496063
 50
90.0
 51
180.0
  0
ARC
  5
12AE3
  8
0
 10
4305.8147830333364254
 20
232.3595713186062142
 30
0.0
 40
0.0078740157
 50
180.0
 51
270.0
  0
ARC
  5
12AE4
  8
0
 10
4306.0234444506359068
 20
231.5524847044061971
 30
0.0
 40
1.0236220471999991
 50
293.2180077452240994
 51
315.8807647043381053
  0
ARC
  5
12AE5
  8
0
 10
4306.0234444506359068
 20
231.5524847044061971
 30
0.0
 40
1.0236220471999991
 50
44.1275775764129534
 51
246.7819922547759006
  0
ARC
  5
12AE6
  8
0
 10
4306.0234444506359068
 20
231.5524847044061971
 30
0.0
 40
0.9842519665999999
 50
294.2048348521275898
 51
313.6142768091361859
  0
ARC
  5
12AE7
  8
0
 10
4306.0234444506359068
 20
231.5524847044061971
 30
0.0
 40
0.9803149605999999
 50
294.3083128307080756
 51
313.3722275991738115
  0
ARC
  5
12AE8
  8
0
 10
4306.0234444506359068
 20
231.5524847044061971
 30
0.0
 40
0.7992125984000001
 50
300.3264473979944
 51
239.6735526020056
  0
ARC
  5
12AE9
  8
0
 10
4306.0234444506359068
 20
231.5524847044061971
 30
0.0
 40
0.4035433071
 50
0.0
 51
180.0
  0
ARC
  5
12AEA
  8
0
 10
4306.2084838207365465
 20
232.3792563580061881
 30
0.0
 40
0.031496063
 50
0.0
 51
90.0
  0
ARC
  5
12AEB
  8
0
 10
4306.2321058679372072
 20
232.3595713186062142
 30
0.0
 40
0.0078740157
 50
270.0
 51
0.0
  0
CIRCLE
  5
12AEC
  8
0
 10
4309.0588775215355781
 20
231.5524847044061971
 30
0.0
 40
0.2637795276
  0
ARC
  5
12AED
  8
0
 10
4308.6927357892363943
 20
232.0249256493061978
 30
0.0
 40
0.2519685039
 50
180.0
 51
270.0
  0
ARC
  5
12AEE
  8
0
 10
4308.6927357892363943
 20
231.0800437596062125
 30
0.0
 40
0.2519685039
 50
90.0
 51
180.0
  0
CIRCLE
  5
12AEF
  8
0
 10
4309.0588775215355781
 20
231.5524847044061971
 30
0.0
 40
0.2349819896
  0
ARC
  5
12AF0
  8
0
 10
4307.643839722136363
 20
232.2020910037061014
 30
0.0
 40
0.1181102362
 50
189.5940682268962973
 51
221.1769388854868055
  0
ARC
  5
12AF1
  8
0
 10
4307.643839722136363
 20
230.9028784052061951
 30
0.0
 40
0.1181102362
 50
138.8230611145131945
 51
170.4059317731037027
  0
ARC
  5
12AF2
  8
0
 10
4308.4210822459363044
 20
230.8595713186062142
 30
0.0
 40
0.0196850394
 50
269.9998610972705819
 51
0.0
  0
ARC
  5
12AF3
  8
0
 10
4308.4210822459363044
 20
232.2453980903061961
 30
0.0
 40
0.0196850394
 50
0.0
 51
90.0
  0
ENDSEC
  0
EOF
