  0
SECTION
  2
HEADER
  9
$ACADVER
  1
AC1009
  9
$INSBASE
 10
4319.925005920890726
 20
222.2524088952762895
 30
0.0
  9
$EXTMIN
 10
4312.2229447486070057
 20
222.2463841857644127
 30
-0.0000000349181948
  9
$EXTMAX
 10
4321.1001561181219586
 20
235.2778882829703946
 30
0.0000000814935746
  9
$LIMMIN
 10
0.0
 20
0.0
  9
$LIMMAX
 10
11.6929133858000007
 20
8.2677165353999982
  9
$ORTHOMODE
 70
     0
  9
$REGENMODE
 70
     1
  9
$FILLMODE
 70
     1
  9
$QTEXTMODE
 70
     0
  9
$MIRRTEXT
 70
     0
  9
$DRAGMODE
 70
     2
  9
$LTSCALE
 40
0.6431102362
  9
$OSMODE
 70
  4095
  9
$ATTMODE
 70
     1
  9
$TEXTSIZE
 40
0.2
  9
$TRACEWID
 40
0.05
  9
$TEXTSTYLE
  7
STANDARD
  9
$CLAYER
  8
0
  9
$CELTYPE
  6
BYLAYER
  9
$CECOLOR
 62
   256
  9
$DIMSCALE
 40
1.0
  9
$DIMASZ
 40
0.1875
  9
$DIMEXO
 40
0.0625
  9
$DIMDLI
 40
0.4443307087
  9
$DIMRND
 40
0.0
  9
$DIMDLE
 40
0.0
  9
$DIMEXE
 40
0.125
  9
$DIMTP
 40
0.01
  9
$DIMTM
 40
0.01
  9
$DIMTXT
 40
2.0
  9
$DIMCEN
 40
0.1052362205
  9
$DIMTSZ
 40
0.0
  9
$DIMTOL
 70
     1
  9
$DIMLIM
 70
     0
  9
$DIMTIH
 70
     1
  9
$DIMTOH
 70
     1
  9
$DIMSE1
 70
     0
  9
$DIMSE2
 70
     0
  9
$DIMTAD
 70
     0
  9
$DIMZIN
 70
     0
  9
$DIMBLK
  1

  9
$DIMASO
 70
     1
  9
$DIMSHO
 70
     1
  9
$DIMPOST
  1
\X
  9
$DIMAPOST
  1

  9
$DIMALT
 70
     1
  9
$DIMALTD
 70
     2
  9
$DIMALTF
 40
25.3999999999999986
  9
$DIMLFAC
 40
1.0
  9
$DIMTOFL
 70
     0
  9
$DIMTVP
 40
0.0
  9
$DIMTIX
 70
     0
  9
$DIMSOXD
 70
     0
  9
$DIMSAH
 70
     0
  9
$DIMBLK1
  1

  9
$DIMBLK2
  1

  9
$DIMSTYLE
  2
STANDARD
  9
$DIMCLRD
 70
     0
  9
$DIMCLRE
 70
     0
  9
$DIMCLRT
 70
     0
  9
$DIMTFAC
 40
1.0
  9
$DIMGAP
 40
0.09
  9
$LUNITS
 70
     2
  9
$LUPREC
 70
     4
  9
$SKETCHINC
 40
0.1
  9
$FILLETRAD
 40
0.0
  9
$AUNITS
 70
     0
  9
$AUPREC
 70
     0
  9
$MENU
  1
.
  9
$ELEVATION
 40
0.0
  9
$PELEVATION
 40
0.0
  9
$THICKNESS
 40
0.0
  9
$LIMCHECK
 70
     0
  9
$BLIPMODE
 70
     0
  9
$CHAMFERA
 40
0.0
  9
$CHAMFERB
 40
0.0
  9
$SKPOLY
 70
     0
  9
$TDCREATE
 40
2458060.468368056230247
  9
$TDUPDATE
 40
2459227.4620254631154239
  9
$TDINDWG
 40
0.6344515046
  9
$TDUSRTIMER
 40
0.6344515046
  9
$USRTIMER
 70
     1
  9
$ANGBASE
 50
0.0
  9
$ANGDIR
 70
     0
  9
$PDMODE
 70
     0
  9
$PDSIZE
 40
0.3125
  9
$PLINEWID
 40
0.0
  9
$COORDS
 70
     1
  9
$SPLFRAME
 70
     0
  9
$SPLINETYPE
 70
     6
  9
$SPLINESEGS
 70
     8
  9
$ATTDIA
 70
     1
  9
$ATTREQ
 70
     1
  9
$HANDLING
 70
     1
  9
$HANDSEED
  5
12C7F
  9
$SURFTAB1
 70
     6
  9
$SURFTAB2
 70
     6
  9
$SURFTYPE
 70
     6
  9
$SURFU
 70
     6
  9
$SURFV
 70
     6
  9
$UCSNAME
  2

  9
$UCSORG
 10
0.0
 20
0.0
 30
0.0
  9
$UCSXDIR
 10
1.0
 20
0.0
 30
0.0
  9
$UCSYDIR
 10
0.0
 20
1.0
 30
0.0
  9
$PUCSNAME
  2

  9
$PUCSORG
 10
0.0
 20
0.0
 30
0.0
  9
$PUCSXDIR
 10
1.0
 20
0.0
 30
0.0
  9
$PUCSYDIR
 10
0.0
 20
1.0
 30
0.0
  9
$USERI1
 70
     0
  9
$USERI2
 70
     0
  9
$USERI3
 70
     0
  9
$USERI4
 70
     0
  9
$USERI5
 70
     0
  9
$USERR1
 40
0.0
  9
$USERR2
 40
0.0
  9
$USERR3
 40
0.0
  9
$USERR4
 40
0.0
  9
$USERR5
 40
0.0
  9
$WORLDVIEW
 70
     1
  9
$SHADEDGE
 70
     3
  9
$SHADEDIF
 70
    70
  9
$TILEMODE
 70
     1
  9
$MAXACTVP
 70
    64
  9
$PLIMCHECK
 70
     0
  9
$PEXTMIN
 10
1.0000000000000000E+20
 20
1.0000000000000000E+20
 30
1.0000000000000000E+20
  9
$PEXTMAX
 10
-1.0000000000000000E+20
 20
-1.0000000000000000E+20
 30
-1.0000000000000000E+20
  9
$PLIMMIN
 10
0.0
 20
0.0
  9
$PLIMMAX
 10
12.0
 20
9.0
  9
$UNITMODE
 70
     0
  9
$VISRETAIN
 70
     1
  9
$PLINEGEN
 70
     0
  9
$PSLTSCALE
 70
     1
  0
ENDSEC
  0
SECTION
  2
TABLES
  0
TABLE
  2
VPORT
 70
     1
  0
VPORT
  2
*ACTIVE
 70
     0
 10
0.0
 20
0.0
 11
1.0
 21
1.0
 12
155.1051539489899085
 22
2.6513040200119331
 13
0.0
 23
0.0
 14
1.0
 24
1.0
 15
0.0
 25
0.0
 16
0.0
 26
0.0
 36
202.37134017897489
 17
4161.556396484375
 27
226.1108322143554972
 37
0.0
 40
13.1992917036077202
 41
2.9182795698924719
 42
50.0
 43
0.0
 44
0.0
 50
0.0
 51
0.0
 71
     0
 72
   100
 73
     1
 74
     1
 75
     0
 76
     0
 77
     0
 78
     0
  0
ENDTAB
  0
TABLE
  2
LTYPE
 70
     2
  0
LTYPE
  2
CONTINUOUS
 70
     0
  3
Solid line
 72
    65
 73
     0
 40
0.0
  0
LTYPE
  2
PHANTOM2
 70
     0
  3
___ _ _ ___ _ _ ___ _ _ ___ _ _
 72
    65
 73
     6
 40
1.25
 49
0.625
 49
-0.125
 49
0.125
 49
-0.125
 49
0.125
 49
-0.125
  0
ENDTAB
  0
TABLE
  2
LAYER
 70
     2
  0
LAYER
  2
0
 70
     0
 62
   255
  6
CONTINUOUS
  0
LAYER
  2
DEFPOINTS
 70
     0
 62
     7
  6
CONTINUOUS
  0
ENDTAB
  0
TABLE
  2
STYLE
 70
     1
  0
STYLE
  2
STANDARD
 70
     0
 40
0.0
 41
0.8
 50
0.0
 71
     0
 42
0.2
  3
txt
  4

  0
ENDTAB
  0
TABLE
  2
VIEW
 70
     0
  0
ENDTAB
  0
TABLE
  2
UCS
 70
     0
  0
ENDTAB
  0
TABLE
  2
APPID
 70
     9
  0
APPID
  2
ACAD
 70
     0
  0
APPID
  2
ACAD_MLEADERVER
 70
     0
  0
APPID
  2
ACAD_EXEMPT_FROM_CAD_STANDARDS
 70
     0
  0
APPID
  2
ACAD_NAV_VCDISPLAY
 70
     0
  0
APPID
  2
ACAECLAYERSTANDARD
 70
     0
  0
APPID
  2
ACCMTRANSPARENCY
 70
     0
  0
APPID
  2
ACAD_DSTYLE_DIMJAG
 70
     0
  0
APPID
  2
ACAD_DSTYLE_DIMTALN
 70
     0
  0
APPID
  2
ACDBATTR
 70
     0
  0
ENDTAB
  0
TABLE
  2
DIMSTYLE
 70
     1
  0
DIMSTYLE
  2
STANDARD
 70
     0
  3

  4

  5

  6

  7

 40
1.0
 41
0.1875
 42
0.0625
 43
0.38
 44
0.125
 45
0.0
 46
0.0
 47
0.01
 48
0.01
140
0.15625
141
0.09
142
0.0
143
25.3999999999999986
144
1.0
145
0.0
146
1.0
147
0.09
 71
     1
 72
     0
 73
     1
 74
     1
 75
     0
 76
     0
 77
     0
 78
     4
170
     0
171
     2
172
     0
173
     0
174
     0
175
     0
176
     0
177
     0
178
     0
  0
ENDTAB
  0
ENDSEC
  0
SECTION
  2
BLOCKS
  0
BLOCK
  8
0
  2
$MODEL_SPACE
 70
     0
 10
0.0
 20
0.0
 30
0.0
  3
$MODEL_SPACE
  1

  0
ENDBLK
  5
21
  8
0
  0
BLOCK
 67
     1
  8
0
  2
$PAPER_SPACE
 70
     0
 10
0.0
 20
0.0
 30
0.0
  3
$PAPER_SPACE
  1

  0
ENDBLK
  5
1D
 67
     1
  8
0
  0
ENDSEC
  0
SECTION
  2
ENTITIES
  0
ATTDEF
  5
3930
  8
DEFPOINTS
 10
4319.9217096143456729
 20
222.2566190045147891
 30
0.0
 40
0.001
  1
K-14598M-4
  3

  2
MODELNUMBER
 70
     0
1001
ACDBATTR
1070
     0
1070
     1
  0
ATTDEF
  5
3931
  8
DEFPOINTS
 10
4319.9217096143456729
 20
222.2549523378480956
 30
0.0
 40
0.001
  1
PURIST 
  3

  2
TRADENAME
 70
     0
1001
ACDBATTR
1070
     0
1070
     1
  0
ATTDEF
  5
3932
  8
DEFPOINTS
 10
4319.9217096143456729
 20
222.253285671181402
 30
0.0
 40
0.001
  1
BATHROOM SINK FAUCET
  3

  2
PRODUCT
 70
     0
1001
ACDBATTR
1070
     0
1070
     1
  0
LINE
  5
12B67
  8
0
 10
4318.901383873640043
 20
222.2524088952762895
 30
0.0
 11
4320.9486279681414089
 21
222.2524088952762895
 31
0.0
  0
LINE
  5
12B68
  8
0
 10
4320.9092578893423706
 20
222.4413852731763086
 30
0.0
 11
4318.9407539523408559
 21
222.4413852731763086
 31
0.0
  0
LINE
  5
12B69
  8
0
 10
4312.5214626137412779
 20
232.7413852731762915
 30
0.0
 11
4312.5214626137412779
 21
233.5287868479763063
 31
0.0
  0
LINE
  5
12B6A
  8
0
 10
4313.3285492279410391
 20
232.7413852731762915
 30
0.0
 11
4313.3285492279410391
 21
233.5287868479763063
 31
0.0
  0
LINE
  5
12B6B
  8
0
 10
4319.6612263933411668
 20
226.8154010211763136
 30
0.0
 11
4320.1887854484411946
 21
226.8154010211763136
 31
0.0
  0
LINE
  5
12B6C
  8
0
 10
4319.1376043460422807
 20
228.7405978715763126
 30
0.0
 11
4319.6612263933411668
 21
228.7405978715763126
 31
0.0
  0
LINE
  5
12B6D
  8
0
 10
4320.1887854484411946
 20
228.7405978715763126
 30
0.0
 11
4320.7124074956409459
 21
228.7405978715763126
 31
0.0
  0
LINE
  5
12B6E
  8
0
 10
4320.7124074956409459
 20
228.7602829109762865
 30
0.0
 11
4320.1887854484411946
 21
228.7602829109762865
 31
0.0
  0
LINE
  5
12B6F
  8
0
 10
4319.6612263933411668
 20
228.7602829109762865
 30
0.0
 11
4319.1376043460422807
 21
228.7602829109762865
 31
0.0
  0
LINE
  5
12B70
  8
0
 10
4319.1376043460422807
 20
228.7602829109762865
 30
0.0
 11
4319.6612263933411668
 21
228.7602829109762865
 31
0.0
  0
LINE
  5
12B71
  8
0
 10
4320.1887854484411946
 20
228.7602829109762865
 30
0.0
 11
4320.7124074956409459
 21
228.7602829109762865
 31
0.0
  0
LINE
  5
12B72
  8
0
 10
4320.7517775744418032
 20
228.7681569267762995
 30
0.0
 11
4320.7320925350413745
 21
228.7681569267762995
 31
0.0
  0
LINE
  5
12B73
  8
0
 10
4320.7242185193408659
 20
228.8272120448762905
 30
0.0
 11
4320.723035358540983
 21
228.8272120448762905
 31
0.0
  0
LINE
  5
12B74
  8
0
 10
4320.7163445035412224
 20
228.9047118083763053
 30
0.0
 11
4320.7114174658390766
 21
228.9047118083763053
 31
0.0
  0
LINE
  5
12B75
  8
0
 10
4320.711418466458781
 20
229.0646729112762898
 30
0.0
 11
4320.7163445035412224
 21
229.0646729112762898
 31
0.0
  0
LINE
  5
12B76
  8
0
 10
4320.7242185193408659
 20
229.1421726747763046
 30
0.0
 11
4320.723035439141313
 21
229.1421726747763046
 31
0.0
  0
LINE
  5
12B77
  8
0
 10
4320.7517775744418032
 20
229.2012277928762956
 30
0.0
 11
4320.7320925350413745
 21
229.2012277928762956
 31
0.0
  0
LINE
  5
12B78
  8
0
 10
4320.7124074956409459
 20
229.3114640133763089
 30
0.0
 11
4320.1887854484411946
 21
229.3114640133763089
 31
0.0
  0
LINE
  5
12B79
  8
0
 10
4319.6612263933411668
 20
229.3114640133763089
 30
0.0
 11
4319.1376043460422807
 21
229.3114640133763089
 31
0.0
  0
LINE
  5
12B7A
  8
0
 10
4320.1887854484411946
 20
230.5279994463762989
 30
0.0
 11
4319.6612263933411668
 21
230.5279994463762989
 31
0.0
  0
LINE
  5
12B7B
  8
0
 10
4318.901383873640043
 20
222.2524088952762895
 30
0.0
 11
4318.901383873640043
 21
222.4020151944762915
 31
0.0
  0
LINE
  5
12B7C
  8
0
 10
4319.1257933224405861
 20
229.2996529896763036
 30
0.0
 11
4319.1257933224405861
 21
228.7720939345763043
 31
0.0
  0
LINE
  5
12B7D
  8
0
 10
4319.1257933224405861
 20
222.6224876353763023
 30
0.0
 11
4319.1257933224405861
 21
228.7209128322762979
 31
0.0
  0
LINE
  5
12B7E
  8
0
 10
4319.1376043460422807
 20
228.7602829109762865
 30
0.0
 11
4319.1376043460422807
 21
228.7405978715763126
 31
0.0
  0
LINE
  5
12B7F
  8
0
 10
4319.5214626137412779
 20
233.5287868479763063
 30
0.0
 11
4319.5214626137412779
 21
229.5476844857763012
 31
0.0
  0
LINE
  5
12B80
  8
0
 10
4319.6612263933411668
 20
230.5279994463762989
 30
0.0
 11
4319.6612263933411668
 21
226.8154010211763136
 31
0.0
  0
LINE
  5
12B81
  8
0
 10
4320.1887854484411946
 20
230.5279994463762989
 30
0.0
 11
4320.1887854484411946
 21
226.8154010211763136
 31
0.0
  0
LINE
  5
12B82
  8
0
 10
4320.3285492279410391
 20
233.5287868479763063
 30
0.0
 11
4320.3285492279410391
 21
229.5476844857763012
 31
0.0
  0
LINE
  5
12B83
  8
0
 10
4320.7124074956409459
 20
228.7602829109762865
 30
0.0
 11
4320.7124074956409459
 21
228.7405978715763126
 31
0.0
  0
LINE
  5
12B84
  8
0
 10
4320.7163445035412224
 20
229.1037336739574926
 30
0.0
 11
4320.7163445035412224
 21
229.0646729112762898
 31
0.0
  0
LINE
  5
12B85
  8
0
 10
4320.7163445035412224
 20
228.9047118083763053
 30
0.0
 11
4320.7163445035412224
 21
228.8656511244242893
 31
0.0
  0
LINE
  5
12B86
  8
0
 10
4320.7242185193408659
 20
222.6224876353763023
 30
0.0
 11
4320.7242185193408659
 21
228.7209128322762979
 31
0.0
  0
LINE
  5
12B87
  8
0
 10
4320.7242185193408659
 20
228.7720939345763043
 30
0.0
 11
4320.7242185193408659
 21
229.2996529896763036
 31
0.0
  0
LINE
  5
12B88
  8
0
 10
4320.7832736374411979
 20
228.7996529896763036
 30
0.0
 11
4320.7832736374411979
 21
229.1697317298763039
 31
0.0
  0
LINE
  5
12B89
  8
0
 10
4320.7242185193408659
 20
229.1480781865762992
 30
0.0
 11
4320.7227913131409878
 21
229.1409494869762966
 31
0.0
  0
LINE
  5
12B8A
  8
0
 10
4320.7242185193408659
 20
229.1480781865762992
 30
0.0
 11
4320.7241262122406624
 21
229.1476288896762981
 31
0.0
  0
LINE
  5
12B8B
  8
0
 10
4312.5214626137412779
 20
232.7413852731762915
 30
0.0
 11
4313.3285492279410391
 21
232.7413852731762915
 31
0.0
  0
LINE
  5
12B8C
  8
0
 10
4320.723392970840905
 20
228.8253937996763057
 30
0.0
 11
4320.7242185193408659
 21
228.8213065330762959
 31
0.0
  0
LINE
  5
12B8D
  8
0
 10
4320.9486279681414089
 20
222.2524088952762895
 30
0.0
 11
4320.9486279681414089
 21
222.4020151944762915
 31
0.0
  0
LINE
  5
12B8E
  8
0
 10
4314.2608326925410438
 20
234.4610703125763109
 30
0.0
 11
4318.5891791492413176
 21
234.4610703125763109
 31
0.0
  0
LINE
  5
12B8F
  8
0
 10
4314.2608326925410438
 20
235.2681569267762995
 30
0.0
 11
4318.5891791492413176
 21
235.2681569267762995
 31
0.0
  0
ARC
  5
12B90
  8
0
 10
4314.2608326925410438
 20
233.5287868479763063
 30
0.0
 40
1.7393700786999999
 50
90.0
 51
180.0
  0
ARC
  5
12B91
  8
0
 10
4314.2608326925410438
 20
233.5287868479763063
 30
0.0
 40
0.9322834645999998
 50
90.0
 51
180.0
  0
ARC
  5
12B92
  8
0
 10
4319.9250059208416133
 20
227.5201254306763019
 30
0.0
 40
0.7125984252000001
 50
291.725839623524223
 51
68.274160376475777
  0
ARC
  5
12B93
  8
0
 10
4319.9250059208416133
 20
227.5201254306763019
 30
0.0
 40
0.7125984252000001
 50
261.4746139356311119
 51
278.5253860643688881
  0
ARC
  5
12B94
  8
0
 10
4319.9250059208416133
 20
227.5201254306763019
 30
0.0
 40
0.7125984252000001
 50
111.725839614834598
 51
248.2741603851169998
  0
ARC
  5
12B95
  8
0
 10
4318.9446909602411324
 20
222.6224876353763023
 30
0.0
 40
0.1811023622
 50
270.0
 51
0.0
  0
ARC
  5
12B96
  8
0
 10
4320.905320881541229
 20
222.6224876353763023
 30
0.0
 40
0.1811023622
 50
180.0
 51
270.0
  0
ARC
  5
12B97
  8
0
 10
4318.9407539523408559
 20
222.4020151944762915
 30
0.0
 40
0.0393700787
 50
90.0
 51
180.0
  0
ARC
  5
12B98
  8
0
 10
4320.9092578893423706
 20
222.4020151944762915
 30
0.0
 40
0.0393700787
 50
0.0
 51
90.0
  0
ARC
  5
12B99
  8
0
 10
4318.5891791492413176
 20
233.5287868479763063
 30
0.0
 40
1.7393700786999999
 50
0.0
 51
90.0
  0
ARC
  5
12B9A
  8
0
 10
4318.5891791492413176
 20
233.5287868479763063
 30
0.0
 40
0.9322834645999998
 50
0.0
 51
90.0
  0
ARC
  5
12B9B
  8
0
 10
4321.5766531488407054
 20
228.9737243071762975
 30
0.0
 40
0.8700829243999999
 50
168.9191176900988864
 51
170.3280787417006081
  0
ARC
  5
12B9C
  8
0
 10
4321.572574112541588
 20
228.9949182131763052
 30
0.0
 40
0.8659371444999999
 50
189.6427486083995007
 51
191.2897015149017932
  0
ARC
  5
12B9D
  8
0
 10
4321.5549813181423815
 20
228.9775366402762984
 30
0.0
 40
0.8480786508999999
 50
170.3359926761978045
 51
171.442522445603089
  0
ARC
  5
12B9E
  8
0
 10
4321.553067498942255
 20
228.9915407326762988
 30
0.0
 40
0.8461403929000001
 50
188.5561118612021971
 51
189.6385287647011069
  0
ARC
  5
12B9F
  8
0
 10
4321.5380805430413602
 20
228.9800983509763057
 30
0.0
 40
0.8309848444
 50
171.4437863446015911
 51
172.4942508816018858
  0
ARC
  5
12BA0
  8
0
 10
4321.5352401520412968
 20
228.9888867212762875
 30
0.0
 40
0.8281165951999998
 50
187.5045652604983957
 51
188.5580381668015946
  0
ARC
  5
12BA1
  8
0
 10
4321.5260269424416038
 20
228.9817349298762963
 30
0.0
 40
0.8188207521999999
 50
172.6275750873033132
 51
174.0539942912990909
  0
ARC
  5
12BA2
  8
0
 10
4321.5255701026408133
 20
228.9817910152762863
 30
0.0
 40
0.8183604923
 50
172.4973298005008076
 51
172.627365107898413
  0
ARC
  5
12BA3
  8
0
 10
4321.5249500734407775
 20
228.9875166934762944
 30
0.0
 40
0.8177357240999999
 50
187.3345942593010136
 51
187.503559451299509
  0
ARC
  5
12BA4
  8
0
 10
4321.5245146160414151
 20
228.987471574976297
 30
0.0
 40
0.8172980699
 50
185.9060657559971901
 51
187.3353543725993973
  0
ARC
  5
12BA5
  8
0
 10
4321.4968797866413297
 20
228.9848567734763094
 30
0.0
 40
0.7895405454000001
 50
180.0119312555991087
 51
185.8280222454993122
  0
ARC
  5
12BA6
  8
0
 10
4321.4968772290412744
 20
228.9845183018763066
 30
0.0
 40
0.7895379845999999
 50
174.1707047524010932
 51
179.9873688306005874
  0
ARC
  5
12BA7
  8
0
 10
4319.2852421413417687
 20
229.5476844857763012
 30
0.0
 40
0.2362204724
 50
270.0
 51
0.0
  0
ARC
  5
12BA8
  8
0
 10
4320.5647697004424117
 20
229.5476844857763012
 30
0.0
 40
0.2362204724
 50
180.0
 51
270.0
  0
ARC
  5
12BA9
  8
0
 10
4320.7517775744418032
 20
228.7996529896763036
 30
0.0
 40
0.031496063
 50
270.0
 51
0.0
  0
ARC
  5
12BAA
  8
0
 10
4320.7517775744418032
 20
229.1697317298763039
 30
0.0
 40
0.031496063
 50
0.0
 51
90.0
  0
ARC
  5
12BAB
  8
0
 10
4320.706071059241367
 20
228.8992773899763051
 30
0.0
 40
0.0209036283
 50
293.1971641808661957
 51
299.4370516847084218
  0
ARC
  5
12BAC
  8
0
 10
4320.7045334799422562
 20
228.7209128322762979
 30
0.0
 40
0.0196850394
 50
0.0
 51
90.0
  0
ARC
  5
12BAD
  8
0
 10
4319.1454783618410147
 20
228.7209128322762979
 30
0.0
 40
0.0196850394
 50
90.0
 51
180.0
  0
ARC
  5
12BAE
  8
0
 10
4319.1376043460422807
 20
228.7720939345763043
 30
0.0
 40
0.0118110236
 50
180.0
 51
270.0
  0
ARC
  5
12BAF
  8
0
 10
4320.7124074956409459
 20
228.7720939345763043
 30
0.0
 40
0.0118110236
 50
270.0
 51
0.0
  0
ARC
  5
12BB0
  8
0
 10
4320.7124074956409459
 20
229.2996529896763036
 30
0.0
 40
0.0118110236
 50
0.0
 51
90.0
  0
ARC
  5
12BB1
  8
0
 10
4319.1376043460422807
 20
229.2996529896763036
 30
0.0
 40
0.0118110236
 50
90.0
 51
180.0
  0
ARC
  5
12BB2
  8
0
 10
4320.7320925350413745
 20
229.1933537771762985
 30
0.0
 40
0.0078740157
 50
90.0
 51
180.0
  0
ARC
  5
12BB3
  8
0
 10
4320.7320925350413745
 20
228.7760309424762966
 30
0.0
 40
0.0078740157
 50
180.0
 51
270.0
  0
LINE
  5
12BB4
  8
0
 10
4320.714305090094058
 20
229.0893220422873071
 30
0.0
 11
4320.7163445035412224
 21
229.0883122194763075
 31
0.0
  0
LINE
  5
12BB5
  8
0
 10
4320.7116114794407622
 20
229.0665575551763027
 30
0.0
 11
4320.7114687595412761
 21
229.0651752377762875
 31
0.0
  0
LINE
  5
12BB6
  8
0
 10
4320.7114687595412761
 20
229.0651752377762875
 30
0.0
 11
4320.7114220173252761
 21
229.0647076996413887
 31
0.0
  0
LINE
  5
12BB7
  8
0
 10
4320.7114202867405766
 20
228.9046845711762899
 30
0.0
 11
4320.7114676092423906
 21
228.9042209549762958
 31
0.0
  0
LINE
  5
12BB8
  8
0
 10
4320.7114676092423906
 20
228.9042209549762958
 30
0.0
 11
4320.7115548221418067
 21
228.9033733665762895
 31
0.0
  0
ENDSEC
  0
EOF
