  0
SECTION
  2
HEADER
  9
$ACADVER
  1
AC1009
  9
$INSBASE
 10
70.1094955888930826
 20
-17.3283148110433309
 30
0.0
  9
$EXTMIN
 10
63.8956053604370311
 20
-25.4718977447333401
 30
-0.0000000000112498
  9
$EXTMAX
 10
76.3223064599914096
 20
-17.3218345193997791
 30
0.0000000000002956
  9
$LIMMIN
 10
0.0
 20
0.0
  9
$LIMMAX
 10
11.6929133858000007
 20
8.2677165353999982
  9
$ORTHOMODE
 70
     0
  9
$REGENMODE
 70
     1
  9
$FILLMODE
 70
     1
  9
$QTEXTMODE
 70
     0
  9
$MIRRTEXT
 70
     0
  9
$DRAGMODE
 70
     2
  9
$LTSCALE
 40
0.6431102362
  9
$OSMODE
 70
  4095
  9
$ATTMODE
 70
     1
  9
$TEXTSIZE
 40
0.2
  9
$TRACEWID
 40
0.05
  9
$TEXTSTYLE
  7
STANDARD
  9
$CLAYER
  8
0
  9
$CELTYPE
  6
BYLAYER
  9
$CECOLOR
 62
   256
  9
$DIMSCALE
 40
1.0
  9
$DIMASZ
 40
0.1875
  9
$DIMEXO
 40
0.0625
  9
$DIMDLI
 40
0.4443307087
  9
$DIMRND
 40
0.0
  9
$DIMDLE
 40
0.0
  9
$DIMEXE
 40
0.125
  9
$DIMTP
 40
0.01
  9
$DIMTM
 40
0.01
  9
$DIMTXT
 40
1.0
  9
$DIMCEN
 40
0.1052362205
  9
$DIMTSZ
 40
0.0
  9
$DIMTOL
 70
     1
  9
$DIMLIM
 70
     0
  9
$DIMTIH
 70
     1
  9
$DIMTOH
 70
     1
  9
$DIMSE1
 70
     0
  9
$DIMSE2
 70
     0
  9
$DIMTAD
 70
     0
  9
$DIMZIN
 70
     0
  9
$DIMBLK
  1

  9
$DIMASO
 70
     1
  9
$DIMSHO
 70
     1
  9
$DIMPOST
  1
\X
  9
$DIMAPOST
  1

  9
$DIMALT
 70
     1
  9
$DIMALTD
 70
     2
  9
$DIMALTF
 40
25.3999999999999986
  9
$DIMLFAC
 40
1.0
  9
$DIMTOFL
 70
     0
  9
$DIMTVP
 40
0.0
  9
$DIMTIX
 70
     0
  9
$DIMSOXD
 70
     0
  9
$DIMSAH
 70
     0
  9
$DIMBLK1
  1

  9
$DIMBLK2
  1

  9
$DIMSTYLE
  2
STANDARD
  9
$DIMCLRD
 70
     0
  9
$DIMCLRE
 70
     0
  9
$DIMCLRT
 70
     0
  9
$DIMTFAC
 40
1.0
  9
$DIMGAP
 40
0.09
  9
$LUNITS
 70
     2
  9
$LUPREC
 70
     4
  9
$SKETCHINC
 40
0.1
  9
$FILLETRAD
 40
0.0
  9
$AUNITS
 70
     0
  9
$AUPREC
 70
     0
  9
$MENU
  1
.
  9
$ELEVATION
 40
0.0
  9
$PELEVATION
 40
0.0
  9
$THICKNESS
 40
0.0
  9
$LIMCHECK
 70
     0
  9
$BLIPMODE
 70
     0
  9
$CHAMFERA
 40
0.0
  9
$CHAMFERB
 40
0.0
  9
$SKPOLY
 70
     0
  9
$TDCREATE
 40
2458172.4620254631154239
  9
$TDUPDATE
 40
2459095.8855902780778706
  9
$TDINDWG
 40
0.1094735301
  9
$TDUSRTIMER
 40
0.1094735301
  9
$USRTIMER
 70
     1
  9
$ANGBASE
 50
0.0
  9
$ANGDIR
 70
     0
  9
$PDMODE
 70
     0
  9
$PDSIZE
 40
0.3125
  9
$PLINEWID
 40
0.0
  9
$COORDS
 70
     1
  9
$SPLFRAME
 70
     0
  9
$SPLINETYPE
 70
     6
  9
$SPLINESEGS
 70
     8
  9
$ATTDIA
 70
     1
  9
$ATTREQ
 70
     1
  9
$HANDLING
 70
     1
  9
$HANDSEED
  5
F91E
  9
$SURFTAB1
 70
     6
  9
$SURFTAB2
 70
     6
  9
$SURFTYPE
 70
     6
  9
$SURFU
 70
     6
  9
$SURFV
 70
     6
  9
$UCSNAME
  2

  9
$UCSORG
 10
0.0
 20
0.0
 30
0.0
  9
$UCSXDIR
 10
1.0
 20
0.0
 30
0.0
  9
$UCSYDIR
 10
0.0
 20
1.0
 30
0.0
  9
$PUCSNAME
  2

  9
$PUCSORG
 10
0.0
 20
0.0
 30
0.0
  9
$PUCSXDIR
 10
1.0
 20
0.0
 30
0.0
  9
$PUCSYDIR
 10
0.0
 20
1.0
 30
0.0
  9
$USERI1
 70
     0
  9
$USERI2
 70
     0
  9
$USERI3
 70
     0
  9
$USERI4
 70
     0
  9
$USERI5
 70
     0
  9
$USERR1
 40
0.0
  9
$USERR2
 40
0.0
  9
$USERR3
 40
0.0
  9
$USERR4
 40
0.0
  9
$USERR5
 40
0.0
  9
$WORLDVIEW
 70
     1
  9
$SHADEDGE
 70
     3
  9
$SHADEDIF
 70
    70
  9
$TILEMODE
 70
     1
  9
$MAXACTVP
 70
    64
  9
$PLIMCHECK
 70
     0
  9
$PEXTMIN
 10
1.0000000000000000E+20
 20
1.0000000000000000E+20
 30
1.0000000000000000E+20
  9
$PEXTMAX
 10
-1.0000000000000000E+20
 20
-1.0000000000000000E+20
 30
-1.0000000000000000E+20
  9
$PLIMMIN
 10
0.0
 20
0.0
  9
$PLIMMAX
 10
12.0
 20
9.0
  9
$UNITMODE
 70
     0
  9
$VISRETAIN
 70
     1
  9
$PLINEGEN
 70
     0
  9
$PSLTSCALE
 70
     1
  0
ENDSEC
  0
SECTION
  2
TABLES
  0
TABLE
  2
VPORT
 70
     1
  0
VPORT
  2
*ACTIVE
 70
     0
 10
0.0
 20
0.0
 11
1.0
 21
1.0
 12
-54.5022026898584215
 22
-26.7091403024443892
 13
0.0
 23
0.0
 14
1.0
 24
1.0
 15
0.0
 25
0.0
 16
0.0
 26
0.0
 36
30.6214257250603907
 17
124.6111586000725993
 27
5.3122741703778242
 37
0.0
 40
8.2178862202739182
 41
2.6486111111111108
 42
50.0
 43
0.0
 44
0.0
 50
0.0
 51
0.0
 71
     0
 72
   100
 73
     1
 74
     1
 75
     0
 76
     0
 77
     0
 78
     1
  0
ENDTAB
  0
TABLE
  2
LTYPE
 70
     2
  0
LTYPE
  2
CONTINUOUS
 70
     0
  3
Solid line
 72
    65
 73
     0
 40
0.0
  0
LTYPE
  2
PHANTOM2
 70
     0
  3
___ _ _ ___ _ _ ___ _ _ ___ _ _
 72
    65
 73
     6
 40
1.25
 49
0.625
 49
-0.125
 49
0.125
 49
-0.125
 49
0.125
 49
-0.125
  0
ENDTAB
  0
TABLE
  2
LAYER
 70
     2
  0
LAYER
  2
0
 70
     0
 62
   255
  6
CONTINUOUS
  0
LAYER
  2
DEFPOINTS
 70
     0
 62
     7
  6
CONTINUOUS
  0
ENDTAB
  0
TABLE
  2
STYLE
 70
     1
  0
STYLE
  2
STANDARD
 70
     0
 40
0.0
 41
0.8
 50
0.0
 71
     0
 42
0.2
  3
txt
  4

  0
ENDTAB
  0
TABLE
  2
VIEW
 70
     0
  0
ENDTAB
  0
TABLE
  2
UCS
 70
     0
  0
ENDTAB
  0
TABLE
  2
APPID
 70
     9
  0
APPID
  2
ACAD
 70
     0
  0
APPID
  2
ACAD_MLEADERVER
 70
     0
  0
APPID
  2
ACAD_EXEMPT_FROM_CAD_STANDARDS
 70
     0
  0
APPID
  2
ACAD_DSTYLE_DIMJAG
 70
     0
  0
APPID
  2
ACAD_DSTYLE_DIMTALN
 70
     0
  0
APPID
  2
ACAD_NAV_VCDISPLAY
 70
     0
  0
APPID
  2
ACAECLAYERSTANDARD
 70
     0
  0
APPID
  2
ACCMTRANSPARENCY
 70
     0
  0
APPID
  2
ACDBATTR
 70
     0
  0
ENDTAB
  0
TABLE
  2
DIMSTYLE
 70
     1
  0
DIMSTYLE
  2
STANDARD
 70
     0
  3

  4

  5

  6

  7

 40
1.0
 41
0.1875
 42
0.0625
 43
0.38
 44
0.125
 45
0.0
 46
0.0
 47
0.01
 48
0.01
140
0.15625
141
0.09
142
0.0
143
25.3999999999999986
144
1.0
145
0.0
146
1.0
147
0.09
 71
     1
 72
     0
 73
     1
 74
     1
 75
     0
 76
     0
 77
     0
 78
     4
170
     0
171
     2
172
     0
173
     0
174
     0
175
     0
176
     0
177
     0
178
     0
  0
ENDTAB
  0
ENDSEC
  0
SECTION
  2
BLOCKS
  0
BLOCK
  8
0
  2
$MODEL_SPACE
 70
     0
 10
0.0
 20
0.0
 30
0.0
  3
$MODEL_SPACE
  1

  0
ENDBLK
  5
21
  8
0
  0
BLOCK
 67
     1
  8
0
  2
$PAPER_SPACE
 70
     0
 10
0.0
 20
0.0
 30
0.0
  3
$PAPER_SPACE
  1

  0
ENDBLK
  5
1D
 67
     1
  8
0
  0
BLOCK
  8
0
  2
_FILLED
 70
     0
 10
0.0
 20
0.0
 30
0.0
  3
_FILLED
  1

  0
SOLID
  5
B3EB
  8
0
  6
BYBLOCK
 62
     0
 10
0.0
 20
0.0
 30
0.0
 11
-1.0
 21
0.1666666667
 31
0.0
 12
-1.0
 22
-0.1666666667
 32
0.0
 13
-1.0
 23
-0.1666666667
 33
0.0
  0
ENDBLK
  5
B3EC
  8
0
  6
BYBLOCK
 62
     0
  0
ENDSEC
  0
SECTION
  2
ENTITIES
  0
ATTDEF
  5
F1C0
  8
DEFPOINTS
 10
70.1096978109494557
 20
-17.3247080356328986
 30
0.0
 40
0.001
  1
K-14602A-4ND
  3

  2
MODELNUMBER
 70
     0
1001
ACDBATTR
1070
     0
1070
     1
  0
ATTDEF
  5
F1C1
  8
DEFPOINTS
 10
70.1096978109494557
 20
-17.3263747022995602
 30
0.0
 40
0.001
  1
LOURE
  3

  2
TRADENAME
 70
     0
1001
ACDBATTR
1070
     0
1070
     1
  0
ATTDEF
  5
F1C2
  8
DEFPOINTS
 10
70.1096978109494557
 20
-17.3280413689662289
 30
0.0
 40
0.001
  1
BATHROOM SINK FAUCET
  3

  2
PRODUCT
 70
     0
1001
ACDBATTR
1070
     0
1070
     1
  0
LINE
  5
F657
  8
0
 10
70.7246530691930815
 20
-25.4712137626433908
 30
0.0
 11
69.4943381085930838
 21
-25.4712137626433908
 31
0.0
  0
ARC
  5
F658
  8
0
 10
69.4943381085930838
 20
-25.4613712429433896
 30
0.0
 40
0.0098425197000003
 50
180.0074943349468128
 51
270.0000000000025011
  0
LINE
  5
F659
  8
0
 10
69.4844955888930826
 20
-17.5983148110433802
 30
0.0
 11
69.4844955888930826
 21
-25.4613712429433896
 31
0.0
  0
LINE
  5
F65A
  8
0
 10
69.0744955888930861
 20
-17.3583148110433889
 30
0.0
 11
69.0744955888930861
 21
-17.5683148111090297
 31
0.0
  0
ARC
  5
F65B
  8
0
 10
69.104495588893073
 20
-17.3583148110433889
 30
0.0
 40
0.030000000000002
 50
90.0000000000032543
 51
179.9999999999965041
  0
LINE
  5
F65C
  8
0
 10
69.104495588893073
 20
-17.3283148110433913
 30
0.0
 11
71.1144955888930781
 21
-17.3283148110432705
 31
0.0
  0
ARC
  5
F65D
  8
0
 10
71.1144955888930781
 20
-17.358314811043261
 30
0.0
 40
0.0299999999999976
 50
359.9999999997692157
 51
90.0000000000016058
  0
LINE
  5
F65E
  8
0
 10
71.1444955888930792
 20
-17.3583148110433783
 30
0.0
 11
71.1444955888922408
 21
-17.5683148110433791
 31
0.0
  0
ARC
  5
F65F
  8
0
 10
71.1144955888921118
 20
-17.5683148110432583
 30
0.0
 40
0.0300000000001202
 50
270.0000000018442279
 51
359.9999999997692157
  0
LINE
  5
F660
  8
0
 10
71.1144955888930781
 20
-17.5983148110433802
 30
0.0
 11
69.104495588893073
 21
-17.5983148111080716
 31
0.0
  0
ARC
  5
F661
  8
0
 10
69.1044955888921208
 20
-17.5683148111090297
 30
0.0
 40
0.0299999999990366
 50
179.9999998746231995
 51
270.0000000018466721
  0
ARC
  5
F662
  8
0
 10
70.7246530691930815
 20
-25.4613712429433896
 30
0.0
 40
0.0098425196999976
 50
269.9999999999894271
 51
0.0000000000154702
  0
LINE
  5
F663
  8
0
 10
70.7344955888930826
 20
-17.5983148110433802
 30
0.0
 11
70.7344955888930826
 21
-25.4613712429433896
 31
0.0
  0
LINE
  5
F664
  8
0
 10
73.0415034628930897
 20
-17.3283148110433913
 30
0.0
 11
75.0515034628930806
 21
-17.3283148110433913
 31
0.0
  0
ARC
  5
F665
  8
0
 10
75.0515034591925883
 20
-17.35831481997716
 30
0.0
 40
0.0300000089337771
 50
0.0000170622578984
 51
89.9999929325856272
  0
LINE
  5
F666
  8
0
 10
75.0815034681263711
 20
-17.3583148110433783
 30
0.0
 11
75.0815034681263711
 21
-17.5733148110433888
 31
0.0
  0
ARC
  5
F667
  8
0
 10
75.0515034591925883
 20
-17.5733148021096106
 30
0.0
 40
0.030000008933776
 50
270.0000070674144013
 51
359.9999829377489959
  0
LINE
  5
F668
  8
0
 10
75.0515034628930806
 20
-17.6033148110433793
 30
0.0
 11
73.0415034628930897
 21
-17.6033148110433793
 31
0.0
  0
ARC
  5
F669
  8
0
 10
73.0415034663302549
 20
-17.5733148027453296
 30
0.0
 40
0.0300000082980499
 50
180.0000158481074948
 51
269.9999934355028017
  0
LINE
  5
F66A
  8
0
 10
73.0115034580321947
 20
-17.5733148110433888
 30
0.0
 11
73.0115034580321947
 21
-17.3583148110433783
 31
0.0
  0
ARC
  5
F66B
  8
0
 10
73.0415034663302265
 20
-17.358314819341409
 30
0.0
 40
0.030000008298025
 50
90.0000065644474461
 51
179.9999841519432948
  0
LINE
  5
F66C
  8
0
 10
73.8540034628930755
 20
-17.6033148110433793
 30
0.0
 11
73.8540034628930755
 21
-17.6232990630433797
 31
0.0
  0
LINE
  5
F66D
  8
0
 10
74.2390034628930806
 20
-17.6033148110433793
 30
0.0
 11
74.2390034628930806
 21
-17.6232990630433797
 31
0.0
  0
LINE
  5
F66E
  8
0
 10
73.0415034628930897
 20
-17.6232990630433797
 30
0.0
 11
73.9873342140930816
 21
-17.6232990630433797
 31
0.0
  0
ARC
  5
F66F
  8
0
 10
74.0465034628930852
 20
-16.3316140710952205
 30
0.0
 40
1.2930394883481631
 50
267.3772398139777806
 51
272.6227601860222194
  0
LINE
  5
F670
  8
0
 10
74.1056727116930745
 20
-17.6232990630433797
 30
0.0
 11
76.2915034628930755
 21
-17.6232990630433797
 31
0.0
  0
ARC
  5
F671
  8
0
 10
76.2915034619973937
 20
-17.6532990652057507
 30
0.0
 40
0.0300000021623569
 50
0.0000041298048135
 51
89.9999982893838961
  0
LINE
  5
F672
  8
0
 10
76.3215034641597612
 20
-17.6532990630433915
 30
0.0
 11
76.3215034641597185
 21
-18.4732990630433918
 31
0.0
  0
ARC
  5
F673
  8
0
 10
76.2915034619973511
 20
-18.4732990608810184
 30
0.0
 40
0.0300000021623639
 50
270.0000017107244048
 51
359.9999958701915261
  0
LINE
  5
F674
  8
0
 10
76.2915034628930755
 20
-18.5032990630433787
 30
0.0
 11
73.0415034628930897
 21
-18.5032990630491589
 31
0.0
  0
ARC
  5
F675
  8
0
 10
73.0415034663301839
 20
-18.4732990547511591
 30
0.0
 40
0.0300000082979975
 50
180.0000158369797987
 51
269.9999934356030167
  0
LINE
  5
F676
  8
0
 10
73.0115034580321947
 20
-18.4732990630433918
 30
0.0
 11
73.0115034580321947
 21
-17.6532990630433915
 31
0.0
  0
ARC
  5
F677
  8
0
 10
73.0415034666077645
 20
-17.6532990716189602
 30
0.0
 40
0.0300000085755719
 50
90.0000070945279589
 51
179.9999836218680969
  0
LINE
  5
F678
  8
0
 10
67.1774877148930756
 20
-17.3283148110433913
 30
0.0
 11
65.1674877148930847
 21
-17.3283148110433913
 31
0.0
  0
ARC
  5
F679
  8
0
 10
65.167487718593577
 20
-17.35831481997716
 30
0.0
 40
0.0300000089337771
 50
90.0000070674143586
 51
179.9999829377420895
  0
LINE
  5
F67A
  8
0
 10
65.1374877096597942
 20
-17.3583148110433783
 30
0.0
 11
65.1374877096597942
 21
-17.5733148110433888
 31
0.0
  0
ARC
  5
F67B
  8
0
 10
65.167487718593577
 20
-17.5733148021096106
 30
0.0
 40
0.030000008933776
 50
180.0000170622508904
 51
269.9999929325855987
  0
LINE
  5
F67C
  8
0
 10
65.1674877148930847
 20
-17.6033148110433793
 30
0.0
 11
67.1774877148930756
 21
-17.6033148110433793
 31
0.0
  0
ARC
  5
F67D
  8
0
 10
67.1774877114559104
 20
-17.5733148027453296
 30
0.0
 40
0.0300000082980499
 50
270.0000065644970846
 51
359.99998415189242
  0
LINE
  5
F67E
  8
0
 10
67.2074877197539706
 20
-17.5733148110433888
 30
0.0
 11
67.2074877197539706
 21
-17.3583148110433783
 31
0.0
  0
ARC
  5
F67F
  8
0
 10
67.1774877114559246
 20
-17.358314819341409
 30
0.0
 40
0.030000008298025
 50
0.0000158480566712
 51
89.9999934355525397
  0
LINE
  5
F680
  8
0
 10
66.3649877148930898
 20
-17.6033148110433793
 30
0.0
 11
66.3649877148930898
 21
-17.6232990630433797
 31
0.0
  0
LINE
  5
F681
  8
0
 10
65.9799877148930847
 20
-17.6033148110433793
 30
0.0
 11
65.9799877148930847
 21
-17.6232990630433797
 31
0.0
  0
LINE
  5
F682
  8
0
 10
67.1774877148930756
 20
-17.6232990630433797
 30
0.0
 11
66.2316569636930836
 21
-17.6232990630433797
 31
0.0
  0
ARC
  5
F683
  8
0
 10
66.1724877148930801
 20
-16.3316140710952205
 30
0.0
 40
1.2930394883481631
 50
267.3772398139777806
 51
272.6227601860222194
  0
LINE
  5
F684
  8
0
 10
66.1133184660930908
 20
-17.6232990630433797
 30
0.0
 11
63.9274877148930827
 21
-17.6232990630433797
 31
0.0
  0
ARC
  5
F685
  8
0
 10
63.9274877157887573
 20
-17.6532990652057507
 30
0.0
 40
0.0300000021623569
 50
90.0000017106160755
 51
179.9999958701949936
  0
LINE
  5
F686
  8
0
 10
63.897487713626397
 20
-17.6532990630433915
 30
0.0
 11
63.8974877136264467
 21
-18.4732990630433918
 31
0.0
  0
ARC
  5
F687
  8
0
 10
63.9274877157888071
 20
-18.4732990608810184
 30
0.0
 40
0.0300000021623639
 50
180.0000041298081896
 51
269.9999982892755952
  0
LINE
  5
F688
  8
0
 10
63.9274877148930827
 20
-18.5032990630433787
 30
0.0
 11
67.1774877148930756
 21
-18.5032990630491589
 31
0.0
  0
ARC
  5
F689
  8
0
 10
67.1774877114559672
 20
-18.4732990547511591
 30
0.0
 40
0.0300000082979975
 50
270.0000065643969833
 51
359.9999841630200876
  0
LINE
  5
F68A
  8
0
 10
67.2074877197539706
 20
-18.4732990630433918
 30
0.0
 11
67.2074877197539706
 21
-17.6532990630433915
 31
0.0
  0
ARC
  5
F68B
  8
0
 10
67.1774877111784008
 20
-17.6532990716189602
 30
0.0
 40
0.0300000085755719
 50
0.0000163781318838
 51
89.9999929054720269
  0
ENDSEC
  0
EOF
