  0
SECTION
  2
HEADER
  9
$ACADVER
  1
AC1009
  9
$INSBASE
 10
382.8982531905659243
 20
29.8821699556576306
 30
0.0
  9
$EXTMIN
 10
381.6293871218650224
 20
24.4559547211856803
 30
-0.0015258207003583
  9
$EXTMAX
 10
392.2222234108085104
 20
31.1961220293269008
 30
0.0000000349246037
  9
$LIMMIN
 10
0.0
 20
0.0
  9
$LIMMAX
 10
11.6929133858000007
 20
8.2677165353999982
  9
$ORTHOMODE
 70
     0
  9
$REGENMODE
 70
     1
  9
$FILLMODE
 70
     1
  9
$QTEXTMODE
 70
     0
  9
$MIRRTEXT
 70
     0
  9
$DRAGMODE
 70
     2
  9
$LTSCALE
 40
0.6431102362
  9
$OSMODE
 70
  2047
  9
$ATTMODE
 70
     1
  9
$TEXTSIZE
 40
0.2
  9
$TRACEWID
 40
0.05
  9
$TEXTSTYLE
  7
STANDARD
  9
$CLAYER
  8
0
  9
$CELTYPE
  6
BYLAYER
  9
$CECOLOR
 62
   256
  9
$DIMSCALE
 40
1.0
  9
$DIMASZ
 40
0.1875
  9
$DIMEXO
 40
0.0625
  9
$DIMDLI
 40
0.4443307087
  9
$DIMRND
 40
0.0
  9
$DIMDLE
 40
0.0
  9
$DIMEXE
 40
0.125
  9
$DIMTP
 40
0.01
  9
$DIMTM
 40
0.01
  9
$DIMTXT
 40
1.0
  9
$DIMCEN
 40
0.1052362205
  9
$DIMTSZ
 40
0.0
  9
$DIMTOL
 70
     1
  9
$DIMLIM
 70
     0
  9
$DIMTIH
 70
     0
  9
$DIMTOH
 70
     1
  9
$DIMSE1
 70
     0
  9
$DIMSE2
 70
     0
  9
$DIMTAD
 70
     0
  9
$DIMZIN
 70
     0
  9
$DIMBLK
  1

  9
$DIMASO
 70
     1
  9
$DIMSHO
 70
     1
  9
$DIMPOST
  1
\X
  9
$DIMAPOST
  1

  9
$DIMALT
 70
     1
  9
$DIMALTD
 70
     2
  9
$DIMALTF
 40
25.3999999999999986
  9
$DIMLFAC
 40
1.0
  9
$DIMTOFL
 70
     0
  9
$DIMTVP
 40
0.0
  9
$DIMTIX
 70
     0
  9
$DIMSOXD
 70
     0
  9
$DIMSAH
 70
     0
  9
$DIMBLK1
  1

  9
$DIMBLK2
  1

  9
$DIMSTYLE
  2
STANDARD
  9
$DIMCLRD
 70
     0
  9
$DIMCLRE
 70
     0
  9
$DIMCLRT
 70
     0
  9
$DIMTFAC
 40
1.0
  9
$DIMGAP
 40
0.09
  9
$LUNITS
 70
     2
  9
$LUPREC
 70
     4
  9
$SKETCHINC
 40
0.1
  9
$FILLETRAD
 40
0.0
  9
$AUNITS
 70
     0
  9
$AUPREC
 70
     0
  9
$MENU
  1
.
  9
$ELEVATION
 40
0.0
  9
$PELEVATION
 40
0.0
  9
$THICKNESS
 40
0.0
  9
$LIMCHECK
 70
     0
  9
$BLIPMODE
 70
     0
  9
$CHAMFERA
 40
0.0
  9
$CHAMFERB
 40
0.0
  9
$SKPOLY
 70
     0
  9
$TDCREATE
 40
2458172.5207638889551163
  9
$TDUPDATE
 40
2459025.6073611117899418
  9
$TDINDWG
 40
0.1270874537
  9
$TDUSRTIMER
 40
0.1270874537
  9
$USRTIMER
 70
     1
  9
$ANGBASE
 50
0.0
  9
$ANGDIR
 70
     0
  9
$PDMODE
 70
     0
  9
$PDSIZE
 40
0.3125
  9
$PLINEWID
 40
0.0
  9
$COORDS
 70
     1
  9
$SPLFRAME
 70
     0
  9
$SPLINETYPE
 70
     6
  9
$SPLINESEGS
 70
     8
  9
$ATTDIA
 70
     1
  9
$ATTREQ
 70
     1
  9
$HANDLING
 70
     1
  9
$HANDSEED
  5
545D
  9
$SURFTAB1
 70
     6
  9
$SURFTAB2
 70
     6
  9
$SURFTYPE
 70
     6
  9
$SURFU
 70
     6
  9
$SURFV
 70
     6
  9
$UCSNAME
  2

  9
$UCSORG
 10
0.0
 20
0.0
 30
0.0
  9
$UCSXDIR
 10
1.0
 20
0.0
 30
0.0
  9
$UCSYDIR
 10
0.0
 20
1.0
 30
0.0
  9
$PUCSNAME
  2

  9
$PUCSORG
 10
0.0
 20
0.0
 30
0.0
  9
$PUCSXDIR
 10
1.0
 20
0.0
 30
0.0
  9
$PUCSYDIR
 10
0.0
 20
1.0
 30
0.0
  9
$USERI1
 70
     0
  9
$USERI2
 70
     0
  9
$USERI3
 70
     0
  9
$USERI4
 70
     0
  9
$USERI5
 70
     0
  9
$USERR1
 40
0.0
  9
$USERR2
 40
0.0
  9
$USERR3
 40
0.0
  9
$USERR4
 40
0.0
  9
$USERR5
 40
0.0
  9
$WORLDVIEW
 70
     1
  9
$SHADEDGE
 70
     3
  9
$SHADEDIF
 70
    70
  9
$TILEMODE
 70
     1
  9
$MAXACTVP
 70
    64
  9
$PLIMCHECK
 70
     0
  9
$PEXTMIN
 10
1.0000000000000000E+20
 20
1.0000000000000000E+20
 30
1.0000000000000000E+20
  9
$PEXTMAX
 10
-1.0000000000000000E+20
 20
-1.0000000000000000E+20
 30
-1.0000000000000000E+20
  9
$PLIMMIN
 10
0.0
 20
0.0
  9
$PLIMMAX
 10
12.0
 20
9.0
  9
$UNITMODE
 70
     0
  9
$VISRETAIN
 70
     1
  9
$PLINEGEN
 70
     0
  9
$PSLTSCALE
 70
     1
  0
ENDSEC
  0
SECTION
  2
TABLES
  0
TABLE
  2
VPORT
 70
     1
  0
VPORT
  2
*ACTIVE
 70
     0
 10
0.0
 20
0.0
 11
1.0
 21
1.0
 12
-0.0034549875695107
 22
0.0003605035521872
 13
0.0
 23
0.0
 14
1.0
 24
1.0
 15
0.0
 25
0.0
 16
0.0
 26
0.0
 36
36.1015931895765831
 17
386.9292602539061932
 27
27.8256778717041016
 37
0.0
 40
6.7962574660453123
 41
2.6486111111111108
 42
50.0
 43
0.0
 44
0.0
 50
0.0
 51
0.0
 71
     0
 72
   100
 73
     1
 74
     1
 75
     0
 76
     0
 77
     0
 78
     0
  0
ENDTAB
  0
TABLE
  2
LTYPE
 70
     2
  0
LTYPE
  2
CONTINUOUS
 70
     0
  3
Solid line
 72
    65
 73
     0
 40
0.0
  0
LTYPE
  2
PHANTOM2
 70
     0
  3
___ _ _ ___ _ _ ___ _ _ ___ _ _
 72
    65
 73
     6
 40
1.25
 49
0.625
 49
-0.125
 49
0.125
 49
-0.125
 49
0.125
 49
-0.125
  0
ENDTAB
  0
TABLE
  2
LAYER
 70
     2
  0
LAYER
  2
0
 70
     0
 62
   255
  6
CONTINUOUS
  0
LAYER
  2
DEFPOINTS
 70
     0
 62
     7
  6
CONTINUOUS
  0
ENDTAB
  0
TABLE
  2
STYLE
 70
     1
  0
STYLE
  2
STANDARD
 70
     0
 40
0.0
 41
0.8
 50
0.0
 71
     0
 42
0.2
  3
txt
  4

  0
ENDTAB
  0
TABLE
  2
VIEW
 70
     0
  0
ENDTAB
  0
TABLE
  2
UCS
 70
     0
  0
ENDTAB
  0
TABLE
  2
APPID
 70
    10
  0
APPID
  2
ACAD
 70
     0
  0
APPID
  2
ACAD_MLEADERVER
 70
     0
  0
APPID
  2
ACAD_EXEMPT_FROM_CAD_STANDARDS
 70
     0
  0
APPID
  2
ACAD_DSTYLE_DIMJAG
 70
     0
  0
APPID
  2
ACAD_DSTYLE_DIMTALN
 70
     0
  0
APPID
  2
ACAD_NAV_VCDISPLAY
 70
     0
  0
APPID
  2
ACAECLAYERSTANDARD
 70
     0
  0
APPID
  2
ACCMTRANSPARENCY
 70
     0
  0
APPID
  2
DCO15
 70
     0
  0
APPID
  2
ACDBATTR
 70
     0
  0
ENDTAB
  0
TABLE
  2
DIMSTYLE
 70
     1
  0
DIMSTYLE
  2
STANDARD
 70
     0
  3

  4

  5

  6

  7

 40
1.0
 41
0.1875
 42
0.0625
 43
0.38
 44
0.125
 45
0.0
 46
0.0
 47
0.01
 48
0.01
140
0.15625
141
0.09
142
0.0
143
25.3999999999999986
144
1.0
145
0.0
146
1.0
147
0.09
 71
     1
 72
     0
 73
     1
 74
     1
 75
     0
 76
     0
 77
     0
 78
     4
170
     0
171
     2
172
     0
173
     0
174
     0
175
     0
176
     0
177
     0
178
     0
  0
ENDTAB
  0
ENDSEC
  0
SECTION
  2
BLOCKS
  0
BLOCK
  8
0
  2
$MODEL_SPACE
 70
     0
 10
0.0
 20
0.0
 30
0.0
  3
$MODEL_SPACE
  1

  0
ENDBLK
  5
21
  8
0
  0
BLOCK
 67
     1
  8
0
  2
$PAPER_SPACE
 70
     0
 10
0.0
 20
0.0
 30
0.0
  3
$PAPER_SPACE
  1

  0
ENDBLK
  5
1D
 67
     1
  8
0
  0
ENDSEC
  0
SECTION
  2
ENTITIES
  0
ATTDEF
  5
829
  8
DEFPOINTS
 10
382.8957499857240236
 20
29.8887870880158886
 30
0.0
 40
0.001
  1
K-14660T-4
  3

  2
MODELNUMBER
 70
     0
1001
ACDBATTR
1070
     0
1070
     1
  0
ATTDEF
  5
82A
  8
DEFPOINTS
 10
382.8957499857240236
 20
29.8871204213492199
 30
0.0
 40
0.001
  1
LOURE
  3

  2
TRADENAME
 70
     0
1001
ACDBATTR
1070
     0
1070
     1
  0
ATTDEF
  5
82B
  8
DEFPOINTS
 10
382.8957499857240236
 20
29.8854537546825583
 30
0.0
 40
0.001
  1
BATHROOM SINK FAUCET
  3

  2
PRODUCT
 70
     0
1001
ACDBATTR
1070
     0
1070
     1
  0
LINE
  5
5228
  8
0
 10
381.6482531905658107
 20
28.6621699556351217
 30
0.0
 11
381.6482531905658107
 21
31.1021699556576294
 31
0.0
  0
LINE
  5
5229
  8
0
 10
382.0232531905658107
 20
30.1031699509576391
 30
0.0
 11
382.0232531905658107
 21
24.4773993262576397
 31
0.0
  0
LINE
  5
522A
  8
0
 10
383.7432531905657811
 20
24.4561861227576287
 30
0.0
 11
382.0532531905658971
 21
24.4561861227576287
 31
0.0
  0
LINE
  5
522B
  8
0
 10
383.7732531905658107
 20
24.4773993262576397
 30
0.0
 11
383.7732531905658107
 21
30.1031699548576412
 31
0.0
  0
LINE
  5
522C
  8
0
 10
384.1482531905658107
 20
31.1021699556576294
 30
0.0
 11
384.1482531905658107
 21
28.6621699556576317
 31
0.0
  0
LINE
  5
522D
  8
0
 10
392.1802531905797764
 20
28.5711699556576306
 30
0.0
 11
389.6162531905658852
 21
28.5711699556576306
 31
0.0
  0
LINE
  5
522E
  8
0
 10
384.1182531905657811
 20
28.6321699556576306
 30
0.0
 11
383.7732531905658107
 21
28.6321699556576306
 31
0.0
  0
LINE
  5
522F
  8
0
 10
382.0232531905658107
 20
28.6321699556576306
 30
0.0
 11
381.6782531905657834
 21
28.6321699556576306
 31
0.0
  0
LINE
  5
5230
  8
0
 10
391.3082531905657788
 20
29.6881699556576315
 30
0.0
 11
390.4882531905657856
 21
29.6881699556576315
 31
0.0
  0
LINE
  5
5231
  8
0
 10
390.4882531905657856
 20
30.0781699556576285
 30
0.0
 11
391.3082531905657788
 21
30.0781699556576285
 31
0.0
  0
LINE
  5
5232
  8
0
 10
382.0532531905658971
 20
30.1331699556576282
 30
0.0
 11
383.7432531905657811
 21
30.1331699556576282
 31
0.0
  0
LINE
  5
5233
  8
0
 10
389.5862531905657988
 20
28.6011699556351218
 30
0.0
 11
389.5862531905657988
 21
31.1651699556576283
 31
0.0
  0
LINE
  5
5234
  8
0
 10
381.6782531905657834
 20
31.1321699556576306
 30
0.0
 11
384.1182531905657811
 21
31.1321699556576306
 31
0.0
  0
LINE
  5
5235
  8
0
 10
389.6162531905658852
 20
31.1951699556576401
 30
0.0
 11
392.1802531905657929
 21
31.1951699556576401
 31
0.0
  0
LINE
  5
5236
  8
0
 10
390.4582531905658129
 20
29.7181699556576291
 30
0.0
 11
390.4582531905658129
 21
30.0481699556576309
 31
0.0
  0
LINE
  5
5237
  8
0
 10
391.3382531905658084
 20
30.0481699556576309
 30
0.0
 11
391.3382531905658084
 21
29.7181699556576291
 31
0.0
  0
LINE
  5
5238
  8
0
 10
392.2102531905658225
 20
31.1651699556576283
 30
0.0
 11
392.2102531905658225
 21
28.6011699556576318
 31
0.0
  0
ARC
  5
5239
  8
0
 10
384.1182531905657811
 20
28.6621699556576317
 30
0.0
 40
0.03
 50
270.0000000430006821
 51
0.0
  0
ARC
  5
523A
  8
0
 10
381.6782531905657834
 20
28.6621699556576317
 30
0.0
 40
0.03
 50
180.0000000429998863
 51
270.0
  0
ARC
  5
523B
  8
0
 10
384.1182531905657811
 20
31.1021699556576294
 30
0.0
 40
0.03
 50
0.0000000521000301
 51
90.0
  0
ARC
  5
523C
  8
0
 10
381.6782531905657834
 20
31.1021699556576294
 30
0.0
 40
0.03
 50
90.0000000430006679
 51
180.0
  0
ARC
  5
523D
  8
0
 10
382.0532531905658971
 20
30.1031699556576307
 30
0.0
 40
0.03
 50
90.0
 51
180.0
  0
ARC
  5
523E
  8
0
 10
383.7432531905657811
 20
30.1031699556576307
 30
0.0
 40
0.03
 50
359.9999983746998851
 51
90.0
  0
ARC
  5
523F
  8
0
 10
391.3082531905657788
 20
29.7181699556576291
 30
0.0
 40
0.03
 50
270.0
 51
359.9999999978999199
  0
ARC
  5
5240
  8
0
 10
390.4882531905657856
 20
29.7181699556576291
 30
0.0
 40
0.03
 50
179.9999999938997917
 51
270.0
  0
ARC
  5
5241
  8
0
 10
392.1802531905657929
 20
28.6011699556576318
 30
0.0
 40
0.03
 50
270.0000000266999791
 51
0.0
  0
ARC
  5
5242
  8
0
 10
389.6162531905658852
 20
28.6011699556576318
 30
0.0
 40
0.03
 50
180.0000000429998863
 51
270.0
  0
CIRCLE
  5
5243
  8
0
 10
390.8982531905658107
 20
29.8831699556576282
 30
0.0
 40
0.5150000000000001
  0
ARC
  5
5244
  8
0
 10
390.4882531905657856
 20
30.0481699556576309
 30
0.0
 40
0.03
 50
90.0
 51
179.9999999978998915
  0
ARC
  5
5245
  8
0
 10
391.3082531905657788
 20
30.0481699556576309
 30
0.0
 40
0.03
 50
0.0000000020998785
 51
90.0
  0
ARC
  5
5246
  8
0
 10
389.6162531905658852
 20
31.1651699556576283
 30
0.0
 40
0.03
 50
90.0000000430006679
 51
180.0
  0
ARC
  5
5247
  8
0
 10
392.1802531905657929
 20
31.1651699556576283
 30
0.0
 40
0.03
 50
0.000000042999878
 51
90.0
  0
ARC
  5
5248
  8
0
 10
382.0419683896770948
 20
24.4782894922064997
 30
0.0
 40
0.0187363569881759
 50
182.7231525739063045
 51
238.0029355328049121
  0
ARC
  5
5249
  8
0
 10
382.0537210214243942
 20
24.4970997790473817
 30
0.0
 40
0.0409163309292033
 50
238.0029355328049121
 51
269.3448748412262148
  0
ARC
  5
524A
  8
0
 10
383.7545379914545833
 20
24.4782894922064997
 30
0.0
 40
0.0187363569881759
 50
301.9970644671951163
 51
357.2768474260936955
  0
ARC
  5
524B
  8
0
 10
383.742785359707284
 20
24.4970997790473817
 30
0.0
 40
0.0409163309292033
 50
270.6551251587737852
 51
301.9970644671951163
  0
ENDSEC
  0
EOF
