  0
SECTION
  2
HEADER
  9
$ACADVER
  1
AC1009
  9
$INSBASE
 10
4434.4557916071826185
 20
225.3590621006445076
 30
0.0
  9
$EXTMIN
 10
4425.8847697193841668
 20
225.349913459606995
 30
-0.0000000000112498
  9
$EXTMAX
 10
4442.8336055905210742
 20
233.5651271636309048
 30
0.0000000000002956
  9
$LIMMIN
 10
0.0
 20
0.0
  9
$LIMMAX
 10
11.6929133858000007
 20
8.2677165353999982
  9
$ORTHOMODE
 70
     1
  9
$REGENMODE
 70
     1
  9
$FILLMODE
 70
     1
  9
$QTEXTMODE
 70
     0
  9
$MIRRTEXT
 70
     0
  9
$DRAGMODE
 70
     2
  9
$LTSCALE
 40
0.6431102362
  9
$OSMODE
 70
  4095
  9
$ATTMODE
 70
     1
  9
$TEXTSIZE
 40
0.2
  9
$TRACEWID
 40
0.05
  9
$TEXTSTYLE
  7
STANDARD
  9
$CLAYER
  8
0
  9
$CELTYPE
  6
BYLAYER
  9
$CECOLOR
 62
   256
  9
$DIMSCALE
 40
1.0
  9
$DIMASZ
 40
0.1875
  9
$DIMEXO
 40
0.0625
  9
$DIMDLI
 40
0.4443307087
  9
$DIMRND
 40
0.0
  9
$DIMDLE
 40
0.0
  9
$DIMEXE
 40
0.125
  9
$DIMTP
 40
0.01
  9
$DIMTM
 40
0.01
  9
$DIMTXT
 40
2.0
  9
$DIMCEN
 40
0.1052362205
  9
$DIMTSZ
 40
0.0
  9
$DIMTOL
 70
     1
  9
$DIMLIM
 70
     0
  9
$DIMTIH
 70
     1
  9
$DIMTOH
 70
     1
  9
$DIMSE1
 70
     0
  9
$DIMSE2
 70
     0
  9
$DIMTAD
 70
     0
  9
$DIMZIN
 70
     0
  9
$DIMBLK
  1

  9
$DIMASO
 70
     1
  9
$DIMSHO
 70
     1
  9
$DIMPOST
  1
\X
  9
$DIMAPOST
  1

  9
$DIMALT
 70
     1
  9
$DIMALTD
 70
     2
  9
$DIMALTF
 40
25.3999999999999986
  9
$DIMLFAC
 40
1.0
  9
$DIMTOFL
 70
     0
  9
$DIMTVP
 40
0.0
  9
$DIMTIX
 70
     0
  9
$DIMSOXD
 70
     0
  9
$DIMSAH
 70
     0
  9
$DIMBLK1
  1

  9
$DIMBLK2
  1

  9
$DIMSTYLE
  2
STANDARD
  9
$DIMCLRD
 70
     0
  9
$DIMCLRE
 70
     0
  9
$DIMCLRT
 70
     0
  9
$DIMTFAC
 40
1.0
  9
$DIMGAP
 40
0.09
  9
$LUNITS
 70
     2
  9
$LUPREC
 70
     4
  9
$SKETCHINC
 40
0.1
  9
$FILLETRAD
 40
0.0
  9
$AUNITS
 70
     0
  9
$AUPREC
 70
     0
  9
$MENU
  1
.
  9
$ELEVATION
 40
0.0
  9
$PELEVATION
 40
0.0
  9
$THICKNESS
 40
0.0
  9
$LIMCHECK
 70
     0
  9
$BLIPMODE
 70
     0
  9
$CHAMFERA
 40
0.0
  9
$CHAMFERB
 40
0.0
  9
$SKPOLY
 70
     0
  9
$TDCREATE
 40
2458059.843368056230247
  9
$TDUPDATE
 40
2459047.2421180559322238
  9
$TDINDWG
 40
0.3117894676
  9
$TDUSRTIMER
 40
0.3117894676
  9
$USRTIMER
 70
     1
  9
$ANGBASE
 50
0.0
  9
$ANGDIR
 70
     0
  9
$PDMODE
 70
     0
  9
$PDSIZE
 40
0.3125
  9
$PLINEWID
 40
0.0
  9
$COORDS
 70
     1
  9
$SPLFRAME
 70
     0
  9
$SPLINETYPE
 70
     6
  9
$SPLINESEGS
 70
     8
  9
$ATTDIA
 70
     1
  9
$ATTREQ
 70
     1
  9
$HANDLING
 70
     1
  9
$HANDSEED
  5
6FA4
  9
$SURFTAB1
 70
     6
  9
$SURFTAB2
 70
     6
  9
$SURFTYPE
 70
     6
  9
$SURFU
 70
     6
  9
$SURFV
 70
     6
  9
$UCSNAME
  2

  9
$UCSORG
 10
0.0
 20
0.0
 30
0.0
  9
$UCSXDIR
 10
1.0
 20
0.0
 30
0.0
  9
$UCSYDIR
 10
0.0
 20
1.0
 30
0.0
  9
$PUCSNAME
  2

  9
$PUCSORG
 10
0.0
 20
0.0
 30
0.0
  9
$PUCSXDIR
 10
1.0
 20
0.0
 30
0.0
  9
$PUCSYDIR
 10
0.0
 20
1.0
 30
0.0
  9
$USERI1
 70
     0
  9
$USERI2
 70
     0
  9
$USERI3
 70
     0
  9
$USERI4
 70
     0
  9
$USERI5
 70
     0
  9
$USERR1
 40
0.0
  9
$USERR2
 40
0.0
  9
$USERR3
 40
0.0
  9
$USERR4
 40
0.0
  9
$USERR5
 40
0.0
  9
$WORLDVIEW
 70
     1
  9
$SHADEDGE
 70
     3
  9
$SHADEDIF
 70
    70
  9
$TILEMODE
 70
     1
  9
$MAXACTVP
 70
    64
  9
$PLIMCHECK
 70
     0
  9
$PEXTMIN
 10
1.0000000000000000E+20
 20
1.0000000000000000E+20
 30
1.0000000000000000E+20
  9
$PEXTMAX
 10
-1.0000000000000000E+20
 20
-1.0000000000000000E+20
 30
-1.0000000000000000E+20
  9
$PLIMMIN
 10
0.0
 20
0.0
  9
$PLIMMAX
 10
12.0
 20
9.0
  9
$UNITMODE
 70
     0
  9
$VISRETAIN
 70
     1
  9
$PLINEGEN
 70
     0
  9
$PSLTSCALE
 70
     1
  0
ENDSEC
  0
SECTION
  2
TABLES
  0
TABLE
  2
VPORT
 70
     1
  0
VPORT
  2
*ACTIVE
 70
     0
 10
0.0
 20
0.0
 11
1.0
 21
1.0
 12
-0.0966228919223786
 22
0.0001366310306707
 13
0.0
 23
0.0
 14
1.0
 24
1.0
 15
0.0
 25
0.0
 16
0.0
 26
0.0
 36
53.1033482859890427
 17
4434.4558105468740905
 27
229.4573836805882934
 37
0.0
 40
8.3122437871422736
 41
2.6528599605522678
 42
50.0
 43
0.0
 44
0.0
 50
0.0
 51
0.0
 71
     0
 72
   100
 73
     1
 74
     1
 75
     0
 76
     0
 77
     0
 78
     0
  0
ENDTAB
  0
TABLE
  2
LTYPE
 70
     2
  0
LTYPE
  2
CONTINUOUS
 70
     0
  3
Solid line
 72
    65
 73
     0
 40
0.0
  0
LTYPE
  2
PHANTOM2
 70
     0
  3
___ _ _ ___ _ _ ___ _ _ ___ _ _
 72
    65
 73
     6
 40
1.25
 49
0.625
 49
-0.125
 49
0.125
 49
-0.125
 49
0.125
 49
-0.125
  0
ENDTAB
  0
TABLE
  2
LAYER
 70
     2
  0
LAYER
  2
0
 70
     0
 62
   255
  6
CONTINUOUS
  0
LAYER
  2
DEFPOINTS
 70
     0
 62
     7
  6
CONTINUOUS
  0
ENDTAB
  0
TABLE
  2
STYLE
 70
     1
  0
STYLE
  2
STANDARD
 70
     0
 40
0.0
 41
0.8
 50
0.0
 71
     0
 42
0.2
  3
txt
  4

  0
ENDTAB
  0
TABLE
  2
VIEW
 70
     0
  0
ENDTAB
  0
TABLE
  2
UCS
 70
     0
  0
ENDTAB
  0
TABLE
  2
APPID
 70
     9
  0
APPID
  2
ACAD
 70
     0
  0
APPID
  2
ACAD_MLEADERVER
 70
     0
  0
APPID
  2
ACAD_EXEMPT_FROM_CAD_STANDARDS
 70
     0
  0
APPID
  2
ACAD_NAV_VCDISPLAY
 70
     0
  0
APPID
  2
ACAECLAYERSTANDARD
 70
     0
  0
APPID
  2
ACCMTRANSPARENCY
 70
     0
  0
APPID
  2
ACAD_DSTYLE_DIMJAG
 70
     0
  0
APPID
  2
ACAD_DSTYLE_DIMTALN
 70
     0
  0
APPID
  2
ACDBATTR
 70
     0
  0
ENDTAB
  0
TABLE
  2
DIMSTYLE
 70
     1
  0
DIMSTYLE
  2
STANDARD
 70
     0
  3

  4

  5

  6

  7

 40
1.0
 41
0.1875
 42
0.0625
 43
0.38
 44
0.125
 45
0.0
 46
0.0
 47
0.01
 48
0.01
140
0.15625
141
0.09
142
0.0
143
25.3999999999999986
144
1.0
145
0.0
146
1.0
147
0.09
 71
     1
 72
     0
 73
     1
 74
     1
 75
     0
 76
     0
 77
     0
 78
     4
170
     0
171
     2
172
     0
173
     0
174
     0
175
     0
176
     0
177
     0
178
     0
  0
ENDTAB
  0
ENDSEC
  0
SECTION
  2
BLOCKS
  0
BLOCK
  8
0
  2
$MODEL_SPACE
 70
     0
 10
0.0
 20
0.0
 30
0.0
  3
$MODEL_SPACE
  1

  0
ENDBLK
  5
21
  8
0
  0
BLOCK
 67
     1
  8
0
  2
$PAPER_SPACE
 70
     0
 10
0.0
 20
0.0
 30
0.0
  3
$PAPER_SPACE
  1

  0
ENDBLK
  5
1D
 67
     1
  8
0
  0
ENDSEC
  0
SECTION
  2
ENTITIES
  0
ATTDEF
  5
3930
  8
DEFPOINTS
 10
4434.45090159791107
 20
225.3565314806427011
 30
0.0
 40
0.001
  1
K-14661A-4ND
  3

  2
MODELNUMBER
 70
     0
1001
ACDBATTR
1070
     0
1070
     1
  0
ATTDEF
  5
3931
  8
DEFPOINTS
 10
4434.45090159791107
 20
225.3548648139760928
 30
0.0
 40
0.001
  1
LOURE
  3

  2
TRADENAME
 70
     0
1001
ACDBATTR
1070
     0
1070
     1
  0
ATTDEF
  5
3932
  8
DEFPOINTS
 10
4434.45090159791107
 20
225.3531981473093992
 30
0.0
 40
0.001
  1
BATHROOM SINK FAUCET
  3

  2
PRODUCT
 70
     0
1001
ACDBATTR
1070
     0
1070
     1
  0
LINE
  5
6C3F
  8
0
 10
4426.1457916071822183
 20
225.7020621006444969
 30
0.0
 11
4426.1457916071822183
 21
226.5220621006446038
 31
0.0
  0
LINE
  5
6C40
  8
0
 10
4427.455791607181709
 20
225.3890621006445087
 30
0.0
 11
4427.455791607181709
 21
225.6040621006445122
 31
0.0
  0
LINE
  5
6C41
  8
0
 10
4428.2637916071817017
 20
225.6340621006445986
 30
0.0
 11
4428.2637916071817017
 21
225.6720621006444958
 31
0.0
  0
LINE
  5
6C42
  8
0
 10
4428.6477916071817162
 20
225.6720621006444958
 30
0.0
 11
4428.6477916071817162
 21
225.6340621006445986
 31
0.0
  0
LINE
  5
6C43
  8
0
 10
4429.455791607181709
 20
226.5220621006446038
 30
0.0
 11
4429.455791607181709
 21
225.7020621006444969
 31
0.0
  0
LINE
  5
6C44
  8
0
 10
4429.455791607181709
 20
225.6040621006445122
 30
0.0
 11
4429.455791607181709
 21
225.3890621006445087
 31
0.0
  0
LINE
  5
6C45
  8
0
 10
4429.4257916071819636
 20
225.3590621006445076
 30
0.0
 11
4427.4857916071823638
 21
225.3590621006445076
 31
0.0
  0
LINE
  5
6C46
  8
0
 10
4427.4857916071823638
 20
225.6340621006445986
 30
0.0
 11
4429.4257916071819636
 21
225.6340621006445986
 31
0.0
  0
LINE
  5
6C47
  8
0
 10
4429.4257916071819636
 20
225.6720621006444958
 30
0.0
 11
4428.5149608558822365
 21
225.6720621006444958
 31
0.0
  0
LINE
  5
6C48
  8
0
 10
4428.396622358382956
 20
225.6720621006444958
 30
0.0
 11
4426.1757916071828731
 21
225.6720621006444958
 31
0.0
  0
LINE
  5
6C49
  8
0
 10
4426.1757916071828731
 20
226.5520621006444912
 30
0.0
 11
4429.4257916071819636
 21
226.5520621006444912
 31
0.0
  0
LINE
  5
6C4A
  8
0
 10
4433.8797932929828676
 20
230.6395705717445992
 30
0.0
 11
4433.8797924602822604
 21
230.6112997871445032
 31
0.0
  0
LINE
  5
6C4B
  8
0
 10
4433.9047908369821016
 20
230.6572522113445132
 30
0.0
 11
4433.9047913430822518
 21
230.6289682966445014
 31
0.0
  0
LINE
  5
6C4C
  8
0
 10
4433.9075632606827639
 20
230.6309645299446061
 30
0.0
 11
4433.9075632606827639
 21
230.6588033796446098
 31
0.0
  0
LINE
  5
6C4D
  8
0
 10
4433.919017978582815
 20
230.6471076383444938
 30
0.0
 11
4433.919017978582815
 21
230.6749464880444975
 31
0.0
  0
LINE
  5
6C4E
  8
0
 10
4434.0635915986822511
 20
230.5627593483445139
 30
0.0
 11
4434.0817758590828817
 21
230.5850304280446039
 31
0.0
  0
LINE
  5
6C4F
  8
0
 10
4434.0829123753828753
 20
230.5530157509446099
 30
0.0
 11
4434.0954140544827169
 21
230.5683271182444969
 31
0.0
  0
LINE
  5
6C50
  8
0
 10
4433.919017978582815
 20
230.6471076383444938
 30
0.0
 11
4433.9204561481819837
 21
230.6222365369445129
 31
0.0
  0
LINE
  5
6C51
  8
0
 10
4434.1304237270351223
 20
230.6181454901445136
 30
0.0
 11
4434.1309149811822863
 21
230.5982447273445928
 31
0.0
  0
LINE
  5
6C52
  8
0
 10
4434.0026706492299127
 20
230.7140143532124057
 30
0.0
 11
4434.0029622252823174
 21
230.7019963978445105
 31
0.0
  0
LINE
  5
6C53
  8
0
 10
4433.934138063881619
 20
230.6532356096444971
 30
0.0
 11
4433.934138063881619
 21
230.6253967600445094
 31
0.0
  0
LINE
  5
6C54
  8
0
 10
4434.0635915986822511
 20
230.5627593483445139
 30
0.0
 11
4434.0635915986822511
 21
230.5891350068446002
 31
0.0
  0
LINE
  5
6C55
  8
0
 10
4434.0772297939829514
 20
230.5530157509446099
 30
0.0
 11
4434.0772297970761429
 21
230.5455291625364111
 31
0.0
  0
LINE
  5
6C56
  8
0
 10
4434.0817758590828817
 20
230.5850304280446039
 30
0.0
 11
4434.0817758590828817
 21
230.6181454901445136
 31
0.0
  0
LINE
  5
6C57
  8
0
 10
4434.3967364890822864
 20
230.5683271182444969
 30
0.0
 11
4434.3967364890822864
 21
230.5433694080261091
 31
0.0
  0
LINE
  5
6C58
  8
0
 10
4434.4203585362820377
 20
230.5433270814642128
 30
0.0
 11
4434.4203585362820377
 21
230.5683271182444969
 31
0.0
  0
LINE
  5
6C59
  8
0
 10
4434.0129516976821833
 20
230.7019963978445105
 30
0.0
 11
4434.0132776851905874
 21
230.7154327000972103
 31
0.0
  0
LINE
  5
6C5A
  8
0
 10
4434.1409044535821522
 20
230.5982447274444951
 30
0.0
 11
4434.1413957076310908
 21
230.6181454901445136
 31
0.0
  0
LINE
  5
6C5B
  8
0
 10
4434.4183900323832859
 20
230.5418802110445995
 30
0.0
 11
4434.3987049929819477
 21
230.5418802110445995
 31
0.0
  0
LINE
  5
6C5C
  8
0
 10
4434.4912246780822898
 20
230.5455293335834881
 30
0.0
 11
4434.4203585362820377
 21
230.5455293043042957
 31
0.0
  0
LINE
  5
6C5D
  8
0
 10
4434.3967364890822864
 20
230.545529294544508
 30
0.0
 11
4434.0227916067824481
 21
230.5455291400444935
 31
0.0
  0
LINE
  5
6C5E
  8
0
 10
4434.0772297939829514
 20
230.5495358947445936
 30
0.0
 11
4434.0227207409825496
 21
230.5495358947445936
 31
0.0
  0
LINE
  5
6C5F
  8
0
 10
4434.0829123753828753
 20
230.5530157509446099
 30
0.0
 11
4434.0227207409825496
 21
230.5530157509446099
 31
0.0
  0
LINE
  5
6C60
  8
0
 10
4434.0227207409825496
 20
230.5627593483445139
 30
0.0
 11
4434.0635915986822511
 21
230.5627593483445139
 31
0.0
  0
LINE
  5
6C61
  8
0
 10
4434.4912246780822898
 20
230.5683271182444969
 30
0.0
 11
4434.4203585362820377
 21
230.5683271182444969
 31
0.0
  0
LINE
  5
6C62
  8
0
 10
4434.0954140544827169
 20
230.5683271182444969
 30
0.0
 11
4434.3967364890822864
 21
230.5683271182444969
 31
0.0
  0
LINE
  5
6C63
  8
0
 10
4434.0817758590828817
 20
230.5850304280446039
 30
0.0
 11
4434.8298073552823553
 21
230.5850304280446039
 31
0.0
  0
LINE
  5
6C64
  8
0
 10
4434.8888624733817778
 20
230.7158730214445939
 30
0.0
 11
4434.0227207409825496
 21
230.7158730214445939
 31
0.0
  0
LINE
  5
6C65
  8
0
 10
4434.8887789166828952
 20
230.7406907527445128
 30
0.0
 11
4434.0228042976823417
 21
230.7406907527445128
 31
0.0
  0
ARC
  5
6C66
  8
0
 10
4427.4870326538220979
 20
225.6028210540040959
 30
0.0
 40
0.0312656871338121
 50
92.2748714909809848
 51
177.7251285090387967
  0
ARC
  5
6C67
  8
0
 10
4429.4251131947130489
 20
225.6033836881746879
 30
0.0
 40
0.0306859126497519
 50
1.26681382744399
 51
88.733186172563066
  0
ARC
  5
6C68
  8
0
 10
4429.4237599366679206
 20
225.3910937711592908
 30
0.0
 40
0.0320960371548453
 50
273.6292338180459751
 51
356.3707661819798886
  0
ARC
  5
6C69
  8
0
 10
4427.4863482036307687
 20
225.3896186970926863
 30
0.0
 40
0.0305616653031345
 50
181.0435423024877082
 51
268.9564576974963757
  0
ARC
  5
6C6A
  8
0
 10
4429.4252123020360159
 20
226.5214827954982866
 30
0.0
 40
0.0305847919345895
 50
1.0853016416550161
 51
88.9146983583580379
  0
ARC
  5
6C6B
  8
0
 10
4429.4247055301557339
 20
225.7031481776710962
 30
0.0
 40
0.0311050437744963
 50
272.0009706931668916
 51
357.9990293068505025
  0
ARC
  5
6C6C
  8
0
 10
4426.178475626985346
 20
226.5193780808419888
 30
0.0
 40
0.0327940408116456
 50
94.6946094504302351
 51
175.3053905495848994
  0
ARC
  5
6C6D
  8
0
 10
4426.1764549080617144
 20
225.7027254015241056
 30
0.0
 40
0.0306704742201597
 50
181.2392147517759895
 51
268.7607852482502722
  0
LINE
  5
6C6E
  8
0
 10
4435.4257916071819636
 20
225.3590621006445076
 30
0.0
 11
4433.4857916071823638
 21
225.3590621006445076
 31
0.0
  0
LINE
  5
6C6F
  8
0
 10
4433.4857916071823638
 20
225.6340621006445986
 30
0.0
 11
4435.4257916071819636
 21
225.6340621006445986
 31
0.0
  0
LINE
  5
6C70
  8
0
 10
4433.455791607181709
 20
225.3890621006445087
 30
0.0
 11
4433.455791607181709
 21
225.6040621006445122
 31
0.0
  0
LINE
  5
6C71
  8
0
 10
4433.830791607181709
 20
225.6340621006445986
 30
0.0
 11
4433.830791607181709
 21
233.5315384050445005
 31
0.0
  0
LINE
  5
6C72
  8
0
 10
4435.0507916071819636
 20
230.4928504290446085
 30
0.0
 11
4433.8607916071823638
 21
230.4928504290446085
 31
0.0
  0
LINE
  5
6C73
  8
0
 10
4433.8607916071823638
 20
230.7580154720444909
 30
0.0
 11
4435.0507916071810541
 21
230.7580154720444909
 31
0.0
  0
LINE
  5
6C74
  8
0
 10
4433.8607916071823638
 20
233.5615621006446077
 30
0.0
 11
4435.0507916071819636
 21
233.5615621006446077
 31
0.0
  0
ARC
  5
6C75
  8
0
 10
4433.4875156891866936
 20
225.6023380186393013
 30
0.0
 40
0.0317708960816948
 50
93.1107454184907937
 51
176.8892545815054973
  0
ARC
  5
6C76
  8
0
 10
4433.4880413276287072
 20
225.3913118210913922
 30
0.0
 40
0.0323280947627497
 50
183.9904533248214022
 51
266.0095466751557183
  0
ARC
  5
6C77
  8
0
 10
4433.8632668851068956
 20
233.5290887669322046
 30
0.0
 40
0.032567536032115
 50
94.35893825500807
 51
175.6862991396093889
  0
ARC
  5
6C78
  8
0
 10
4433.860781420825333
 20
230.7262100726076994
 30
0.0
 40
0.0318054010680686
 50
89.9816498059697096
 51
160.5471297235397117
  0
ARC
  5
6C79
  8
0
 10
4433.8614468524756376
 20
230.5255968909428077
 30
0.0
 40
0.0327530168572135
 50
200.6175360819534035
 51
268.8536843885185021
  0
ARC
  5
6C7A
  8
0
 10
4428.4557916071325963
 20
224.3798106941206072
 30
0.0
 40
1.293605309845566
 50
87.3783878099620068
 51
92.6216121900379932
  0
ARC
  5
6C7B
  8
0
 10
4433.9708824602712411
 20
230.6345091680479982
 30
0.0
 40
0.0912296783111586
 50
120.0687697522371025
 51
176.819609025374092
  0
ARC
  5
6C7C
  8
0
 10
4434.0252991946317707
 20
230.5430994865737091
 30
0.0
 40
0.1976070165196661
 50
90.7234098569449827
 51
120.4438954984444052
  0
ARC
  5
6C7D
  8
0
 10
4433.9712522935669767
 20
230.6165035130640888
 30
0.0
 40
0.0916077500427672
 50
183.2564068993387139
 51
240.4761893648312991
  0
ARC
  5
6C7E
  8
0
 10
4434.0372580494431531
 20
230.7516412974079003
 30
0.0
 40
0.2418981397238765
 50
242.6460837827061141
 51
266.5729601486285105
  0
ARC
  5
6C7F
  8
0
 10
4434.3985962103452039
 20
230.5437820538612925
 30
0.0
 40
0.0019049513803542
 50
192.5104406998090951
 51
273.2736680577447146
  0
ARC
  5
6C80
  8
0
 10
4434.4185099484066086
 20
230.5437795972025015
 30
0.0
 40
0.0019031677881299
 50
266.3874775295976747
 51
346.2450532194744142
  0
ARC
  5
6C81
  8
0
 10
4434.0269726602537048
 20
230.718875516349101
 30
0.0
 40
0.1733967917409919
 50
242.5131150245877905
 51
268.6183138953862226
  0
ARC
  5
6C82
  8
0
 10
4433.9813433757417442
 20
230.6335956388460033
 30
0.0
 40
0.076691759662351
 50
183.4591501287827953
 51
243.3483499876055873
  0
ARC
  5
6C83
  8
0
 10
4433.9774596965808087
 20
230.6539003086543005
 30
0.0
 40
0.072746122969433
 50
126.1415489012064057
 51
177.3590634064092058
  0
ARC
  5
6C84
  8
0
 10
4434.0158404593930754
 20
230.6055243227777964
 30
0.0
 40
0.134471607181448
 50
98.0682624209008935
 51
127.1912873709750045
  0
ARC
  5
6C85
  8
0
 10
4433.988163018101659
 20
230.627619570991186
 30
0.0
 40
0.0540706627189441
 50
182.3560574034104036
 51
234.2325863000303059
  0
ARC
  5
6C86
  8
0
 10
4434.0293748268841227
 20
230.6985153724168924
 30
0.0
 40
0.1359190013615599
 50
237.6065560802584002
 51
267.1938912800508774
  0
ARC
  5
6C87
  8
0
 10
4433.9881991375195867
 20
230.6509492158984926
 30
0.0
 40
0.0541094010841618
 50
126.5552121561305938
 51
177.5782446930344065
  0
ARC
  5
6C88
  8
0
 10
4434.023433385217686
 20
230.5991125410149039
 30
0.0
 40
0.1167626552111427
 50
90.3496988005022388
 51
125.2936638867870016
  0
LINE
  5
6C89
  8
0
 10
4433.9488108054829354
 20
230.6877426144446019
 30
0.0
 11
4434.9630586670637058
 21
230.6877426144446019
 31
0.0
  0
LINE
  5
6C8A
  8
0
 10
4433.934138063881619
 20
230.6529440523445089
 30
0.0
 11
4434.9774451504817989
 21
230.6529440523445089
 31
0.0
  0
LINE
  5
6C8B
  8
0
 10
4433.9553355589823695
 20
230.6181454901445136
 30
0.0
 11
4434.9562476554656314
 21
230.6181454901445136
 31
0.0
  0
ARC
  5
6C8C
  8
0
 10
4434.0143832553167158
 20
230.7048601892064994
 30
0.0
 40
0.0117746009714539
 50
194.0765297477869922
 51
236.9222958349861869
  0
ARC
  5
6C8D
  8
0
 10
4434.00165112158993
 20
230.7047742721061923
 30
0.0
 40
0.0116369929716317
 50
302.8116293297998141
 51
346.1895450874001767
  0
ARC
  5
6C8E
  8
0
 10
4434.022740530584997
 20
230.6850108308728977
 30
0.0
 40
0.131995081411832
 50
233.6749454037351938
 51
269.9914098259411048
  0
ARC
  5
6C8F
  8
0
 10
4433.9814885965779467
 20
230.6275410332812896
 30
0.0
 40
0.0612625288300982
 50
184.967250120236514
 51
232.9195127963934056
  0
ARC
  5
6C90
  8
0
 10
4433.9733085603556901
 20
230.6746242113260905
 30
0.0
 40
0.0542915383088999
 50
135.5448308937014019
 51
179.6598874906019887
  0
ARC
  5
6C91
  8
0
 10
4433.9684076461271616
 20
230.6584284166806924
 30
0.0
 40
0.0608455408177748
 50
154.170702875409404
 51
179.6469103405937062
  0
ARC
  5
6C92
  8
0
 10
4434.005570125857048
 20
230.6372984988288124
 30
0.0
 40
0.1035400842450328
 50
133.303879837204903
 51
152.6058136342473972
  0
ARC
  5
6C93
  8
0
 10
4433.9857249227661669
 20
230.6380705437522067
 30
0.0
 40
0.0784840165373749
 50
185.1947256562914959
 51
235.9521235516754984
  0
ARC
  5
6C94
  8
0
 10
4434.0223662220123515
 20
230.6994189014174026
 30
0.0
 40
0.1498834259449061
 50
237.4768574288573859
 51
270.1355217200908214
  0
LINE
  5
6C95
  8
0
 10
4434.0666019327181857
 20
230.7158730214445939
 30
0.0
 11
4434.0669386032250259
 21
230.7019963978169983
 31
0.0
  0
LINE
  5
6C96
  8
0
 10
4434.0769280756248918
 20
230.7019963978169983
 30
0.0
 11
4434.0772647460780718
 21
230.7158730214445939
 31
0.0
  0
ARC
  5
6C97
  8
0
 10
4434.0783596332621528
 20
230.7048601891789872
 30
0.0
 40
0.0117746009714539
 50
194.0765297477869922
 51
236.9222958349861869
  0
ARC
  5
6C98
  8
0
 10
4434.065627499533548
 20
230.7047742720785948
 30
0.0
 40
0.0116369929716317
 50
302.8116293297998141
 51
346.1895450874001767
  0
LINE
  5
6C99
  8
0
 10
4434.1305783106781746
 20
230.7158730214445939
 30
0.0
 11
4434.1309149811841053
 21
230.7019963978461874
 31
0.0
  0
LINE
  5
6C9A
  8
0
 10
4434.1409044535848807
 20
230.7019963978461874
 30
0.0
 11
4434.1412411240362417
 21
230.7158730214445939
 31
0.0
  0
ARC
  5
6C9B
  8
0
 10
4434.1423360112203227
 20
230.7048601892082047
 30
0.0
 40
0.0117746009714539
 50
194.0765297477869922
 51
236.9222958349861869
  0
ARC
  5
6C9C
  8
0
 10
4434.1296038774926274
 20
230.7047742721078123
 30
0.0
 40
0.0116369929716317
 50
302.8116293297998141
 51
346.1895450874001767
  0
LINE
  5
6C9D
  8
0
 10
4434.1945546885772274
 20
230.7158730214445939
 30
0.0
 11
4434.1948913590840675
 21
230.7019963978461874
 31
0.0
  0
LINE
  5
6C9E
  8
0
 10
4434.2048808314848429
 20
230.7019963978461874
 30
0.0
 11
4434.2052175019352944
 21
230.7158730214445939
 31
0.0
  0
ARC
  5
6C9F
  8
0
 10
4434.2063123891202849
 20
230.7048601892082047
 30
0.0
 40
0.0117746009714539
 50
194.0765297477869922
 51
236.9222958349861869
  0
ARC
  5
6CA0
  8
0
 10
4434.1935802553916801
 20
230.7047742721078123
 30
0.0
 40
0.0116369929716317
 50
302.8116293297998141
 51
346.1895450874001767
  0
LINE
  5
6CA1
  8
0
 10
4434.2585310666736405
 20
230.7158730214445939
 30
0.0
 11
4434.2588677371786616
 21
230.7019963979130068
 31
0.0
  0
LINE
  5
6CA2
  8
0
 10
4434.2688572095803465
 20
230.7019963979130068
 30
0.0
 11
4434.269193880028979
 21
230.7158730214445939
 31
0.0
  0
ARC
  5
6CA3
  8
0
 10
4434.270288767214879
 20
230.7048601892749957
 30
0.0
 40
0.0117746009714539
 50
194.0765297477869922
 51
236.9222958349861869
  0
ARC
  5
6CA4
  8
0
 10
4434.2575566334871837
 20
230.7047742721746033
 30
0.0
 40
0.0116369929716317
 50
302.8116293297998141
 51
346.1895450874001767
  0
LINE
  5
6CA5
  8
0
 10
4434.3225074444771963
 20
230.7158730214445939
 30
0.0
 11
4434.3228441149840364
 21
230.7019963978461874
 31
0.0
  0
LINE
  5
6CA6
  8
0
 10
4434.3328335873848118
 20
230.7019963978461874
 30
0.0
 11
4434.3331702578352633
 21
230.7158730214445939
 31
0.0
  0
ARC
  5
6CA7
  8
0
 10
4434.3342651450202538
 20
230.7048601892082047
 30
0.0
 40
0.0117746009714539
 50
194.0765297477869922
 51
236.9222958349861869
  0
ARC
  5
6CA8
  8
0
 10
4434.321533011291649
 20
230.7047742721078123
 30
0.0
 40
0.0116369929716317
 50
302.8116293297998141
 51
346.1895450874001767
  0
LINE
  5
6CA9
  8
0
 10
4434.3864838224753839
 20
230.7158730214445939
 30
0.0
 11
4434.3868204929831336
 21
230.7019963978447947
 31
0.0
  0
LINE
  5
6CAA
  8
0
 10
4434.3968099653829995
 20
230.7019963978447947
 30
0.0
 11
4434.3971466358343605
 21
230.7158730214445939
 31
0.0
  0
ARC
  5
6CAB
  8
0
 10
4434.398241523019351
 20
230.7048601892068973
 30
0.0
 40
0.0117746009714539
 50
194.0765297477869922
 51
236.9222958349861869
  0
ARC
  5
6CAC
  8
0
 10
4434.3855093892898367
 20
230.7047742721063912
 30
0.0
 40
0.0116369929716317
 50
302.8116293297998141
 51
346.1895450874001767
  0
LINE
  5
6CAD
  8
0
 10
4434.4504602003771652
 20
230.7158730214445939
 30
0.0
 11
4434.4507968708840053
 21
230.7019963978461874
 31
0.0
  0
ARC
  5
6CAE
  8
0
 10
4434.4622179009202227
 20
230.7048601892082047
 30
0.0
 40
0.0117746009714539
 50
194.0765297477869922
 51
236.9222958349861869
  0
LINE
  5
6CAF
  8
0
 10
4434.0024637739870741
 20
230.6877426144446019
 30
0.0
 11
4434.0029622252841364
 21
230.6671978358461956
 31
0.0
  0
LINE
  5
6CB0
  8
0
 10
4434.0129516976849118
 20
230.6671978358461956
 30
0.0
 11
4434.0134501489001195
 21
230.6877426144446019
 31
0.0
  0
ARC
  5
6CB1
  8
0
 10
4434.0143832553203538
 20
230.6700616272082129
 30
0.0
 40
0.0117746009714539
 50
194.0765297477869922
 51
236.9222958349861869
  0
ARC
  5
6CB2
  8
0
 10
4434.0016511215926585
 20
230.6699757101077921
 30
0.0
 40
0.0116369929716317
 50
302.8116293297998141
 51
346.1895450874001767
  0
LINE
  5
6CB3
  8
0
 10
4434.0664401518852173
 20
230.6877426144446019
 30
0.0
 11
4434.0669386031831891
 21
230.667197835844803
 31
0.0
  0
LINE
  5
6CB4
  8
0
 10
4434.0769280755821455
 20
230.667197835844803
 30
0.0
 11
4434.0774265267982628
 21
230.6877426144446019
 31
0.0
  0
ARC
  5
6CB5
  8
0
 10
4434.0783596332175875
 20
230.6700616272069055
 30
0.0
 40
0.0117746009714539
 50
194.0765297477869922
 51
236.9222958349861869
  0
ARC
  5
6CB6
  8
0
 10
4434.0656274994898922
 20
230.6699757101065131
 30
0.0
 40
0.0116369929716317
 50
302.8116293297998141
 51
346.1895450874001767
  0
LINE
  5
6CB7
  8
0
 10
4434.130416529887043
 20
230.6877426144446019
 30
0.0
 11
4434.1309149811841053
 21
230.6671978358461956
 31
0.0
  0
LINE
  5
6CB8
  8
0
 10
4434.1409044535848807
 20
230.6671978358461956
 30
0.0
 11
4434.1414029048000884
 21
230.6877426144446019
 31
0.0
  0
ARC
  5
6CB9
  8
0
 10
4434.1423360112203227
 20
230.6700616272082129
 30
0.0
 40
0.0117746009714539
 50
194.0765297477869922
 51
236.9222958349861869
  0
ARC
  5
6CBA
  8
0
 10
4434.1296038774926274
 20
230.6699757101077921
 30
0.0
 40
0.0116369929716317
 50
302.8116293297998141
 51
346.1895450874001767
  0
LINE
  5
6CBB
  8
0
 10
4434.1943929078870497
 20
230.6877426144446019
 30
0.0
 11
4434.1948913591850214
 21
230.6671978358461956
 31
0.0
  0
LINE
  5
6CBC
  8
0
 10
4434.2048808315848873
 20
230.6671978358461956
 30
0.0
 11
4434.2053792828000951
 21
230.6877426144446019
 31
0.0
  0
ARC
  5
6CBD
  8
0
 10
4434.2063123892203294
 20
230.6700616272082129
 30
0.0
 40
0.0117746009714539
 50
194.0765297477869922
 51
236.9222958349861869
  0
ARC
  5
6CBE
  8
0
 10
4434.193580255492634
 20
230.6699757101077921
 30
0.0
 40
0.0116369929716317
 50
302.8116293297998141
 51
346.1895450874001767
  0
LINE
  5
6CBF
  8
0
 10
4434.2583692857870119
 20
230.6877426144446019
 30
0.0
 11
4434.2588677370840742
 21
230.6671978358461956
 31
0.0
  0
LINE
  5
6CC0
  8
0
 10
4434.2688572094848496
 20
230.6671978358461956
 30
0.0
 11
4434.2693556607000573
 21
230.6877426144446019
 31
0.0
  0
ARC
  5
6CC1
  8
0
 10
4434.2702887671202916
 20
230.6700616272082129
 30
0.0
 40
0.0117746009714539
 50
194.0765297477869922
 51
236.9222958349861869
  0
ARC
  5
6CC2
  8
0
 10
4434.2575566333925963
 20
230.6699757101077921
 30
0.0
 40
0.0116369929716317
 50
302.8116293297998141
 51
346.1895450874001767
  0
LINE
  5
6CC3
  8
0
 10
4434.3223456637888376
 20
230.6877426144446019
 30
0.0
 11
4434.3228441150868093
 21
230.667197835844803
 31
0.0
  0
LINE
  5
6CC4
  8
0
 10
4434.3328335874857657
 20
230.667197835844803
 30
0.0
 11
4434.3333320387009735
 21
230.6877426144446019
 31
0.0
  0
ARC
  5
6CC5
  8
0
 10
4434.3342651451221172
 20
230.6700616272067919
 30
0.0
 40
0.0117746009714539
 50
194.0765297477869922
 51
236.9222958349861869
  0
ARC
  5
6CC6
  8
0
 10
4434.3215330113953314
 20
230.6699757101063994
 30
0.0
 40
0.0116369929716317
 50
302.8116293297998141
 51
346.1895450874001767
  0
LINE
  5
6CC7
  8
0
 10
4434.3863220416869808
 20
230.6877426144446019
 30
0.0
 11
4434.3868204929840431
 21
230.6671978358461956
 31
0.0
  0
LINE
  5
6CC8
  8
0
 10
4434.396809965383909
 20
230.6671978358461956
 30
0.0
 11
4434.3973084166000262
 21
230.6877426144446019
 31
0.0
  0
ARC
  5
6CC9
  8
0
 10
4434.3982415230202605
 20
230.6700616272082129
 30
0.0
 40
0.0117746009714539
 50
194.0765297477869922
 51
236.9222958349861869
  0
ARC
  5
6CCA
  8
0
 10
4434.3855093892925652
 20
230.6699757101077921
 30
0.0
 40
0.0116369929716317
 50
302.8116293297998141
 51
346.1895450874001767
  0
LINE
  5
6CCB
  8
0
 10
4434.4502984196960824
 20
230.6877426144446019
 30
0.0
 11
4434.4507968709940542
 21
230.6671978358525905
 31
0.0
  0
ARC
  5
6CCC
  8
0
 10
4434.4622179010293621
 20
230.6700616272146078
 30
0.0
 40
0.0117746009714539
 50
194.0765297477869922
 51
236.9222958349861869
  0
LINE
  5
6CCD
  8
0
 10
4434.0024637739816171
 20
230.6529440523445089
 30
0.0
 11
4434.0029622252814079
 21
230.6323992737430899
 31
0.0
  0
LINE
  5
6CCE
  8
0
 10
4434.0129516976803643
 20
230.6323992737430899
 30
0.0
 11
4434.0134501488946626
 21
230.6529440523445089
 31
0.0
  0
ARC
  5
6CCF
  8
0
 10
4434.0143832553148968
 20
230.6352630651051072
 30
0.0
 40
0.0117746009714539
 50
194.0765297477869922
 51
236.9222958349861869
  0
ARC
  5
6CD0
  8
0
 10
4434.0016511215890205
 20
230.6351771480046864
 30
0.0
 40
0.0116369929716317
 50
302.8116293297998141
 51
346.1895450874001767
  0
LINE
  5
6CD1
  8
0
 10
4434.0664401518833984
 20
230.6529440523445089
 30
0.0
 11
4434.0669386031795511
 21
230.6323992737430899
 31
0.0
  0
LINE
  5
6CD2
  8
0
 10
4434.0769280755803265
 20
230.6323992737430899
 30
0.0
 11
4434.0774265267946248
 21
230.6529440523445089
 31
0.0
  0
ARC
  5
6CD3
  8
0
 10
4434.0783596332157686
 20
230.6352630651051072
 30
0.0
 40
0.0117746009714539
 50
194.0765297477869922
 51
236.9222958349861869
  0
ARC
  5
6CD4
  8
0
 10
4434.0656274994889827
 20
230.6351771480046864
 30
0.0
 40
0.0116369929716317
 50
302.8116293297998141
 51
346.1895450874001767
  0
LINE
  5
6CD5
  8
0
 10
4434.130416529881586
 20
230.6529440523445089
 30
0.0
 11
4434.1309149811813768
 21
230.6323992737430899
 31
0.0
  0
LINE
  5
6CD6
  8
0
 10
4434.1409044535803332
 20
230.6323992737430899
 30
0.0
 11
4434.1414029047946315
 21
230.6529440523445089
 31
0.0
  0
ARC
  5
6CD7
  8
0
 10
4434.1423360112148657
 20
230.6352630651051072
 30
0.0
 40
0.0117746009714539
 50
194.0765297477869922
 51
236.9222958349861869
  0
ARC
  5
6CD8
  8
0
 10
4434.1296038774889894
 20
230.6351771480046864
 30
0.0
 40
0.0116369929716317
 50
302.8116293297998141
 51
346.1895450874001767
  0
LINE
  5
6CD9
  8
0
 10
4434.1943929078843212
 20
230.6529440523445089
 30
0.0
 11
4434.1948913591822929
 21
230.6323992737443973
 31
0.0
  0
LINE
  5
6CDA
  8
0
 10
4434.2048808315821589
 20
230.6323992737443973
 30
0.0
 11
4434.2053792827973666
 21
230.6529440523445089
 31
0.0
  0
ARC
  5
6CDB
  8
0
 10
4434.2063123892166914
 20
230.6352630651064999
 30
0.0
 40
0.0117746009714539
 50
194.0765297477869922
 51
236.9222958349861869
  0
ARC
  5
6CDC
  8
0
 10
4434.193580255490815
 20
230.6351771480059938
 30
0.0
 40
0.0116369929716317
 50
302.8116293297998141
 51
346.1895450874001767
  0
LINE
  5
6CDD
  8
0
 10
4434.2583692857542701
 20
230.6529440523445089
 30
0.0
 11
4434.2588677370513324
 21
230.6323992737661968
 31
0.0
  0
LINE
  5
6CDE
  8
0
 10
4434.2688572094511983
 20
230.6323992737661968
 30
0.0
 11
4434.269355660666406
 21
230.6529440523445089
 31
0.0
  0
ARC
  5
6CDF
  8
0
 10
4434.2702887670866403
 20
230.6352630651282141
 30
0.0
 40
0.0117746009714539
 50
194.0765297477869922
 51
236.9222958349861869
  0
ARC
  5
6CE0
  8
0
 10
4434.2575566333598545
 20
230.6351771480277932
 30
0.0
 40
0.0116369929716317
 50
302.8116293297998141
 51
346.1895450874001767
  0
LINE
  5
6CE1
  8
0
 10
4434.3223456636842457
 20
230.6529440523445089
 30
0.0
 11
4434.3228441149831269
 21
230.6323992737443973
 31
0.0
  0
LINE
  5
6CE2
  8
0
 10
4434.3328335873820834
 20
230.6323992737443973
 30
0.0
 11
4434.3333320385972911
 21
230.6529440523445089
 31
0.0
  0
ARC
  5
6CE3
  8
0
 10
4434.3342651450166159
 20
230.6352630651064999
 30
0.0
 40
0.0117746009714539
 50
194.0765297477869922
 51
236.9222958349861869
  0
ARC
  5
6CE4
  8
0
 10
4434.32153301128983
 20
230.6351771480059938
 30
0.0
 40
0.0116369929716317
 50
302.8116293297998141
 51
346.1895450874001767
  0
LINE
  5
6CE5
  8
0
 10
4434.3863220416860713
 20
230.6529440523445089
 30
0.0
 11
4434.3868204929840431
 21
230.6323992737430899
 31
0.0
  0
LINE
  5
6CE6
  8
0
 10
4434.396809965383909
 20
230.6323992737430899
 30
0.0
 11
4434.3973084165991168
 21
230.6529440523445089
 31
0.0
  0
ARC
  5
6CE7
  8
0
 10
4434.3982415230202605
 20
230.6352630651051072
 30
0.0
 40
0.0117746009714539
 50
194.0765297477869922
 51
236.9222958349861869
  0
ARC
  5
6CE8
  8
0
 10
4434.3855093892925652
 20
230.6351771480046864
 30
0.0
 40
0.0116369929716317
 50
302.8116293297998141
 51
346.1895450874001767
  0
LINE
  5
6CE9
  8
0
 10
4434.450298419684259
 20
230.6529440523445089
 30
0.0
 11
4434.4507968709822308
 21
230.6323992737443973
 31
0.0
  0
ARC
  5
6CEA
  8
0
 10
4434.4622179010166292
 20
230.6352630651064999
 30
0.0
 40
0.0117746009714539
 50
194.0765297477869922
 51
236.9222958349861869
  0
LINE
  5
6CEB
  8
0
 10
4434.0024637739870741
 20
230.6181454901445136
 30
0.0
 11
4434.0029622252823174
 21
230.5976007116445032
 31
0.0
  0
LINE
  5
6CEC
  8
0
 10
4434.0129516976821833
 20
230.5976007116445032
 30
0.0
 11
4434.0134501488946626
 21
230.6181454901445136
 31
0.0
  0
ARC
  5
6CED
  8
0
 10
4434.0143832553167158
 20
230.6004645030064921
 30
0.0
 40
0.0117746009714539
 50
194.0765297477869922
 51
236.9222958349861869
  0
ARC
  5
6CEE
  8
0
 10
4434.00165112158993
 20
230.600378585905986
 30
0.0
 40
0.0116369929716317
 50
302.8116293297998141
 51
346.1895450874001767
  0
LINE
  5
6CEF
  8
0
 10
4434.0664401518479281
 20
230.6181454901445136
 30
0.0
 11
4434.0669386031440808
 21
230.5976007116717028
 31
0.0
  0
LINE
  5
6CF0
  8
0
 10
4434.0769280755430373
 20
230.5976007116717028
 30
0.0
 11
4434.077426526754607
 21
230.6181454901445136
 31
0.0
  0
ARC
  5
6CF1
  8
0
 10
4434.0783596331793888
 20
230.6004645030336917
 30
0.0
 40
0.0117746009714539
 50
194.0765297477869922
 51
236.9222958349861869
  0
ARC
  5
6CF2
  8
0
 10
4434.0656274994507839
 20
230.6003785859332993
 30
0.0
 40
0.0116369929716317
 50
302.8116293297998141
 51
346.1895450874001767
  0
LINE
  5
6CF3
  8
0
 10
4433.9553355588977865
 20
230.6181454901445136
 30
0.0
 11
4433.9491397111823971
 21
230.6239274710445954
 31
0.0
  0
LINE
  5
6CF4
  8
0
 10
4433.9491397111823971
 20
230.6239274710445954
 30
0.0
 11
4433.9341625621664207
 21
230.6239274710445954
 31
0.0
  0
LINE
  5
6CF5
  8
0
 10
4433.9553355589823695
 20
230.6181454902445012
 30
0.0
 11
4433.9557640872817501
 21
230.5976007116445032
 31
0.0
  0
LINE
  5
6CF6
  8
0
 10
4433.9642281624828684
 20
230.5891350068446002
 30
0.0
 11
4434.0684201861813563
 21
230.5891350068446002
 31
0.0
  0
ARC
  5
6CF7
  8
0
 10
4434.0683002998976008
 20
230.5943720298423045
 30
0.0
 40
0.0052383950404233
 50
271.311389795781281
 51
313.9110327373052201
  0
ARC
  5
6CF8
  8
0
 10
4433.9662772956316985
 20
230.5996478209536065
 30
0.0
 40
0.0107106585773539
 50
191.0186353264433876
 51
258.9703358540560885
  0
ARC
  5
6CF9
  8
0
 10
4434.1359097173817645
 20
230.6001033409222885
 30
0.0
 40
0.0053293371200262
 50
200.4109618284132068
 51
339.5890381715973945
  0
LINE
  5
6CFA
  8
0
 10
4434.1944001054698674
 20
230.6181454901445136
 30
0.0
 11
4434.194891359083158
 21
230.5982447489867866
 31
0.0
  0
LINE
  5
6CFB
  8
0
 10
4434.2048808314821144
 20
230.5982447490868879
 30
0.0
 11
4434.2053720849971796
 21
230.6181454901445136
 31
0.0
  0
ARC
  5
6CFC
  8
0
 10
4434.1998860952817267
 20
230.600103362564596
 30
0.0
 40
0.0053293371200262
 50
200.4109618284132068
 51
339.5890381715973945
  0
LINE
  5
6CFD
  8
0
 10
4434.2583764833689202
 20
230.6181454901445136
 30
0.0
 11
4434.2588677369822108
 21
230.5982447489867866
 31
0.0
  0
LINE
  5
6CFE
  8
0
 10
4434.2688572093820767
 20
230.5982447490868879
 30
0.0
 11
4434.2693484628971419
 21
230.6181454901445136
 31
0.0
  0
ARC
  5
6CFF
  8
0
 10
4434.2638624731825985
 20
230.600103362564596
 30
0.0
 40
0.0053293371200262
 50
200.4109618284132068
 51
339.5890381715973945
  0
LINE
  5
6D00
  8
0
 10
4434.3223528621510923
 20
230.6181454901445136
 30
0.0
 11
4434.3228441157643829
 21
230.5982447489867866
 31
0.0
  0
LINE
  5
6D01
  8
0
 10
4434.3328335881642488
 20
230.5982447490868879
 30
0.0
 11
4434.3333248416784045
 21
230.6181454901445136
 31
0.0
  0
ARC
  5
6D02
  8
0
 10
4434.3278388519638611
 20
230.600103362564596
 30
0.0
 40
0.0053293371200262
 50
200.4109618284132068
 51
339.5890381715973945
  0
LINE
  5
6D03
  8
0
 10
4434.3863292398546037
 20
230.6181454901445136
 30
0.0
 11
4434.3868204934678943
 21
230.5982447489867866
 31
0.0
  0
LINE
  5
6D04
  8
0
 10
4434.3968099658686697
 20
230.5982447490868879
 30
0.0
 11
4434.3973012193828254
 21
230.6181454901445136
 31
0.0
  0
ARC
  5
6D05
  8
0
 10
4434.391815229668282
 20
230.600103362564596
 30
0.0
 40
0.0053293371200262
 50
200.4109618284132068
 51
339.5890381715973945
  0
LINE
  5
6D06
  8
0
 10
4434.4503056172698052
 20
230.6181454901445136
 30
0.0
 11
4434.4507968708830958
 21
230.5982447489867866
 31
0.0
  0
ARC
  5
6D07
  8
0
 10
4434.4557916070816646
 20
230.600103362564596
 30
0.0
 40
0.0053293371200262
 50
200.4109618284132068
 51
270.0000010751377886
  0
LINE
  5
6D08
  8
0
 10
4442.7657916071821091
 20
225.7020621006444969
 30
0.0
 11
4442.7657916071821091
 21
226.5220621006446038
 31
0.0
  0
LINE
  5
6D09
  8
0
 10
4441.455791607181709
 20
225.3890621006445087
 30
0.0
 11
4441.455791607181709
 21
225.6040621006445122
 31
0.0
  0
LINE
  5
6D0A
  8
0
 10
4440.6477916071817162
 20
225.6340621006445986
 30
0.0
 11
4440.6477916071817162
 21
225.6720621006444958
 31
0.0
  0
LINE
  5
6D0B
  8
0
 10
4440.2637916071817017
 20
225.6720621006444958
 30
0.0
 11
4440.2637916071817017
 21
225.6340621006445986
 31
0.0
  0
LINE
  5
6D0C
  8
0
 10
4439.4557916071826185
 20
226.5220621006446038
 30
0.0
 11
4439.4557916071826185
 21
225.7020621006444969
 31
0.0
  0
LINE
  5
6D0D
  8
0
 10
4439.4557916071826185
 20
225.6040621006445122
 30
0.0
 11
4439.4557916071826185
 21
225.3890621006445087
 31
0.0
  0
LINE
  5
6D0E
  8
0
 10
4439.4857916071814543
 20
225.3590621006445076
 30
0.0
 11
4441.4257916071828731
 21
225.3590621006445076
 31
0.0
  0
LINE
  5
6D0F
  8
0
 10
4441.4257916071828731
 20
225.6340621006445986
 30
0.0
 11
4439.4857916071814543
 21
225.6340621006445986
 31
0.0
  0
LINE
  5
6D10
  8
0
 10
4439.4857916071814543
 20
225.6720621006444958
 30
0.0
 11
4440.3966223584820909
 21
225.6720621006444958
 31
0.0
  0
LINE
  5
6D11
  8
0
 10
4440.5149608559822809
 20
225.6720621006444958
 30
0.0
 11
4442.7357916071832733
 21
225.6720621006444958
 31
0.0
  0
LINE
  5
6D12
  8
0
 10
4442.7357916071832733
 20
226.5520621006444912
 30
0.0
 11
4439.4857916071814543
 21
226.5520621006444912
 31
0.0
  0
LINE
  5
6D13
  8
0
 10
4435.0317899213823694
 20
230.6395705717445992
 30
0.0
 11
4435.0317907540829765
 21
230.6112997871445032
 31
0.0
  0
LINE
  5
6D14
  8
0
 10
4435.0067923773813163
 20
230.6572522113445132
 30
0.0
 11
4435.0067918712820756
 21
230.6289682966445014
 31
0.0
  0
LINE
  5
6D15
  8
0
 10
4435.0040199536833825
 20
230.6309645299446061
 30
0.0
 11
4435.0040199536833825
 21
230.6588033796446098
 31
0.0
  0
LINE
  5
6D16
  8
0
 10
4434.992565235782422
 20
230.6471076383444938
 30
0.0
 11
4434.992565235782422
 21
230.6749464880444975
 31
0.0
  0
LINE
  5
6D17
  8
0
 10
4434.8479916156820764
 20
230.5627593483445139
 30
0.0
 11
4434.8298073552823553
 21
230.5850304280446039
 31
0.0
  0
LINE
  5
6D18
  8
0
 10
4434.8286708389823616
 20
230.5530157509446099
 30
0.0
 11
4434.8161691598834295
 21
230.5683271182444969
 31
0.0
  0
LINE
  5
6D19
  8
0
 10
4434.992565235782422
 20
230.6471076383444938
 30
0.0
 11
4434.9911270661823437
 21
230.6222365369445129
 31
0.0
  0
LINE
  5
6D1A
  8
0
 10
4434.7811594873301146
 20
230.6181454901445136
 30
0.0
 11
4434.7806682331829506
 21
230.5982447273445928
 31
0.0
  0
LINE
  5
6D1B
  8
0
 10
4434.9089125651353243
 20
230.7140143532124057
 30
0.0
 11
4434.9086209890829196
 21
230.7019963978445105
 31
0.0
  0
LINE
  5
6D1C
  8
0
 10
4434.9774451504817989
 20
230.6532356096444971
 30
0.0
 11
4434.9774451504817989
 21
230.6253967600445094
 31
0.0
  0
LINE
  5
6D1D
  8
0
 10
4434.8479916156820764
 20
230.5627593483445139
 30
0.0
 11
4434.8479916156820764
 21
230.5891350068446002
 31
0.0
  0
LINE
  5
6D1E
  8
0
 10
4434.8343534203822855
 20
230.5530157509446099
 30
0.0
 11
4434.8343534172890941
 21
230.5455291625364111
 31
0.0
  0
LINE
  5
6D1F
  8
0
 10
4434.8298073552823553
 20
230.5850304280446039
 30
0.0
 11
4434.8298073552823553
 21
230.6181454901445136
 31
0.0
  0
LINE
  5
6D20
  8
0
 10
4434.5148467252829505
 20
230.5683271182444969
 30
0.0
 11
4434.5148467252829505
 21
230.5433694080261091
 31
0.0
  0
LINE
  5
6D21
  8
0
 10
4434.4912246780822898
 20
230.5433270814642128
 30
0.0
 11
4434.4912246780822898
 21
230.5683271182444969
 31
0.0
  0
LINE
  5
6D22
  8
0
 10
4434.8986315166821441
 20
230.7019963978445105
 30
0.0
 11
4434.8983055291737401
 21
230.7154327000972103
 31
0.0
  0
LINE
  5
6D23
  8
0
 10
4434.7706787607821752
 20
230.5982447274444951
 30
0.0
 11
4434.7701875067341462
 21
230.6181454901445136
 31
0.0
  0
LINE
  5
6D24
  8
0
 10
4434.4931931819828606
 20
230.5418802110445995
 30
0.0
 11
4434.5128782213823797
 21
230.5418802110445995
 31
0.0
  0
LINE
  5
6D25
  8
0
 10
4434.5148467252829505
 20
230.545529294544508
 30
0.0
 11
4434.8887916075818794
 21
230.5455291400444935
 31
0.0
  0
LINE
  5
6D26
  8
0
 10
4434.8343534203822855
 20
230.5495358947445936
 30
0.0
 11
4434.8888624733817778
 21
230.5495358947445936
 31
0.0
  0
LINE
  5
6D27
  8
0
 10
4434.8286708389823616
 20
230.5530157509446099
 30
0.0
 11
4434.8888624733817778
 21
230.5530157509446099
 31
0.0
  0
LINE
  5
6D28
  8
0
 10
4434.8888624733817778
 20
230.5627593483445139
 30
0.0
 11
4434.8479916156820764
 21
230.5627593483445139
 31
0.0
  0
LINE
  5
6D29
  8
0
 10
4434.8161691598834295
 20
230.5683271182444969
 30
0.0
 11
4434.5148467252829505
 21
230.5683271182444969
 31
0.0
  0
ARC
  5
6D2A
  8
0
 10
4441.4245505605422295
 20
225.6028210540040959
 30
0.0
 40
0.0312656871338121
 50
2.2748714909611949
 51
87.7251285090190152
  0
ARC
  5
6D2B
  8
0
 10
4439.4864700196521881
 20
225.6033836881746879
 30
0.0
 40
0.0306859126497519
 50
91.266813827436934
 51
178.7331861725560032
  0
ARC
  5
6D2C
  8
0
 10
4439.4878232776973164
 20
225.3910937711592908
 30
0.0
 40
0.0320960371548453
 50
183.6292338180199977
 51
266.3707661819540249
  0
ARC
  5
6D2D
  8
0
 10
4441.4252350107353777
 20
225.3896186970926863
 30
0.0
 40
0.0305616653031345
 50
271.0435423025036243
 51
358.9564576975122918
  0
ARC
  5
6D2E
  8
0
 10
4439.486370912329221
 20
226.5214827954982866
 30
0.0
 40
0.0305847919345895
 50
91.0853016416419621
 51
178.9146983583449924
  0
ARC
  5
6D2F
  8
0
 10
4439.4868776842085936
 20
225.7031481776710962
 30
0.0
 40
0.0311050437744963
 50
182.0009706931492985
 51
267.9990293068331084
  0
ARC
  5
6D30
  8
0
 10
4442.7331075873798909
 20
226.5193780808419888
 30
0.0
 40
0.0327940408116456
 50
4.6946094504150651
 51
85.3053905495697791
  0
ARC
  5
6D31
  8
0
 10
4442.7351283063017036
 20
225.7027254015241056
 30
0.0
 40
0.0306704742201597
 50
271.2392147517497278
 51
358.7607852482240105
  0
LINE
  5
6D32
  8
0
 10
4435.455791607181709
 20
225.3890621006445087
 30
0.0
 11
4435.455791607181709
 21
225.6040621006445122
 31
0.0
  0
LINE
  5
6D33
  8
0
 10
4435.0807916071826185
 20
225.6340621006445986
 30
0.0
 11
4435.0807916071826185
 21
233.5315384050445005
 31
0.0
  0
ARC
  5
6D34
  8
0
 10
4435.4240675251776338
 20
225.6023380186393013
 30
0.0
 40
0.0317708960816948
 50
3.1107454184944938
 51
86.8892545815092348
  0
ARC
  5
6D35
  8
0
 10
4435.4235418867347107
 20
225.3913118210913922
 30
0.0
 40
0.0323280947627497
 50
273.9904533248442817
 51
356.0095466751786262
  0
ARC
  5
6D36
  8
0
 10
4435.0483163292574318
 20
233.5290887669322046
 30
0.0
 40
0.032567536032115
 50
4.3137008603906111
 51
85.6410617449919442
  0
ARC
  5
6D37
  8
0
 10
4435.0508017935389944
 20
230.7262100726076994
 30
0.0
 40
0.0318054010680686
 50
19.4528702764602812
 51
90.0183501940303046
  0
ARC
  5
6D38
  8
0
 10
4435.0501363618895994
 20
230.5255968909428077
 30
0.0
 40
0.0327530168572135
 50
271.1463156114814979
 51
339.3824639180465965
  0
ARC
  5
6D39
  8
0
 10
4440.4557916072326407
 20
224.3798106941206072
 30
0.0
 40
1.293605309845566
 50
87.3783878099620068
 51
92.6216121900379932
  0
ARC
  5
6D3A
  8
0
 10
4434.9407007540930863
 20
230.6345091680479982
 30
0.0
 40
0.0912296783111586
 50
3.1803909746258801
 51
59.9312302477629189
  0
ARC
  5
6D3B
  8
0
 10
4434.8862840197316473
 20
230.5430994865737091
 30
0.0
 40
0.1976070165196661
 50
59.5561045015555308
 51
89.2765901430550031
  0
ARC
  5
6D3C
  8
0
 10
4434.9403309207982602
 20
230.6165035130640888
 30
0.0
 40
0.0916077500427672
 50
299.5238106351686724
 51
356.7435931006613146
  0
ARC
  5
6D3D
  8
0
 10
4434.8743251649220838
 20
230.7516412974079003
 30
0.0
 40
0.2418981397238765
 50
273.4270398513714895
 51
297.3539162172938859
  0
ARC
  5
6D3E
  8
0
 10
4434.5129870040182141
 20
230.5437820538612925
 30
0.0
 40
0.0019049513803542
 50
266.7263319422552854
 51
347.4895593001908765
  0
ARC
  5
6D3F
  8
0
 10
4434.4930732659577188
 20
230.5437795972025015
 30
0.0
 40
0.0019031677881299
 50
193.7549467805255858
 51
273.6125224704023253
  0
ARC
  5
6D40
  8
0
 10
4434.8846105541097131
 20
230.718875516349101
 30
0.0
 40
0.1733967917409919
 50
271.3816861046137774
 51
297.4868849754121811
  0
ARC
  5
6D41
  8
0
 10
4434.9302398386244022
 20
230.6335956388460033
 30
0.0
 40
0.076691759662351
 50
296.6516500123943842
 51
356.54084987121729
  0
ARC
  5
6D42
  8
0
 10
4434.9341235177826093
 20
230.6539003086543005
 30
0.0
 40
0.072746122969433
 50
2.6409365935907712
 51
53.8584510987935801
  0
ARC
  5
6D43
  8
0
 10
4434.8957427549721615
 20
230.6055243227777964
 30
0.0
 40
0.1344716071814453
 50
52.8087126290249671
 51
81.9317375790991349
  0
ARC
  5
6D44
  8
0
 10
4434.9234201962626685
 20
230.627619570991186
 30
0.0
 40
0.0540706627189441
 50
305.7674136999697225
 51
357.6439425965895111
  0
ARC
  5
6D45
  8
0
 10
4434.8822083874802047
 20
230.6985153724168924
 30
0.0
 40
0.1359190013615599
 50
272.8061087199491226
 51
302.3934439197416282
  0
ARC
  5
6D46
  8
0
 10
4434.9233840768447408
 20
230.6509492158984926
 30
0.0
 40
0.0541094010841618
 50
2.4217553069655842
 51
53.444787843869328
  0
ARC
  5
6D47
  8
0
 10
4434.8881498291475509
 20
230.5991125410149039
 30
0.0
 40
0.1167626552111427
 50
54.7063361132129629
 51
89.6503011994977754
  0
ARC
  5
6D48
  8
0
 10
4434.8971999590457926
 20
230.7048601892064994
 30
0.0
 40
0.0117746009714539
 50
303.0777041650138131
 51
345.9234702522128941
  0
ARC
  5
6D49
  8
0
 10
4434.9099320927743975
 20
230.7047742721061923
 30
0.0
 40
0.0116369929716317
 50
193.8104549125997096
 51
237.1883706702001859
  0
ARC
  5
6D4A
  8
0
 10
4434.8888426837793304
 20
230.6850108308728977
 30
0.0
 40
0.131995081411832
 50
270.0085901740588952
 51
306.3250545962648062
  0
ARC
  5
6D4B
  8
0
 10
4434.9300946177863807
 20
230.6275410332812896
 30
0.0
 40
0.0612625288300982
 50
307.0804872036064808
 51
355.0327498797634007
  0
ARC
  5
6D4C
  8
0
 10
4434.9382746540077278
 20
230.6746242113260905
 30
0.0
 40
0.0542915383088999
 50
0.3401125093979577
 51
44.4551691062986194
  0
ARC
  5
6D4D
  8
0
 10
4434.9431755682371659
 20
230.6584284166806924
 30
0.0
 40
0.0608455408177748
 50
0.3530896594063173
 51
25.8292971245905711
  0
ARC
  5
6D4E
  8
0
 10
4434.90601308850637
 20
230.6372984988288124
 30
0.0
 40
0.1035400842450328
 50
27.3941863657525815
 51
46.696120162795097
  0
ARC
  5
6D4F
  8
0
 10
4434.9258582915990701
 20
230.6380705437522067
 30
0.0
 40
0.0784840165373749
 50
304.0478764483244731
 51
354.8052743437083905
  0
ARC
  5
6D50
  8
0
 10
4434.8892169923528854
 20
230.6994189014174026
 30
0.0
 40
0.1498834259449061
 50
269.8644782799091786
 51
302.5231425711426141
  0
LINE
  5
6D51
  8
0
 10
4434.8449812816470512
 20
230.7158730214445939
 30
0.0
 11
4434.8446446111383921
 21
230.7019963978169983
 31
0.0
  0
LINE
  5
6D52
  8
0
 10
4434.8346551387394356
 20
230.7019963978169983
 30
0.0
 11
4434.8343184682853462
 21
230.7158730214445939
 31
0.0
  0
ARC
  5
6D53
  8
0
 10
4434.8332235811030841
 20
230.7048601891789872
 30
0.0
 40
0.0117746009714539
 50
303.0777041650138131
 51
345.9234702522128941
  0
ARC
  5
6D54
  8
0
 10
4434.84595571482987
 20
230.7047742720785948
 30
0.0
 40
0.0116369929716317
 50
193.8104549125997096
 51
237.1883706702001859
  0
LINE
  5
6D55
  8
0
 10
4434.7810049036879718
 20
230.7158730214445939
 30
0.0
 11
4434.7806682331793127
 21
230.7019963978461874
 31
0.0
  0
LINE
  5
6D56
  8
0
 10
4434.7706787607803562
 20
230.7019963978461874
 30
0.0
 11
4434.7703420903271763
 21
230.7158730214445939
 31
0.0
  0
ARC
  5
6D57
  8
0
 10
4434.7692472031449142
 20
230.7048601892082047
 30
0.0
 40
0.0117746009714539
 50
303.0777041650138131
 51
345.9234702522128941
  0
ARC
  5
6D58
  8
0
 10
4434.7819793368717001
 20
230.7047742721078123
 30
0.0
 40
0.0116369929716317
 50
193.8104549125997096
 51
237.1883706702001859
  0
LINE
  5
6D59
  8
0
 10
4434.7170285257871001
 20
230.7158730214445939
 30
0.0
 11
4434.7166918552802599
 21
230.7019963978461874
 31
0.0
  0
LINE
  5
6D5A
  8
0
 10
4434.7067023828813035
 20
230.7019963978461874
 30
0.0
 11
4434.7063657124281235
 21
230.7158730214445939
 31
0.0
  0
ARC
  5
6D5B
  8
0
 10
4434.705270825244952
 20
230.7048601892082047
 30
0.0
 40
0.0117746009714539
 50
303.0777041650138131
 51
345.9234702522128941
  0
ARC
  5
6D5C
  8
0
 10
4434.7180029589708283
 20
230.7047742721078123
 30
0.0
 40
0.0116369929716317
 50
193.8104549125997096
 51
237.1883706702001859
  0
LINE
  5
6D5D
  8
0
 10
4434.653052147690687
 20
230.7158730214445939
 30
0.0
 11
4434.6527154771847563
 21
230.7019963979130068
 31
0.0
  0
LINE
  5
6D5E
  8
0
 10
4434.6427260047857999
 20
230.7019963979130068
 30
0.0
 11
4434.6423893343353484
 21
230.7158730214445939
 31
0.0
  0
ARC
  5
6D5F
  8
0
 10
4434.6412944471503579
 20
230.7048601892749957
 30
0.0
 40
0.0117746009714539
 50
303.0777041650138131
 51
345.9234702522128941
  0
ARC
  5
6D60
  8
0
 10
4434.6540265808771437
 20
230.7047742721746033
 30
0.0
 40
0.0116369929716317
 50
193.8104549125997096
 51
237.1883706702001859
  0
LINE
  5
6D61
  8
0
 10
4434.5890757698880407
 20
230.7158730214445939
 30
0.0
 11
4434.588739099380291
 21
230.7019963978461874
 31
0.0
  0
LINE
  5
6D62
  8
0
 10
4434.5787496269813346
 20
230.7019963978461874
 30
0.0
 11
4434.5784129565281546
 21
230.7158730214445939
 31
0.0
  0
ARC
  5
6D63
  8
0
 10
4434.5773180693449831
 20
230.7048601892082047
 30
0.0
 40
0.0117746009714539
 50
303.0777041650138131
 51
345.9234702522128941
  0
ARC
  5
6D64
  8
0
 10
4434.5900502030708594
 20
230.7047742721078123
 30
0.0
 40
0.0116369929716317
 50
193.8104549125997096
 51
237.1883706702001859
  0
LINE
  5
6D65
  8
0
 10
4434.525099391889853
 20
230.7158730214445939
 30
0.0
 11
4434.5247627213821033
 21
230.7019963978447947
 31
0.0
  0
LINE
  5
6D66
  8
0
 10
4434.5147732489822374
 20
230.7019963978447947
 30
0.0
 11
4434.5144365785299669
 21
230.7158730214445939
 31
0.0
  0
ARC
  5
6D67
  8
0
 10
4434.5133416913467954
 20
230.7048601892068973
 30
0.0
 40
0.0117746009714539
 50
303.0777041650138131
 51
345.9234702522128941
  0
ARC
  5
6D68
  8
0
 10
4434.5260738250735812
 20
230.7047742721063912
 30
0.0
 40
0.0116369929716317
 50
193.8104549125997096
 51
237.1883706702001859
  0
LINE
  5
6D69
  8
0
 10
4434.4611230139880718
 20
230.7158730214445939
 30
0.0
 11
4434.4607863434803221
 21
230.7019963978461874
 31
0.0
  0
ARC
  5
6D6A
  8
0
 10
4434.4493653134450142
 20
230.7048601892082047
 30
0.0
 40
0.0117746009714539
 50
303.0777041650138131
 51
345.9234702522128941
  0
LINE
  5
6D6B
  8
0
 10
4434.9091194403781628
 20
230.6877426144446019
 30
0.0
 11
4434.9086209890792816
 21
230.6671978358461956
 31
0.0
  0
LINE
  5
6D6C
  8
0
 10
4434.8986315166803251
 20
230.6671978358461956
 30
0.0
 11
4434.8981330654651174
 21
230.6877426144446019
 31
0.0
  0
ARC
  5
6D6D
  8
0
 10
4434.8971999590448831
 20
230.6700616272082129
 30
0.0
 40
0.0117746009714539
 50
303.0777041650138131
 51
345.9234702522128941
  0
ARC
  5
6D6E
  8
0
 10
4434.909932092771669
 20
230.6699757101077921
 30
0.0
 40
0.0116369929716317
 50
193.8104549125997096
 51
237.1883706702001859
  0
LINE
  5
6D6F
  8
0
 10
4434.8451430624800196
 20
230.6877426144446019
 30
0.0
 11
4434.8446446111820478
 21
230.667197835844803
 31
0.0
  0
LINE
  5
6D70
  8
0
 10
4434.8346551387812724
 20
230.667197835844803
 30
0.0
 11
4434.8341566875669741
 21
230.6877426144446019
 31
0.0
  0
ARC
  5
6D71
  8
0
 10
4434.8332235811458304
 20
230.6700616272069055
 30
0.0
 40
0.0117746009714539
 50
303.0777041650138131
 51
345.9234702522128941
  0
ARC
  5
6D72
  8
0
 10
4434.8459557148726162
 20
230.6699757101065131
 30
0.0
 40
0.0116369929716317
 50
193.8104549125997096
 51
237.1883706702001859
  0
LINE
  5
6D73
  8
0
 10
4434.7811666844781939
 20
230.6877426144446019
 30
0.0
 11
4434.7806682331793127
 21
230.6671978358461956
 31
0.0
  0
LINE
  5
6D74
  8
0
 10
4434.7706787607803562
 20
230.6671978358461956
 30
0.0
 11
4434.7701803095651485
 21
230.6877426144446019
 31
0.0
  0
ARC
  5
6D75
  8
0
 10
4434.7692472031449142
 20
230.6700616272082129
 30
0.0
 40
0.0117746009714539
 50
303.0777041650138131
 51
345.9234702522128941
  0
ARC
  5
6D76
  8
0
 10
4434.7819793368717001
 20
230.6699757101077921
 30
0.0
 40
0.0116369929716317
 50
193.8104549125997096
 51
237.1883706702001859
  0
LINE
  5
6D77
  8
0
 10
4434.7171903064781873
 20
230.6877426144446019
 30
0.0
 11
4434.7166918551802155
 21
230.6671978358461956
 31
0.0
  0
LINE
  5
6D78
  8
0
 10
4434.7067023827803496
 20
230.6671978358461956
 30
0.0
 11
4434.7062039315651418
 21
230.6877426144446019
 31
0.0
  0
ARC
  5
6D79
  8
0
 10
4434.7052708251439981
 20
230.6700616272082129
 30
0.0
 40
0.0117746009714539
 50
303.0777041650138131
 51
345.9234702522128941
  0
ARC
  5
6D7A
  8
0
 10
4434.7180029588716934
 20
230.6699757101077921
 30
0.0
 40
0.0116369929716317
 50
193.8104549125997096
 51
237.1883706702001859
  0
LINE
  5
6D7B
  8
0
 10
4434.653213928578225
 20
230.6877426144446019
 30
0.0
 11
4434.6527154772793438
 21
230.6671978358461956
 31
0.0
  0
LINE
  5
6D7C
  8
0
 10
4434.6427260048803873
 20
230.6671978358461956
 30
0.0
 11
4434.6422275536651796
 21
230.6877426144446019
 31
0.0
  0
ARC
  5
6D7D
  8
0
 10
4434.6412944472449453
 20
230.6700616272082129
 30
0.0
 40
0.0117746009714539
 50
303.0777041650138131
 51
345.9234702522128941
  0
ARC
  5
6D7E
  8
0
 10
4434.6540265809708217
 20
230.6699757101077921
 30
0.0
 40
0.0116369929716317
 50
193.8104549125997096
 51
237.1883706702001859
  0
LINE
  5
6D7F
  8
0
 10
4434.5892375505763994
 20
230.6877426144446019
 30
0.0
 11
4434.5887390992784276
 21
230.667197835844803
 31
0.0
  0
LINE
  5
6D80
  8
0
 10
4434.5787496268776522
 20
230.667197835844803
 30
0.0
 11
4434.5782511756633539
 21
230.6877426144446019
 31
0.0
  0
ARC
  5
6D81
  8
0
 10
4434.5773180692431197
 20
230.6700616272067919
 30
0.0
 40
0.0117746009714539
 50
303.0777041650138131
 51
345.9234702522128941
  0
ARC
  5
6D82
  8
0
 10
4434.590050202968996
 20
230.6699757101063994
 30
0.0
 40
0.0116369929716317
 50
193.8104549125997096
 51
237.1883706702001859
  0
LINE
  5
6D83
  8
0
 10
4434.5252611726782561
 20
230.6877426144446019
 30
0.0
 11
4434.5247627213793749
 21
230.6671978358461956
 31
0.0
  0
LINE
  5
6D84
  8
0
 10
4434.5147732489804184
 20
230.6671978358461956
 30
0.0
 11
4434.5142747977652107
 21
230.6877426144446019
 31
0.0
  0
ARC
  5
6D85
  8
0
 10
4434.5133416913449764
 20
230.6700616272082129
 30
0.0
 40
0.0117746009714539
 50
303.0777041650138131
 51
345.9234702522128941
  0
ARC
  5
6D86
  8
0
 10
4434.5260738250708528
 20
230.6699757101077921
 30
0.0
 40
0.0116369929716317
 50
193.8104549125997096
 51
237.1883706702001859
  0
LINE
  5
6D87
  8
0
 10
4434.4612847946691545
 20
230.6877426144446019
 30
0.0
 11
4434.4607863433711827
 21
230.6671978358525905
 31
0.0
  0
ARC
  5
6D88
  8
0
 10
4434.4493653133358748
 20
230.6700616272146078
 30
0.0
 40
0.0117746009714539
 50
303.0777041650138131
 51
345.9234702522128941
  0
LINE
  5
6D89
  8
0
 10
4434.9091194403827103
 20
230.6529440523445089
 30
0.0
 11
4434.9086209890847385
 21
230.6323992737430899
 31
0.0
  0
LINE
  5
6D8A
  8
0
 10
4434.8986315166839631
 20
230.6323992737430899
 30
0.0
 11
4434.8981330654687554
 21
230.6529440523445089
 31
0.0
  0
ARC
  5
6D8B
  8
0
 10
4434.8971999590494306
 20
230.6352630651051072
 30
0.0
 40
0.0117746009714539
 50
303.0777041650138131
 51
345.9234702522128941
  0
ARC
  5
6D8C
  8
0
 10
4434.9099320927762165
 20
230.6351771480046864
 30
0.0
 40
0.0116369929716317
 50
193.8104549125997096
 51
237.1883706702001859
  0
LINE
  5
6D8D
  8
0
 10
4434.8451430624818386
 20
230.6529440523445089
 30
0.0
 11
4434.8446446111838668
 21
230.6323992737430899
 31
0.0
  0
LINE
  5
6D8E
  8
0
 10
4434.8346551387849104
 20
230.6323992737430899
 30
0.0
 11
4434.8341566875687931
 21
230.6529440523445089
 31
0.0
  0
ARC
  5
6D8F
  8
0
 10
4434.8332235811503779
 20
230.6352630651051072
 30
0.0
 40
0.0117746009714539
 50
303.0777041650138131
 51
345.9234702522128941
  0
ARC
  5
6D90
  8
0
 10
4434.8459557148762542
 20
230.6351771480046864
 30
0.0
 40
0.0116369929716317
 50
193.8104549125997096
 51
237.1883706702001859
  0
LINE
  5
6D91
  8
0
 10
4434.7811666844827414
 20
230.6529440523445089
 30
0.0
 11
4434.7806682331847696
 21
230.6323992737430899
 31
0.0
  0
LINE
  5
6D92
  8
0
 10
4434.7706787607839942
 20
230.6323992737430899
 30
0.0
 11
4434.7701803095687865
 21
230.6529440523445089
 31
0.0
  0
ARC
  5
6D93
  8
0
 10
4434.7692472031485522
 20
230.6352630651051072
 30
0.0
 40
0.0117746009714539
 50
303.0777041650138131
 51
345.9234702522128941
  0
ARC
  5
6D94
  8
0
 10
4434.7819793368762475
 20
230.6351771480046864
 30
0.0
 40
0.0116369929716317
 50
193.8104549125997096
 51
237.1883706702001859
  0
LINE
  5
6D95
  8
0
 10
4434.7171903064809158
 20
230.6529440523445089
 30
0.0
 11
4434.7166918551820345
 21
230.6323992737443973
 31
0.0
  0
LINE
  5
6D96
  8
0
 10
4434.7067023827830781
 20
230.6323992737443973
 30
0.0
 11
4434.7062039315669608
 21
230.6529440523445089
 31
0.0
  0
ARC
  5
6D97
  8
0
 10
4434.7052708251467266
 20
230.6352630651064999
 30
0.0
 40
0.0117746009714539
 50
303.0777041650138131
 51
345.9234702522128941
  0
ARC
  5
6D98
  8
0
 10
4434.7180029588744219
 20
230.6351771480059938
 30
0.0
 40
0.0116369929716317
 50
193.8104549125997096
 51
237.1883706702001859
  0
LINE
  5
6D99
  8
0
 10
4434.6532139286109668
 20
230.6529440523445089
 30
0.0
 11
4434.6527154773139046
 21
230.6323992737661968
 31
0.0
  0
LINE
  5
6D9A
  8
0
 10
4434.6427260049131291
 20
230.6323992737661968
 30
0.0
 11
4434.6422275536979214
 21
230.6529440523445089
 31
0.0
  0
ARC
  5
6D9B
  8
0
 10
4434.6412944472767776
 20
230.6352630651282141
 30
0.0
 40
0.0117746009714539
 50
303.0777041650138131
 51
345.9234702522128941
  0
ARC
  5
6D9C
  8
0
 10
4434.6540265810053825
 20
230.6351771480277932
 30
0.0
 40
0.0116369929716317
 50
193.8104549125997096
 51
237.1883706702001859
  0
LINE
  5
6D9D
  8
0
 10
4434.5892375506809913
 20
230.6529440523445089
 30
0.0
 11
4434.5887390993830195
 21
230.6323992737443973
 31
0.0
  0
LINE
  5
6D9E
  8
0
 10
4434.5787496269813346
 20
230.6323992737443973
 30
0.0
 11
4434.5782511757679458
 21
230.6529440523445089
 31
0.0
  0
ARC
  5
6D9F
  8
0
 10
4434.5773180693458926
 20
230.6352630651064999
 30
0.0
 40
0.0117746009714539
 50
303.0777041650138131
 51
345.9234702522128941
  0
ARC
  5
6DA0
  8
0
 10
4434.5900502030735879
 20
230.6351771480059938
 30
0.0
 40
0.0116369929716317
 50
193.8104549125997096
 51
237.1883706702001859
  0
LINE
  5
6DA1
  8
0
 10
4434.5252611726782561
 20
230.6529440523445089
 30
0.0
 11
4434.5247627213793749
 21
230.6323992737430899
 31
0.0
  0
LINE
  5
6DA2
  8
0
 10
4434.5147732489804184
 20
230.6323992737430899
 30
0.0
 11
4434.5142747977652107
 21
230.6529440523445089
 31
0.0
  0
ARC
  5
6DA3
  8
0
 10
4434.5133416913449764
 20
230.6352630651051072
 30
0.0
 40
0.0117746009714539
 50
303.0777041650138131
 51
345.9234702522128941
  0
ARC
  5
6DA4
  8
0
 10
4434.5260738250726718
 20
230.6351771480046864
 30
0.0
 40
0.0116369929716317
 50
193.8104549125997096
 51
237.1883706702001859
  0
LINE
  5
6DA5
  8
0
 10
4434.4612847946809779
 20
230.6529440523445089
 30
0.0
 11
4434.4607863433820967
 21
230.6323992737443973
 31
0.0
  0
ARC
  5
6DA6
  8
0
 10
4434.4493653133467888
 20
230.6352630651064999
 30
0.0
 40
0.0117746009714539
 50
303.0777041650138131
 51
345.9234702522128941
  0
LINE
  5
6DA7
  8
0
 10
4434.9091194403781628
 20
230.6181454901445136
 30
0.0
 11
4434.9086209890829196
 21
230.5976007116445032
 31
0.0
  0
LINE
  5
6DA8
  8
0
 10
4434.8986315166830536
 20
230.5976007116445032
 30
0.0
 11
4434.8981330654705744
 21
230.6181454901445136
 31
0.0
  0
ARC
  5
6DA9
  8
0
 10
4434.8971999590467021
 20
230.6004645030064921
 30
0.0
 40
0.0117746009714539
 50
303.0777041650138131
 51
345.9234702522128941
  0
ARC
  5
6DAA
  8
0
 10
4434.9099320927743975
 20
230.600378585905986
 30
0.0
 40
0.0116369929716317
 50
193.8104549125997096
 51
237.1883706702001859
  0
LINE
  5
6DAB
  8
0
 10
4434.8451430625163994
 20
230.6181454901445136
 30
0.0
 11
4434.8446446112211561
 21
230.5976007116717028
 31
0.0
  0
LINE
  5
6DAC
  8
0
 10
4434.8346551388203807
 20
230.5976007116717028
 30
0.0
 11
4434.8341566876088109
 21
230.6181454901445136
 31
0.0
  0
ARC
  5
6DAD
  8
0
 10
4434.8332235811849387
 20
230.6004645030336917
 30
0.0
 40
0.0117746009714539
 50
303.0777041650138131
 51
345.9234702522128941
  0
ARC
  5
6DAE
  8
0
 10
4434.845955714912634
 20
230.6003785859332993
 30
0.0
 40
0.0116369929716317
 50
193.8104549125997096
 51
237.1883706702001859
  0
LINE
  5
6DAF
  8
0
 10
4434.9562476554656314
 20
230.6181454901445136
 30
0.0
 11
4434.9624435031828398
 21
230.6239274710445954
 31
0.0
  0
LINE
  5
6DB0
  8
0
 10
4434.9624435031828398
 20
230.6239274710445954
 30
0.0
 11
4434.9774206521988162
 21
230.6239274710445954
 31
0.0
  0
LINE
  5
6DB1
  8
0
 10
4434.9562476553819579
 20
230.6181454902445012
 30
0.0
 11
4434.9558191270816678
 21
230.5976007116445032
 31
0.0
  0
LINE
  5
6DB2
  8
0
 10
4434.9473550518823686
 20
230.5891350068446002
 30
0.0
 11
4434.8431630281829712
 21
230.5891350068446002
 31
0.0
  0
ARC
  5
6DB3
  8
0
 10
4434.8432829144658172
 20
230.5943720298423045
 30
0.0
 40
0.0052383950404233
 50
226.0889672626948084
 51
268.688610204218719
  0
ARC
  5
6DB4
  8
0
 10
4434.9453059187317194
 20
230.5996478209536065
 30
0.0
 40
0.0107106585773539
 50
281.0296641459439115
 51
348.981364673556584
  0
ARC
  5
6DB5
  8
0
 10
4434.7756734969816534
 20
230.6001033409222885
 30
0.0
 40
0.0053293371200262
 50
200.4109618284024918
 51
339.5890381715868216
  0
LINE
  5
6DB6
  8
0
 10
4434.717183108896279
 20
230.6181454901445136
 30
0.0
 11
4434.7166918552820789
 21
230.5982447489867866
 31
0.0
  0
LINE
  5
6DB7
  8
0
 10
4434.7067023828813035
 20
230.5982447490868879
 30
0.0
 11
4434.7062111293680573
 21
230.6181454901445136
 31
0.0
  0
ARC
  5
6DB8
  8
0
 10
4434.7116971190826007
 20
230.600103362564596
 30
0.0
 40
0.0053293371200262
 50
200.4109618284024918
 51
339.5890381715868216
  0
LINE
  5
6DB9
  8
0
 10
4434.6532067309954073
 20
230.6181454901445136
 30
0.0
 11
4434.6527154773821167
 21
230.5982447489867866
 31
0.0
  0
LINE
  5
6DBA
  8
0
 10
4434.6427260049822507
 20
230.5982447490868879
 30
0.0
 11
4434.6422347514680951
 21
230.6181454901445136
 31
0.0
  0
ARC
  5
6DBB
  8
0
 10
4434.6477207411826384
 20
230.600103362564596
 30
0.0
 40
0.0053293371200262
 50
200.4109618284024918
 51
339.5890381715868216
  0
LINE
  5
6DBC
  8
0
 10
4434.5892303522141447
 20
230.6181454901445136
 30
0.0
 11
4434.5887390985999446
 21
230.5982447489867866
 31
0.0
  0
LINE
  5
6DBD
  8
0
 10
4434.5787496262009881
 20
230.5982447490868879
 30
0.0
 11
4434.578258372685923
 21
230.6181454901445136
 31
0.0
  0
ARC
  5
6DBE
  8
0
 10
4434.5837443624013758
 20
230.600103362564596
 30
0.0
 40
0.0053293371200262
 50
200.4109618284024918
 51
339.5890381715868216
  0
LINE
  5
6DBF
  8
0
 10
4434.5252539745088143
 20
230.6181454901445136
 30
0.0
 11
4434.5247627208964332
 21
230.5982447489867866
 31
0.0
  0
LINE
  5
6DC0
  8
0
 10
4434.5147732484965672
 20
230.5982447490868879
 30
0.0
 11
4434.5142819949824116
 21
230.6181454901445136
 31
0.0
  0
ARC
  5
6DC1
  8
0
 10
4434.5197679846960455
 20
230.600103362564596
 30
0.0
 40
0.0053293371200262
 50
200.4109618284024918
 51
339.5890381715868216
  0
LINE
  5
6DC2
  8
0
 10
4434.4612775970963412
 20
230.6181454901445136
 30
0.0
 11
4434.4607863434821411
 21
230.5982447489867866
 31
0.0
  0
ARC
  5
6DC3
  8
0
 10
4434.4557916072826629
 20
230.600103362564596
 30
0.0
 40
0.0053293371200262
 50
269.9999989248622114
 51
339.5890381715868216
  0
LINE
  5
6DC4
  8
0
 10
4434.0227979904821041
 20
230.5101757373444968
 30
0.0
 11
4434.8887852238822234
 21
230.5101757373444968
 31
0.0
  0
ENDSEC
  0
EOF
