  0
SECTION
  2
HEADER
  9
$ACADVER
  1
AC1009
  9
$INSBASE
 10
4470.6625673761845974
 20
212.6650457402469101
 30
0.0
  9
$EXTMIN
 10
4462.3525673761841972
 20
208.7524632188469127
 30
0.0
  9
$EXTMAX
 10
4478.9725673761840881
 20
213.7650457402469044
 30
0.0
  9
$LIMMIN
 10
0.0
 20
0.0
  9
$LIMMAX
 10
11.6929133858000007
 20
8.2677165353999982
  9
$ORTHOMODE
 70
     1
  9
$REGENMODE
 70
     1
  9
$FILLMODE
 70
     1
  9
$QTEXTMODE
 70
     0
  9
$MIRRTEXT
 70
     0
  9
$DRAGMODE
 70
     2
  9
$LTSCALE
 40
0.6431102362
  9
$OSMODE
 70
  4095
  9
$ATTMODE
 70
     1
  9
$TEXTSIZE
 40
0.2
  9
$TRACEWID
 40
0.05
  9
$TEXTSTYLE
  7
STANDARD
  9
$CLAYER
  8
0
  9
$CELTYPE
  6
BYLAYER
  9
$CECOLOR
 62
   256
  9
$DIMSCALE
 40
1.0
  9
$DIMASZ
 40
0.1875
  9
$DIMEXO
 40
0.0625
  9
$DIMDLI
 40
0.4443307087
  9
$DIMRND
 40
0.0
  9
$DIMDLE
 40
0.0
  9
$DIMEXE
 40
0.125
  9
$DIMTP
 40
0.01
  9
$DIMTM
 40
0.01
  9
$DIMTXT
 40
2.0
  9
$DIMCEN
 40
0.1052362205
  9
$DIMTSZ
 40
0.0
  9
$DIMTOL
 70
     1
  9
$DIMLIM
 70
     0
  9
$DIMTIH
 70
     1
  9
$DIMTOH
 70
     1
  9
$DIMSE1
 70
     0
  9
$DIMSE2
 70
     0
  9
$DIMTAD
 70
     0
  9
$DIMZIN
 70
     0
  9
$DIMBLK
  1

  9
$DIMASO
 70
     1
  9
$DIMSHO
 70
     1
  9
$DIMPOST
  1
\X
  9
$DIMAPOST
  1

  9
$DIMALT
 70
     1
  9
$DIMALTD
 70
     2
  9
$DIMALTF
 40
25.3999999999999986
  9
$DIMLFAC
 40
1.0
  9
$DIMTOFL
 70
     0
  9
$DIMTVP
 40
0.0
  9
$DIMTIX
 70
     0
  9
$DIMSOXD
 70
     0
  9
$DIMSAH
 70
     0
  9
$DIMBLK1
  1

  9
$DIMBLK2
  1

  9
$DIMSTYLE
  2
STANDARD
  9
$DIMCLRD
 70
     0
  9
$DIMCLRE
 70
     0
  9
$DIMCLRT
 70
     0
  9
$DIMTFAC
 40
1.0
  9
$DIMGAP
 40
0.09
  9
$LUNITS
 70
     2
  9
$LUPREC
 70
     4
  9
$SKETCHINC
 40
0.1
  9
$FILLETRAD
 40
0.0
  9
$AUNITS
 70
     0
  9
$AUPREC
 70
     0
  9
$MENU
  1
.
  9
$ELEVATION
 40
0.0
  9
$PELEVATION
 40
0.0
  9
$THICKNESS
 40
0.0
  9
$LIMCHECK
 70
     0
  9
$BLIPMODE
 70
     0
  9
$CHAMFERA
 40
0.0
  9
$CHAMFERB
 40
0.0
  9
$SKPOLY
 70
     0
  9
$TDCREATE
 40
2458060.468368056230247
  9
$TDUPDATE
 40
2459031.3717939821071923
  9
$TDINDWG
 40
0.3074491898
  9
$TDUSRTIMER
 40
0.3074491898
  9
$USRTIMER
 70
     1
  9
$ANGBASE
 50
0.0
  9
$ANGDIR
 70
     0
  9
$PDMODE
 70
     0
  9
$PDSIZE
 40
0.3125
  9
$PLINEWID
 40
0.0
  9
$COORDS
 70
     1
  9
$SPLFRAME
 70
     0
  9
$SPLINETYPE
 70
     6
  9
$SPLINESEGS
 70
     8
  9
$ATTDIA
 70
     1
  9
$ATTREQ
 70
     1
  9
$HANDLING
 70
     1
  9
$HANDSEED
  5
6FDC
  9
$SURFTAB1
 70
     6
  9
$SURFTAB2
 70
     6
  9
$SURFTYPE
 70
     6
  9
$SURFU
 70
     6
  9
$SURFV
 70
     6
  9
$UCSNAME
  2

  9
$UCSORG
 10
0.0
 20
0.0
 30
0.0
  9
$UCSXDIR
 10
1.0
 20
0.0
 30
0.0
  9
$UCSYDIR
 10
0.0
 20
1.0
 30
0.0
  9
$PUCSNAME
  2

  9
$PUCSORG
 10
0.0
 20
0.0
 30
0.0
  9
$PUCSXDIR
 10
1.0
 20
0.0
 30
0.0
  9
$PUCSYDIR
 10
0.0
 20
1.0
 30
0.0
  9
$USERI1
 70
     0
  9
$USERI2
 70
     0
  9
$USERI3
 70
     0
  9
$USERI4
 70
     0
  9
$USERI5
 70
     0
  9
$USERR1
 40
0.0
  9
$USERR2
 40
0.0
  9
$USERR3
 40
0.0
  9
$USERR4
 40
0.0
  9
$USERR5
 40
0.0
  9
$WORLDVIEW
 70
     1
  9
$SHADEDGE
 70
     3
  9
$SHADEDIF
 70
    70
  9
$TILEMODE
 70
     1
  9
$MAXACTVP
 70
    64
  9
$PLIMCHECK
 70
     0
  9
$PEXTMIN
 10
1.0000000000000000E+20
 20
1.0000000000000000E+20
 30
1.0000000000000000E+20
  9
$PEXTMAX
 10
-1.0000000000000000E+20
 20
-1.0000000000000000E+20
 30
-1.0000000000000000E+20
  9
$PLIMMIN
 10
0.0
 20
0.0
  9
$PLIMMAX
 10
12.0
 20
9.0
  9
$UNITMODE
 70
     0
  9
$VISRETAIN
 70
     1
  9
$PLINEGEN
 70
     0
  9
$PSLTSCALE
 70
     1
  0
ENDSEC
  0
SECTION
  2
TABLES
  0
TABLE
  2
VPORT
 70
     1
  0
VPORT
  2
*ACTIVE
 70
     0
 10
0.0
 20
0.0
 11
1.0
 21
1.0
 12
0.0
 22
0.0
 13
0.0
 23
0.0
 14
1.0
 24
1.0
 15
0.0
 25
0.0
 16
0.0
 26
0.0
 36
49.7325511558484834
 17
4470.6625976562490905
 27
211.2587509155272869
 37
0.0
 40
17.3693337038095486
 41
2.1481900452488678
 42
50.0
 43
0.0
 44
0.0
 50
0.0
 51
0.0
 71
     0
 72
   100
 73
     1
 74
     1
 75
     0
 76
     0
 77
     0
 78
     0
  0
ENDTAB
  0
TABLE
  2
LTYPE
 70
     2
  0
LTYPE
  2
CONTINUOUS
 70
     0
  3
Solid line
 72
    65
 73
     0
 40
0.0
  0
LTYPE
  2
PHANTOM2
 70
     0
  3
___ _ _ ___ _ _ ___ _ _ ___ _ _
 72
    65
 73
     6
 40
1.25
 49
0.625
 49
-0.125
 49
0.125
 49
-0.125
 49
0.125
 49
-0.125
  0
ENDTAB
  0
TABLE
  2
LAYER
 70
     2
  0
LAYER
  2
0
 70
     0
 62
   255
  6
CONTINUOUS
  0
LAYER
  2
DEFPOINTS
 70
     0
 62
     7
  6
CONTINUOUS
  0
ENDTAB
  0
TABLE
  2
STYLE
 70
     1
  0
STYLE
  2
STANDARD
 70
     0
 40
0.0
 41
0.8
 50
0.0
 71
     0
 42
0.2
  3
txt
  4

  0
ENDTAB
  0
TABLE
  2
VIEW
 70
     0
  0
ENDTAB
  0
TABLE
  2
UCS
 70
     0
  0
ENDTAB
  0
TABLE
  2
APPID
 70
     9
  0
APPID
  2
ACAD
 70
     0
  0
APPID
  2
ACAD_MLEADERVER
 70
     0
  0
APPID
  2
ACAD_EXEMPT_FROM_CAD_STANDARDS
 70
     0
  0
APPID
  2
ACAD_NAV_VCDISPLAY
 70
     0
  0
APPID
  2
ACAECLAYERSTANDARD
 70
     0
  0
APPID
  2
ACCMTRANSPARENCY
 70
     0
  0
APPID
  2
ACAD_DSTYLE_DIMJAG
 70
     0
  0
APPID
  2
ACAD_DSTYLE_DIMTALN
 70
     0
  0
APPID
  2
ACDBATTR
 70
     0
  0
ENDTAB
  0
TABLE
  2
DIMSTYLE
 70
     1
  0
DIMSTYLE
  2
STANDARD
 70
     0
  3

  4

  5

  6

  7

 40
1.0
 41
0.1875
 42
0.0625
 43
0.38
 44
0.125
 45
0.0
 46
0.0
 47
0.01
 48
0.01
140
0.15625
141
0.09
142
0.0
143
25.3999999999999986
144
1.0
145
0.0
146
1.0
147
0.09
 71
     1
 72
     0
 73
     1
 74
     1
 75
     0
 76
     0
 77
     0
 78
     4
170
     0
171
     2
172
     0
173
     0
174
     0
175
     0
176
     0
177
     0
178
     0
  0
ENDTAB
  0
ENDSEC
  0
SECTION
  2
BLOCKS
  0
BLOCK
  8
0
  2
$MODEL_SPACE
 70
     0
 10
0.0
 20
0.0
 30
0.0
  3
$MODEL_SPACE
  1

  0
ENDBLK
  5
21
  8
0
  0
BLOCK
 67
     1
  8
0
  2
$PAPER_SPACE
 70
     0
 10
0.0
 20
0.0
 30
0.0
  3
$PAPER_SPACE
  1

  0
ENDBLK
  5
1D
 67
     1
  8
0
  0
ENDSEC
  0
SECTION
  2
ENTITIES
  0
ATTDEF
  5
3930
  8
DEFPOINTS
 10
4470.6596711054316984
 20
212.6691946864810916
 30
0.0
 40
0.001
  1
K-14661T-4
  3

  2
MODELNUMBER
 70
     0
1001
ACDBATTR
1070
     0
1070
     1
  0
ATTDEF
  5
3931
  8
DEFPOINTS
 10
4470.6596711054316984
 20
212.667528019814398
 30
0.0
 40
0.001
  1
LOURE
  3

  2
TRADENAME
 70
     0
1001
ACDBATTR
1070
     0
1070
     1
  0
ATTDEF
  5
3932
  8
DEFPOINTS
 10
4470.6596711054316984
 20
212.6658613531477897
 30
0.0
 40
0.001
  1
BATHROOM SINK FAUCET
  3

  2
PRODUCT
 70
     0
1001
ACDBATTR
1070
     0
1070
     1
  0
LINE
  5
6F1A
  8
0
 10
4462.3525673761841972
 20
212.3750676501468888
 30
0.0
 11
4462.3525673761841972
 21
212.7550676502469003
 31
0.0
  0
LINE
  5
6F1B
  8
0
 10
4463.6625673761845974
 20
211.5950676501468877
 30
0.0
 11
4463.6625673761845974
 21
212.3450676502469037
 31
0.0
  0
LINE
  5
6F1C
  8
0
 10
4463.6625673761845974
 20
212.7850676502469014
 30
0.0
 11
4463.6625673761845974
 21
213.5350676502469014
 31
0.0
  0
LINE
  5
6F1D
  8
0
 10
4465.6625673761836879
 20
213.5350676502469014
 30
0.0
 11
4465.6625673761836879
 21
211.5950676502469037
 31
0.0
  0
LINE
  5
6F1E
  8
0
 10
4465.632567376184852
 20
211.5650676502469025
 30
0.0
 11
4463.6925673761843427
 21
211.5650676502469025
 31
0.0
  0
LINE
  5
6F1F
  8
0
 10
4465.632567376184852
 20
212.3450676502469037
 30
0.0
 11
4462.3825673761839425
 21
212.3450676502469037
 31
0.0
  0
LINE
  5
6F20
  8
0
 10
4462.3825673760838981
 20
212.7850676502469014
 30
0.0
 11
4465.6325673760848076
 21
212.7850676502469014
 31
0.0
  0
LINE
  5
6F21
  8
0
 10
4463.6925673760842983
 20
213.5650676502469025
 30
0.0
 11
4465.6325673760848076
 21
213.5650676502469025
 31
0.0
  0
ARC
  5
6F22
  8
0
 10
4465.6309967199858875
 20
212.376638306442203
 30
0.0
 40
0.0316097025244103
 50
272.8481459943051846
 51
357.1518541208836837
  0
ARC
  5
6F23
  8
0
 10
4462.385296187959284
 20
212.3777964620277032
 30
0.0
 40
0.0328423740658675
 50
184.7660945302370123
 51
265.2339055846745168
  0
ARC
  5
6F24
  8
0
 10
4465.6303057654586155
 20
211.5973292609683085
 30
0.0
 40
0.032340785545297
 50
274.0100015642327094
 51
355.9899985509604221
  0
ARC
  5
6F25
  8
0
 10
4463.6950896405624007
 20
211.5975899146295944
 30
0.0
 40
0.032619924864518
 50
184.4346975569661993
 51
265.5653025570404111
  0
ARC
  5
6F26
  8
0
 10
4465.6309422918184282
 20
212.7534425658774069
 30
0.0
 40
0.0316668100789195
 50
2.9416097207574339
 51
87.0583903941430322
  0
ARC
  5
6F27
  8
0
 10
4462.3840494724254313
 20
212.7535855540097884
 30
0.0
 40
0.0315169635740662
 50
92.6953482197246501
 51
177.3046518942676926
  0
ARC
  5
6F28
  8
0
 10
4465.6315010164789783
 20
213.5340012905394929
 30
0.0
 40
0.03108465583682
 50
1.9659186346950941
 51
88.0340814800984077
  0
ARC
  5
6F29
  8
0
 10
4463.6947993101739485
 20
213.5328357162622979
 30
0.0
 40
0.0323091178770218
 50
93.9611830656740068
 51
176.0388170495481859
  0
LINE
  5
6F2A
  8
0
 10
4470.0675673761843427
 20
208.7524632188469127
 30
0.0
 11
4471.257567376183033
 21
208.7524632188469127
 31
0.0
  0
LINE
  5
6F2B
  8
0
 10
4469.6625673761836879
 20
211.7950457402469056
 30
0.0
 11
4469.6625673761836879
 21
213.7350457402469033
 31
0.0
  0
LINE
  5
6F2C
  8
0
 10
4470.0375673761836879
 20
212.9225457321468866
 30
0.0
 11
4470.0375673761836879
 21
208.7733947321806909
 31
0.0
  0
LINE
  5
6F2D
  8
0
 10
4470.3025673761840153
 20
213.1450457402468999
 30
0.0
 11
4470.3025673761840153
 21
213.4850457402469033
 31
0.0
  0
LINE
  5
6F2E
  8
0
 10
4470.0375673761836879
 20
211.7650457402469044
 30
0.0
 11
4469.6925673761843427
 21
211.7650457402469044
 31
0.0
  0
LINE
  5
6F2F
  8
0
 10
4470.0675673761843427
 20
212.9525457402469044
 30
0.0
 11
4471.2575673761839425
 21
212.9525457402469044
 31
0.0
  0
LINE
  5
6F30
  8
0
 10
4470.9925673761854341
 20
213.1150457402468987
 30
0.0
 11
4470.3325673761846701
 21
213.1150457402468987
 31
0.0
  0
LINE
  5
6F31
  8
0
 10
4470.3325673761846701
 20
213.5150457402469897
 30
0.0
 11
4470.9925673761854341
 21
213.5150457402469897
 31
0.0
  0
LINE
  5
6F32
  8
0
 10
4469.6925673760852078
 20
213.7650457402469044
 30
0.0
 11
4471.6325673762448787
 21
213.7650457402469044
 31
0.0
  0
ARC
  5
6F33
  8
0
 10
4469.6944703015687992
 20
211.7969486656359948
 30
0.0
 40
0.031959627241331
 50
183.4134979424950984
 51
266.5865021724811186
  0
ARC
  5
6F34
  8
0
 10
4470.3339418866953565
 20
213.4836712297353927
 30
0.0
 40
0.031404604582497
 50
92.5085116541650194
 51
177.4914883458361032
  0
ARC
  5
6F35
  8
0
 10
4470.3354029667743816
 20
213.1478813308364124
 30
0.0
 40
0.0329578000380519
 50
184.9356596671080979
 51
265.0643403328990075
  0
ARC
  5
6F36
  8
0
 10
4469.694164201003332
 20
213.7334489154312109
 30
0.0
 40
0.0316371488622613
 50
92.8931247060351524
 51
177.1068754089515096
  0
ARC
  5
6F37
  8
0
 10
4470.0695949432256384
 20
212.9205181737524981
 30
0.0
 40
0.032091681845397
 50
93.6223860721246268
 51
176.3776293977284126
  0
ARC
  5
6F38
  8
0
 10
4470.0682808730625766
 20
208.7942391197238976
 30
0.0
 40
0.0417819933928432
 50
238.4202930753081091
 51
269.0215319164078096
  0
ARC
  5
6F39
  8
0
 10
4470.0591384011686387
 20
208.7762923571681881
 30
0.0
 40
0.0217647731314732
 50
187.6507151813580947
 51
234.1784871876332943
  0
LINE
  5
6F3A
  8
0
 10
4478.9725673761840881
 20
212.3750676501468888
 30
0.0
 11
4478.9725673761840881
 21
212.7550676502469003
 31
0.0
  0
LINE
  5
6F3B
  8
0
 10
4477.6625673761836879
 20
211.5950676501468877
 30
0.0
 11
4477.6625673761836879
 21
212.3450676502469037
 31
0.0
  0
LINE
  5
6F3C
  8
0
 10
4477.6625673761836879
 20
212.7850676502469014
 30
0.0
 11
4477.6625673761836879
 21
213.5350676502469014
 31
0.0
  0
LINE
  5
6F3D
  8
0
 10
4475.6625673761836879
 20
213.5350676502469014
 30
0.0
 11
4475.6625673761836879
 21
211.5950676502469037
 31
0.0
  0
LINE
  5
6F3E
  8
0
 10
4475.6925673761843427
 20
211.5650676502469025
 30
0.0
 11
4477.6325673761839425
 21
211.5650676502469025
 31
0.0
  0
LINE
  5
6F3F
  8
0
 10
4475.6925673761843427
 20
212.3450676502469037
 30
0.0
 11
4478.9425673761852522
 21
212.3450676502469037
 31
0.0
  0
LINE
  5
6F40
  8
0
 10
4478.9425673762843871
 20
212.7850676502469014
 30
0.0
 11
4475.6925673762843871
 21
212.7850676502469014
 31
0.0
  0
LINE
  5
6F41
  8
0
 10
4477.6325673762848965
 20
213.5650676502469025
 30
0.0
 11
4475.6925673762843871
 21
213.5650676502469025
 31
0.0
  0
ARC
  5
6F42
  8
0
 10
4475.6941380323833073
 20
212.376638306442203
 30
0.0
 40
0.0316097025244103
 50
182.8481458791162027
 51
267.1518540056947018
  0
ARC
  5
6F43
  8
0
 10
4478.9398385644090013
 20
212.3777964620277032
 30
0.0
 40
0.0328423740658675
 50
274.7660944153254832
 51
355.233905469762874
  0
ARC
  5
6F44
  8
0
 10
4475.6948289869096698
 20
211.5973292609683085
 30
0.0
 40
0.032340785545297
 50
184.0100014490396063
 51
265.9899984357672906
  0
ARC
  5
6F45
  8
0
 10
4477.630045111806794
 20
211.5975899146295944
 30
0.0
 40
0.032619924864518
 50
274.4346974429594752
 51
355.5653024430337723
  0
ARC
  5
6F46
  8
0
 10
4475.6941924605498571
 20
212.7534425658774069
 30
0.0
 40
0.0316668100789195
 50
92.9416096058569678
 51
177.0583902792425874
  0
ARC
  5
6F47
  8
0
 10
4478.9410852799437635
 20
212.7535855540097884
 30
0.0
 40
0.0315169635740662
 50
2.6953481057322959
 51
87.3046517802753641
  0
ARC
  5
6F48
  8
0
 10
4475.6936337358902165
 20
213.5340012905394929
 30
0.0
 40
0.03108465583682
 50
91.9659185199016065
 51
178.0340813653048997
  0
ARC
  5
6F49
  8
0
 10
4477.6303354421952463
 20
213.5328357162622979
 30
0.0
 40
0.0323091178770218
 50
3.9611829504517511
 51
86.0388169343260074
  0
LINE
  5
6F4A
  8
0
 10
4471.6625673761836879
 20
211.7950457402469056
 30
0.0
 11
4471.6625673761836879
 21
213.7350457402469033
 31
0.0
  0
LINE
  5
6F4B
  8
0
 10
4471.2875673761845974
 20
212.9225457321468866
 30
0.0
 11
4471.2875673761845974
 21
208.7733947321806909
 31
0.0
  0
LINE
  5
6F4C
  8
0
 10
4471.0225673761833605
 20
213.1450457402468999
 30
0.0
 11
4471.0225673761833605
 21
213.4850457402469033
 31
0.0
  0
LINE
  5
6F4D
  8
0
 10
4471.2875673761845974
 20
211.7650457402469044
 30
0.0
 11
4471.632567376184852
 21
211.7650457402469044
 31
0.0
  0
ARC
  5
6F4E
  8
0
 10
4471.6306644507985766
 20
211.7969486656359948
 30
0.0
 40
0.031959627241331
 50
273.4134978275188814
 51
356.5865020575049016
  0
ARC
  5
6F4F
  8
0
 10
4470.9911928656729287
 20
213.4836712297353927
 30
0.0
 40
0.031404604582497
 50
2.5085116541638932
 51
87.4914883458349948
  0
ARC
  5
6F50
  8
0
 10
4470.9897317855948131
 20
213.1478813308364124
 30
0.0
 40
0.0329578000380519
 50
274.9356596671009925
 51
355.0643403328919021
  0
ARC
  5
6F51
  8
0
 10
4471.6309705513649533
 20
213.7334489154312109
 30
0.0
 40
0.0316371488622613
 50
2.8931245910485091
 51
87.1068752939648476
  0
ARC
  5
6F52
  8
0
 10
4471.2555398091417374
 20
212.9205181737524981
 30
0.0
 40
0.032091681845397
 50
3.6223706022715549
 51
86.3776139278753732
  0
ARC
  5
6F53
  8
0
 10
4471.2568538793057087
 20
208.7942391197238976
 30
0.0
 40
0.0417819933928432
 50
270.9784680835923041
 51
301.5797069246917772
  0
ARC
  5
6F54
  8
0
 10
4471.2659963511987371
 20
208.7762923571681881
 30
0.0
 40
0.0217647731314732
 50
305.8215128123666773
 51
352.34928481864182
  0
ENDSEC
  0
EOF
