  0
SECTION
  2
HEADER
  9
$ACADVER
  1
AC1009
  9
$INSBASE
 10
170.3973702271077002
 20
6.768009456570736
 30
0.0
  9
$EXTMIN
 10
168.8025200111684114
 20
6.7621012215293268
 30
-0.0015258207003583
  9
$EXTMAX
 10
176.462755689542405
 20
21.1761557311387385
 30
0.0000000349246037
  9
$LIMMIN
 10
0.0
 20
0.0
  9
$LIMMAX
 10
11.6929133858000007
 20
8.2677165353999982
  9
$ORTHOMODE
 70
     1
  9
$REGENMODE
 70
     1
  9
$FILLMODE
 70
     1
  9
$QTEXTMODE
 70
     0
  9
$MIRRTEXT
 70
     0
  9
$DRAGMODE
 70
     2
  9
$LTSCALE
 40
0.6431102362
  9
$OSMODE
 70
  2047
  9
$ATTMODE
 70
     1
  9
$TEXTSIZE
 40
0.2
  9
$TRACEWID
 40
0.05
  9
$TEXTSTYLE
  7
STANDARD
  9
$CLAYER
  8
0
  9
$CELTYPE
  6
BYLAYER
  9
$CECOLOR
 62
   256
  9
$DIMSCALE
 40
1.0
  9
$DIMASZ
 40
0.1875
  9
$DIMEXO
 40
0.0625
  9
$DIMDLI
 40
0.4443307087
  9
$DIMRND
 40
0.0
  9
$DIMDLE
 40
0.0
  9
$DIMEXE
 40
0.125
  9
$DIMTP
 40
0.01
  9
$DIMTM
 40
0.01
  9
$DIMTXT
 40
1.0
  9
$DIMCEN
 40
0.1052362205
  9
$DIMTSZ
 40
0.0
  9
$DIMTOL
 70
     1
  9
$DIMLIM
 70
     0
  9
$DIMTIH
 70
     1
  9
$DIMTOH
 70
     1
  9
$DIMSE1
 70
     0
  9
$DIMSE2
 70
     0
  9
$DIMTAD
 70
     0
  9
$DIMZIN
 70
     0
  9
$DIMBLK
  1

  9
$DIMASO
 70
     1
  9
$DIMSHO
 70
     1
  9
$DIMPOST
  1
\X
  9
$DIMAPOST
  1

  9
$DIMALT
 70
     1
  9
$DIMALTD
 70
     2
  9
$DIMALTF
 40
25.3999999999999986
  9
$DIMLFAC
 40
1.0
  9
$DIMTOFL
 70
     0
  9
$DIMTVP
 40
0.0
  9
$DIMTIX
 70
     0
  9
$DIMSOXD
 70
     0
  9
$DIMSAH
 70
     0
  9
$DIMBLK1
  1

  9
$DIMBLK2
  1

  9
$DIMSTYLE
  2
STANDARD
  9
$DIMCLRD
 70
     0
  9
$DIMCLRE
 70
     0
  9
$DIMCLRT
 70
     0
  9
$DIMTFAC
 40
1.0
  9
$DIMGAP
 40
0.09
  9
$LUNITS
 70
     2
  9
$LUPREC
 70
     4
  9
$SKETCHINC
 40
0.1
  9
$FILLETRAD
 40
0.0
  9
$AUNITS
 70
     0
  9
$AUPREC
 70
     0
  9
$MENU
  1
.
  9
$ELEVATION
 40
0.0
  9
$PELEVATION
 40
0.0
  9
$THICKNESS
 40
0.0
  9
$LIMCHECK
 70
     0
  9
$BLIPMODE
 70
     0
  9
$CHAMFERA
 40
0.0
  9
$CHAMFERB
 40
0.0
  9
$SKPOLY
 70
     0
  9
$TDCREATE
 40
2458172.4620254631154239
  9
$TDUPDATE
 40
2459025.7966550928540528
  9
$TDINDWG
 40
0.0687718866
  9
$TDUSRTIMER
 40
0.0687718866
  9
$USRTIMER
 70
     1
  9
$ANGBASE
 50
0.0
  9
$ANGDIR
 70
     0
  9
$PDMODE
 70
     0
  9
$PDSIZE
 40
0.3125
  9
$PLINEWID
 40
0.0
  9
$COORDS
 70
     1
  9
$SPLFRAME
 70
     0
  9
$SPLINETYPE
 70
     6
  9
$SPLINESEGS
 70
     8
  9
$ATTDIA
 70
     1
  9
$ATTREQ
 70
     1
  9
$HANDLING
 70
     1
  9
$HANDSEED
  5
210D
  9
$SURFTAB1
 70
     6
  9
$SURFTAB2
 70
     6
  9
$SURFTYPE
 70
     6
  9
$SURFU
 70
     6
  9
$SURFV
 70
     6
  9
$UCSNAME
  2

  9
$UCSORG
 10
0.0
 20
0.0
 30
0.0
  9
$UCSXDIR
 10
1.0
 20
0.0
 30
0.0
  9
$UCSYDIR
 10
0.0
 20
1.0
 30
0.0
  9
$PUCSNAME
  2

  9
$PUCSORG
 10
0.0
 20
0.0
 30
0.0
  9
$PUCSXDIR
 10
1.0
 20
0.0
 30
0.0
  9
$PUCSYDIR
 10
0.0
 20
1.0
 30
0.0
  9
$USERI1
 70
     0
  9
$USERI2
 70
     0
  9
$USERI3
 70
     0
  9
$USERI4
 70
     0
  9
$USERI5
 70
     0
  9
$USERR1
 40
0.0
  9
$USERR2
 40
0.0
  9
$USERR3
 40
0.0
  9
$USERR4
 40
0.0
  9
$USERR5
 40
0.0
  9
$WORLDVIEW
 70
     1
  9
$SHADEDGE
 70
     3
  9
$SHADEDIF
 70
    70
  9
$TILEMODE
 70
     1
  9
$MAXACTVP
 70
    64
  9
$PLIMCHECK
 70
     0
  9
$PEXTMIN
 10
1.0000000000000000E+20
 20
1.0000000000000000E+20
 30
1.0000000000000000E+20
  9
$PEXTMAX
 10
-1.0000000000000000E+20
 20
-1.0000000000000000E+20
 30
-1.0000000000000000E+20
  9
$PLIMMIN
 10
0.0
 20
0.0
  9
$PLIMMAX
 10
12.0
 20
9.0
  9
$UNITMODE
 70
     0
  9
$VISRETAIN
 70
     1
  9
$PLINEGEN
 70
     0
  9
$PSLTSCALE
 70
     1
  0
ENDSEC
  0
SECTION
  2
TABLES
  0
TABLE
  2
VPORT
 70
     1
  0
VPORT
  2
*ACTIVE
 70
     0
 10
0.0
 20
0.0
 11
1.0
 21
1.0
 12
-0.0023644221022927
 22
0.0006699294605124
 13
0.0
 23
0.0
 14
1.0
 24
1.0
 15
0.0
 25
0.0
 16
0.0
 26
0.0
 36
45.8819454988409703
 17
172.6350022724577116
 27
13.9684585468735207
 37
0.0
 40
14.5340050325742602
 41
2.6486111111111108
 42
50.0
 43
0.0
 44
0.0
 50
0.0
 51
0.0
 71
     0
 72
   100
 73
     1
 74
     1
 75
     0
 76
     0
 77
     0
 78
     0
  0
ENDTAB
  0
TABLE
  2
LTYPE
 70
     2
  0
LTYPE
  2
CONTINUOUS
 70
     0
  3
Solid line
 72
    65
 73
     0
 40
0.0
  0
LTYPE
  2
PHANTOM2
 70
     0
  3
___ _ _ ___ _ _ ___ _ _ ___ _ _
 72
    65
 73
     6
 40
1.25
 49
0.625
 49
-0.125
 49
0.125
 49
-0.125
 49
0.125
 49
-0.125
  0
ENDTAB
  0
TABLE
  2
LAYER
 70
     2
  0
LAYER
  2
0
 70
     0
 62
   255
  6
CONTINUOUS
  0
LAYER
  2
DEFPOINTS
 70
     0
 62
     7
  6
CONTINUOUS
  0
ENDTAB
  0
TABLE
  2
STYLE
 70
     1
  0
STYLE
  2
STANDARD
 70
     0
 40
0.0
 41
0.8
 50
0.0
 71
     0
 42
0.2
  3
txt
  4

  0
ENDTAB
  0
TABLE
  2
VIEW
 70
     0
  0
ENDTAB
  0
TABLE
  2
UCS
 70
     0
  0
ENDTAB
  0
TABLE
  2
APPID
 70
     9
  0
APPID
  2
ACAD
 70
     0
  0
APPID
  2
ACAD_MLEADERVER
 70
     0
  0
APPID
  2
ACAD_EXEMPT_FROM_CAD_STANDARDS
 70
     0
  0
APPID
  2
ACAD_DSTYLE_DIMJAG
 70
     0
  0
APPID
  2
ACAD_DSTYLE_DIMTALN
 70
     0
  0
APPID
  2
ACAD_NAV_VCDISPLAY
 70
     0
  0
APPID
  2
ACAECLAYERSTANDARD
 70
     0
  0
APPID
  2
ACCMTRANSPARENCY
 70
     0
  0
APPID
  2
ACDBATTR
 70
     0
  0
ENDTAB
  0
TABLE
  2
DIMSTYLE
 70
     1
  0
DIMSTYLE
  2
STANDARD
 70
     0
  3

  4

  5

  6

  7

 40
1.0
 41
0.1875
 42
0.0625
 43
0.38
 44
0.125
 45
0.0
 46
0.0
 47
0.01
 48
0.01
140
0.15625
141
0.09
142
0.0
143
25.3999999999999986
144
1.0
145
0.0
146
1.0
147
0.09
 71
     1
 72
     0
 73
     1
 74
     1
 75
     0
 76
     0
 77
     0
 78
     4
170
     0
171
     2
172
     0
173
     0
174
     0
175
     0
176
     0
177
     0
178
     0
  0
ENDTAB
  0
ENDSEC
  0
SECTION
  2
BLOCKS
  0
BLOCK
  8
0
  2
$MODEL_SPACE
 70
     0
 10
0.0
 20
0.0
 30
0.0
  3
$MODEL_SPACE
  1

  0
ENDBLK
  5
21
  8
0
  0
BLOCK
 67
     1
  8
0
  2
$PAPER_SPACE
 70
     0
 10
0.0
 20
0.0
 30
0.0
  3
$PAPER_SPACE
  1

  0
ENDBLK
  5
1D
 67
     1
  8
0
  0
ENDSEC
  0
SECTION
  2
ENTITIES
  0
ATTDEF
  5
157D
  8
DEFPOINTS
 10
170.3918044015061923
 20
6.7664076371762993
 30
0.0
 40
0.001
  1
K-14675T-4
  3

  2
MODELNUMBER
 70
     0
1001
ACDBATTR
1070
     0
1070
     1
  0
ATTDEF
  5
157E
  8
DEFPOINTS
 10
170.3918044015061923
 20
6.7647409705096342
 30
0.0
 40
0.001
  1
LOURE
  3

  2
TRADENAME
 70
     0
1001
ACDBATTR
1070
     0
1070
     1
  0
ATTDEF
  5
157F
  8
DEFPOINTS
 10
170.3918044015061923
 20
6.763074303842969
 30
0.0
 40
0.001
  1
BATH FAUCET
  3

  2
PRODUCT
 70
     0
1001
ACDBATTR
1070
     0
1070
     1
  0
LINE
  5
1E24
  8
0
 10
169.3473702271076888
 20
7.228009456570736
 30
0.0
 11
169.3473702271076888
 21
21.1305094565707385
 31
0.0
  0
LINE
  5
1E25
  8
0
 10
169.3873702271075956
 20
16.0168629355707317
 30
0.0
 11
169.3873702271075956
 21
16.2254594360707287
 31
0.0
  0
LINE
  5
1E26
  8
0
 10
169.4573702271077025
 20
16.2353644826707288
 30
0.0
 11
169.4573702271077025
 21
16.0423132258707284
 31
0.0
  0
LINE
  5
1E27
  8
0
 10
168.816125064907709
 20
7.198271252570736
 30
0.0
 11
168.8126343178076922
 21
6.7982712525707356
 31
0.0
  0
LINE
  5
1E28
  8
0
 10
171.9521072787077003
 20
6.768009456570736
 30
0.0
 11
168.8426331755077001
 21
6.768009456570736
 31
0.0
  0
LINE
  5
1E29
  8
0
 10
174.3673702271076991
 20
6.768009456570736
 30
0.0
 11
176.4273702271077013
 21
6.768009456570736
 31
0.0
  0
LINE
  5
1E2A
  8
0
 10
168.8461239226076884
 20
7.228009456570736
 30
0.0
 11
171.948616531607712
 21
7.228009456570736
 31
0.0
  0
LINE
  5
1E2B
  8
0
 10
171.4073702271076911
 20
16.2254594360707287
 30
0.0
 11
171.4073702271076911
 21
16.0168629355707317
 31
0.0
  0
LINE
  5
1E2C
  8
0
 10
171.4473702271077116
 20
7.228009456570736
 30
0.0
 11
171.4473702271075979
 21
21.1305094565707385
 31
0.0
  0
LINE
  5
1E2D
  8
0
 10
171.9821061364077082
 20
6.7982712525707356
 30
0.0
 11
171.9786153893076914
 21
7.198271252570736
 31
0.0
  0
LINE
  5
1E2E
  8
0
 10
174.3673702271076991
 20
10.1280094565707302
 30
0.0
 11
176.4273702271077013
 21
10.1280094565707302
 31
0.0
  0
LINE
  5
1E2F
  8
0
 10
176.4263043177076895
 20
10.1859228423707293
 30
0.0
 11
174.3684361365075972
 21
10.1859228423707293
 31
0.0
  0
LINE
  5
1E30
  8
0
 10
176.4023835871076926
 20
10.8709228423707405
 30
0.0
 11
174.3923568671077078
 21
10.8709228423707405
 31
0.0
  0
LINE
  5
1E31
  8
0
 10
174.3373702271076979
 20
6.7980094565707372
 30
0.0
 11
174.3373702271076979
 21
10.0980094565707308
 31
0.0
  0
LINE
  5
1E32
  8
0
 10
174.3384544117076871
 20
10.2169698272707397
 30
0.0
 11
174.3697876712076891
 21
11.1142369830707306
 31
0.0
  0
LINE
  5
1E33
  8
0
 10
174.4733826231075966
 20
10.1860095881707302
 30
0.0
 11
174.4728847400076859
 21
10.1574858843707307
 31
0.0
  0
LINE
  5
1E34
  8
0
 10
176.4562860425077133
 20
10.2169698272707397
 30
0.0
 11
176.4249527830077113
 21
11.1142369830707306
 31
0.0
  0
LINE
  5
1E35
  8
0
 10
176.321357831407596
 20
10.1860095661707302
 30
0.0
 11
176.3218557141076985
 21
10.1574858843707307
 31
0.0
  0
LINE
  5
1E36
  8
0
 10
176.4573702271077025
 20
10.0980094565707308
 30
0.0
 11
176.4573702271077025
 21
6.7980094565707372
 31
0.0
  0
LINE
  5
1E37
  8
0
 10
169.6959660300076962
 20
16.2540791305707302
 30
0.0
 11
169.6138819858076943
 21
16.2752047579707302
 31
0.0
  0
LINE
  5
1E38
  8
0
 10
171.4023702271076957
 20
15.9001903166707308
 30
0.0
 11
169.3923702271077047
 21
15.9001903166707308
 31
0.0
  0
LINE
  5
1E39
  8
0
 10
171.2823702271076911
 20
15.9284745879707401
 30
0.0
 11
169.5123702271077093
 21
15.9284745879707401
 31
0.0
  0
LINE
  5
1E3A
  8
0
 10
169.7551692862076891
 20
16.031005071170739
 30
0.0
 11
171.0395711680075976
 21
16.031005071170739
 31
0.0
  0
LINE
  5
1E3B
  8
0
 10
171.0395711680075976
 20
16.2466726394707415
 30
0.0
 11
169.7551692862076891
 21
16.2466726394707415
 31
0.0
  0
LINE
  5
1E3C
  8
0
 10
169.5592059696122931
 20
16.2820279735848494
 30
0.0
 11
169.5233605178077028
 21
16.2820279785707385
 31
0.0
  0
LINE
  5
1E3D
  8
0
 10
169.5123702271077093
 20
16.3138477836707416
 30
0.0
 11
171.2823702271076911
 21
16.3138477836707416
 31
0.0
  0
LINE
  5
1E3E
  8
0
 10
169.3923702271077047
 20
16.3421320549707296
 30
0.0
 11
171.4023702271076957
 21
16.3421320549707296
 31
0.0
  0
LINE
  5
1E3F
  8
0
 10
169.3923702271077047
 20
21.1755094565707402
 30
0.0
 11
171.4023702271076957
 21
21.1755094565707402
 31
0.0
  0
ARC
  5
1E40
  8
0
 10
171.4023702271076957
 20
21.1305094565707385
 30
0.0
 40
0.045
 50
0.0
 51
90.0
  0
ARC
  5
1E41
  8
0
 10
169.3923702271077047
 20
21.1305094565707385
 30
0.0
 40
0.045
 50
90.0
 51
180.0
  0
ARC
  5
1E42
  8
0
 10
168.8426331755077001
 20
6.7980094565707372
 30
0.0
 40
0.03
 50
179.4999999997999964
 51
270.0
  0
ARC
  5
1E43
  8
0
 10
171.9521072787077003
 20
6.7980094565707372
 30
0.0
 40
0.03
 50
270.0
 51
0.5000000001999938
  0
ARC
  5
1E44
  8
0
 10
168.8461239226076884
 20
7.1980094565707358
 30
0.0
 40
0.03
 50
90.0
 51
179.4999999997000089
  0
ARC
  5
1E45
  8
0
 10
171.948616531607712
 20
7.1980094565707358
 30
0.0
 40
0.03
 50
0.5000000003000009
 51
90.0
  0
ARC
  5
1E46
  8
0
 10
175.3973702271077002
 20
-16.93907715762926
 30
0.0
 40
28.1000000000000014
 50
87.9632933154992713
 51
92.036706684499066
  0
ARC
  5
1E47
  8
0
 10
174.3697603325992134
 20
6.8003995620622328
 30
0.0
 40
0.0324781701764492
 50
184.2202767182062075
 51
265.7797232819931992
  0
ARC
  5
1E48
  8
0
 10
174.4428893092076862
 20
10.1580094565707402
 30
0.0
 40
0.03
 50
270.0000035546000845
 51
359.0000000622999892
  0
ARC
  5
1E49
  8
0
 10
174.3923568636097059
 20
10.9009228423755999
 30
0.0
 40
0.0300000000048689
 50
178.0000000107056053
 51
269.9999999960380137
  0
ARC
  5
1E4A
  8
0
 10
174.3997693960077129
 20
11.1131899981707392
 30
0.0
 40
0.03
 50
92.036706684499066
 51
177.9999999975999003
  0
ARC
  5
1E4B
  8
0
 10
174.3673702271076991
 20
10.0980094565707308
 30
0.0
 40
0.03
 50
89.9999999997996838
 51
179.9999999997999964
  0
ARC
  5
1E4C
  8
0
 10
174.3684412352772881
 20
10.2159277661851
 30
0.0
 40
0.0300049242475892
 50
178.0097363164092883
 51
269.990263665372197
  0
ARC
  5
1E4D
  8
0
 10
176.4273702271077013
 20
6.7980094565707372
 30
0.0
 40
0.03
 50
270.0000000002996217
 51
359.9999999995000053
  0
CIRCLE
  5
1E4E
  8
0
 10
175.3973702271077002
 20
10.5609228423707293
 30
0.0
 40
0.225
  0
ARC
  5
1E4F
  8
0
 10
176.3518511450077142
 20
10.1580094565707402
 30
0.0
 40
0.03
 50
180.9999999377000108
 51
269.9999964453998018
  0
ARC
  5
1E50
  8
0
 10
176.4263043177076895
 20
10.2159228423707305
 30
0.0
 40
0.03
 50
270.0
 51
2.0000000003000031
  0
ARC
  5
1E51
  8
0
 10
176.4273702271077013
 20
10.0980094565707308
 30
0.0
 40
0.03
 50
0.0000000005999798
 51
89.9999999997996838
  0
ARC
  5
1E52
  8
0
 10
176.4023835906056092
 20
10.9009228423755893
 30
0.0
 40
0.0300000000048524
 50
270.0000000039358952
 51
1.9999999893135449
  0
ARC
  5
1E53
  8
0
 10
176.3949710581076999
 20
11.1131899981707392
 30
0.0
 40
0.03
 50
2.0000000023999891
 51
87.9632933154992713
  0
ARC
  5
1E54
  8
0
 10
169.3873060581333903
 20
16.3015641636990196
 30
0.0
 40
0.0408827544281673
 50
82.8844642720074347
 51
167.6443151726199972
  0
ARC
  5
1E55
  8
0
 10
169.3873282456845004
 20
15.94078958587858
 30
0.0
 40
0.040911150520153
 50
192.3919624652779987
 51
277.0792580930042277
  0
ARC
  5
1E56
  8
0
 10
171.4073883498481905
 20
15.9408233271510493
 30
0.0
 40
0.0409417036349569
 50
262.9596957488781754
 51
347.5690836928342264
  0
ARC
  5
1E57
  8
0
 10
171.4073336335833062
 20
16.3014216640070195
 30
0.0
 40
0.0410118438534562
 50
12.5200317164776802
 51
96.9511888388950922
  0
ARC
  5
1E58
  8
0
 10
169.4678653521567071
 20
16.2206869307211115
 30
0.0
 40
0.080636480354547
 50
118.5578054085092958
 51
176.6069413329958877
  0
ARC
  5
1E59
  8
0
 10
169.5102177492547924
 20
16.1562682745094399
 30
0.0
 40
0.1575942095015726
 50
89.2174094992399489
 51
120.8869287340528018
  0
ARC
  5
1E5A
  8
0
 10
169.468871526033297
 20
16.0220744647029782
 30
0.0
 40
0.0816677522799818
 50
183.6587471421752014
 51
242.8595277927865084
  0
ARC
  5
1E5B
  8
0
 10
169.5105460585699007
 20
16.0877215945521996
 30
0.0
 40
0.1592574541301378
 50
240.2901751085913986
 51
270.6562923190176093
  0
ARC
  5
1E5C
  8
0
 10
171.2854870512786931
 20
16.0804128682658103
 30
0.0
 40
0.1519702458112684
 50
268.8248134263384941
 51
306.7886249900124085
  0
ARC
  5
1E5D
  8
0
 10
171.3315614227354899
 20
16.0198354824788183
 30
0.0
 40
0.075867060411334
 50
306.3196171714512275
 51
357.7545195792222898
  0
ARC
  5
1E5E
  8
0
 10
171.324029610299192
 20
16.2191950422049089
 30
0.0
 40
0.0835757204008657
 50
4.2986200404385846
 51
63.5677003893063315
  0
ARC
  5
1E5F
  8
0
 10
171.2840633458482102
 20
16.1537381899000714
 30
0.0
 40
0.1601185456731226
 50
61.1871497537776392
 51
90.6058658947449231
  0
ARC
  5
1E60
  8
0
 10
169.7549472934599919
 20
16.4852198962212917
 30
0.0
 40
0.2385473600441072
 50
255.685052932941403
 51
270.0533196074902094
  0
ARC
  5
1E61
  8
0
 10
169.559468978572994
 20
16.0616580905271285
 30
0.0
 40
0.2203700400067773
 50
75.7048765299023643
 51
90.068381831753797
  0
ARC
  5
1E62
  8
0
 10
169.5160756291427049
 20
16.2223374606680295
 30
0.0
 40
0.0601334144245453
 50
83.0417864975646438
 51
167.4885138504320992
  0
LINE
  5
1E63
  8
0
 10
169.6959660300076962
 20
16.0235985779707413
 30
0.0
 11
169.6138819858076943
 21
16.0024729505707413
 31
0.0
  0
LINE
  5
1E64
  8
0
 10
169.5592059696122931
 20
15.9956497349566202
 30
0.0
 11
169.5233605178077028
 21
15.9956497299707401
 31
0.0
  0
ARC
  5
1E65
  8
0
 10
169.7549472934599919
 20
15.7924578123201798
 30
0.0
 40
0.2385473600441072
 50
89.9466803925082274
 51
104.314947067058597
  0
ARC
  5
1E66
  8
0
 10
169.559468978572994
 20
16.2160196180143501
 30
0.0
 40
0.2203700400067773
 50
269.9316181682461888
 51
284.2951234700976215
  0
ARC
  5
1E67
  8
0
 10
169.5160756291427049
 20
16.0553402478734384
 30
0.0
 40
0.0601334144245453
 50
192.5114861495679008
 51
276.9582135024353988
  0
LINE
  5
1E68
  8
0
 10
171.3373702271076979
 20
16.2353644826707288
 30
0.0
 11
171.3373702271076979
 21
16.0423132258707284
 31
0.0
  0
LINE
  5
1E69
  8
0
 10
171.0987744242077042
 20
16.2540791305707302
 30
0.0
 11
171.1808584684075925
 21
16.2752047579707302
 31
0.0
  0
LINE
  5
1E6A
  8
0
 10
171.2355344846029936
 20
16.2820279735848494
 30
0.0
 11
171.2713799364076976
 21
16.2820279785707385
 31
0.0
  0
ARC
  5
1E6B
  8
0
 10
171.0397931607554085
 20
16.4852198962212917
 30
0.0
 40
0.2385473600441072
 50
269.9466803925099043
 51
284.314947067058597
  0
ARC
  5
1E6C
  8
0
 10
171.2352714756422927
 20
16.0616580905271285
 30
0.0
 40
0.2203700400067773
 50
89.931618168246203
 51
104.2951234700975931
  0
ARC
  5
1E6D
  8
0
 10
171.2786648250726955
 20
16.2223374606680295
 30
0.0
 40
0.0601334144245453
 50
12.5114861495679008
 51
96.958213502435342
  0
LINE
  5
1E6E
  8
0
 10
171.0987744242077042
 20
16.0235985779707413
 30
0.0
 11
171.1808584684075925
 21
16.0024729505707413
 31
0.0
  0
LINE
  5
1E6F
  8
0
 10
171.2355344846029936
 20
15.9956497349566202
 30
0.0
 11
171.2713799364076976
 21
15.9956497299707401
 31
0.0
  0
ARC
  5
1E70
  8
0
 10
171.0397931607554085
 20
15.7924578123201798
 30
0.0
 40
0.2385473600441072
 50
75.6850529329414456
 51
90.0533196074901667
  0
ARC
  5
1E71
  8
0
 10
171.2352714756422927
 20
16.2160196180143501
 30
0.0
 40
0.2203700400067773
 50
255.7048765299024069
 51
270.0683818317538112
  0
ARC
  5
1E72
  8
0
 10
171.2786648250726955
 20
16.0553402478734384
 30
0.0
 40
0.0601334144245453
 50
263.0417864975647149
 51
347.4885138504321276
  0
CIRCLE
  5
1E73
  8
0
 10
175.3973702271077002
 20
10.5609228423707293
 30
0.0
 40
0.2049999853999997
  0
ENDSEC
  0
EOF
