  0
SECTION
  2
HEADER
  9
$ACADVER
  1
AC1009
  9
$INSBASE
 10
195.3868258240017042
 20
14.6213588189313803
 30
0.0
  9
$EXTMIN
 10
193.7991259777176936
 20
7.871265467556106
 30
-0.0015258207003583
  9
$EXTMAX
 10
201.4529739622840054
 20
15.7815404553704699
 30
0.0000000349246037
  9
$LIMMIN
 10
0.0
 20
0.0
  9
$LIMMAX
 10
11.6929133858000007
 20
8.2677165353999982
  9
$ORTHOMODE
 70
     1
  9
$REGENMODE
 70
     1
  9
$FILLMODE
 70
     1
  9
$QTEXTMODE
 70
     0
  9
$MIRRTEXT
 70
     0
  9
$DRAGMODE
 70
     2
  9
$LTSCALE
 40
0.6431102362
  9
$OSMODE
 70
  2047
  9
$ATTMODE
 70
     1
  9
$TEXTSIZE
 40
0.2
  9
$TRACEWID
 40
0.05
  9
$TEXTSTYLE
  7
STANDARD
  9
$CLAYER
  8
0
  9
$CELTYPE
  6
BYLAYER
  9
$CECOLOR
 62
   256
  9
$DIMSCALE
 40
1.0
  9
$DIMASZ
 40
0.1875
  9
$DIMEXO
 40
0.0625
  9
$DIMDLI
 40
0.4443307087
  9
$DIMRND
 40
0.0
  9
$DIMDLE
 40
0.0
  9
$DIMEXE
 40
0.125
  9
$DIMTP
 40
0.01
  9
$DIMTM
 40
0.01
  9
$DIMTXT
 40
1.0
  9
$DIMCEN
 40
0.1052362205
  9
$DIMTSZ
 40
0.0
  9
$DIMTOL
 70
     1
  9
$DIMLIM
 70
     0
  9
$DIMTIH
 70
     1
  9
$DIMTOH
 70
     1
  9
$DIMSE1
 70
     0
  9
$DIMSE2
 70
     0
  9
$DIMTAD
 70
     0
  9
$DIMZIN
 70
     0
  9
$DIMBLK
  1

  9
$DIMASO
 70
     1
  9
$DIMSHO
 70
     1
  9
$DIMPOST
  1
\X
  9
$DIMAPOST
  1

  9
$DIMALT
 70
     1
  9
$DIMALTD
 70
     2
  9
$DIMALTF
 40
25.3999999999999986
  9
$DIMLFAC
 40
1.0
  9
$DIMTOFL
 70
     0
  9
$DIMTVP
 40
0.0
  9
$DIMTIX
 70
     0
  9
$DIMSOXD
 70
     0
  9
$DIMSAH
 70
     0
  9
$DIMBLK1
  1

  9
$DIMBLK2
  1

  9
$DIMSTYLE
  2
STANDARD
  9
$DIMCLRD
 70
     0
  9
$DIMCLRE
 70
     0
  9
$DIMCLRT
 70
     0
  9
$DIMTFAC
 40
1.0
  9
$DIMGAP
 40
0.09
  9
$LUNITS
 70
     2
  9
$LUPREC
 70
     4
  9
$SKETCHINC
 40
0.1
  9
$FILLETRAD
 40
0.0
  9
$AUNITS
 70
     0
  9
$AUPREC
 70
     0
  9
$MENU
  1
.
  9
$ELEVATION
 40
0.0
  9
$PELEVATION
 40
0.0
  9
$THICKNESS
 40
0.0
  9
$LIMCHECK
 70
     0
  9
$BLIPMODE
 70
     0
  9
$CHAMFERA
 40
0.0
  9
$CHAMFERB
 40
0.0
  9
$SKPOLY
 70
     0
  9
$TDCREATE
 40
2458172.4620254631154239
  9
$TDUPDATE
 40
2459025.7971412041224539
  9
$TDINDWG
 40
0.0709755671
  9
$TDUSRTIMER
 40
0.0709755671
  9
$USRTIMER
 70
     1
  9
$ANGBASE
 50
0.0
  9
$ANGDIR
 70
     0
  9
$PDMODE
 70
     0
  9
$PDSIZE
 40
0.3125
  9
$PLINEWID
 40
0.0
  9
$COORDS
 70
     1
  9
$SPLFRAME
 70
     0
  9
$SPLINETYPE
 70
     6
  9
$SPLINESEGS
 70
     8
  9
$ATTDIA
 70
     1
  9
$ATTREQ
 70
     1
  9
$HANDLING
 70
     1
  9
$HANDSEED
  5
22C9
  9
$SURFTAB1
 70
     6
  9
$SURFTAB2
 70
     6
  9
$SURFTYPE
 70
     6
  9
$SURFU
 70
     6
  9
$SURFV
 70
     6
  9
$UCSNAME
  2

  9
$UCSORG
 10
0.0
 20
0.0
 30
0.0
  9
$UCSXDIR
 10
1.0
 20
0.0
 30
0.0
  9
$UCSYDIR
 10
0.0
 20
1.0
 30
0.0
  9
$PUCSNAME
  2

  9
$PUCSORG
 10
0.0
 20
0.0
 30
0.0
  9
$PUCSXDIR
 10
1.0
 20
0.0
 30
0.0
  9
$PUCSYDIR
 10
0.0
 20
1.0
 30
0.0
  9
$USERI1
 70
     0
  9
$USERI2
 70
     0
  9
$USERI3
 70
     0
  9
$USERI4
 70
     0
  9
$USERI5
 70
     0
  9
$USERR1
 40
0.0
  9
$USERR2
 40
0.0
  9
$USERR3
 40
0.0
  9
$USERR4
 40
0.0
  9
$USERR5
 40
0.0
  9
$WORLDVIEW
 70
     1
  9
$SHADEDGE
 70
     3
  9
$SHADEDIF
 70
    70
  9
$TILEMODE
 70
     1
  9
$MAXACTVP
 70
    64
  9
$PLIMCHECK
 70
     0
  9
$PEXTMIN
 10
1.0000000000000000E+20
 20
1.0000000000000000E+20
 30
1.0000000000000000E+20
  9
$PEXTMAX
 10
-1.0000000000000000E+20
 20
-1.0000000000000000E+20
 30
-1.0000000000000000E+20
  9
$PLIMMIN
 10
0.0
 20
0.0
  9
$PLIMMAX
 10
12.0
 20
9.0
  9
$UNITMODE
 70
     0
  9
$VISRETAIN
 70
     1
  9
$PLINEGEN
 70
     0
  9
$PSLTSCALE
 70
     1
  0
ENDSEC
  0
SECTION
  2
TABLES
  0
TABLE
  2
VPORT
 70
     1
  0
VPORT
  2
*ACTIVE
 70
     0
 10
0.0
 20
0.0
 11
1.0
 21
1.0
 12
0.0015926717991874
 22
-0.0003024682180808
 13
0.0
 23
0.0
 14
1.0
 24
1.0
 15
0.0
 25
0.0
 16
0.0
 26
0.0
 36
30.9317947256831616
 17
197.6244572982016052
 27
11.8267054296813701
 37
0.0
 40
7.9761025189196193
 41
2.6486111111111108
 42
50.0
 43
0.0
 44
0.0
 50
0.0
 51
0.0
 71
     0
 72
   100
 73
     1
 74
     1
 75
     0
 76
     0
 77
     0
 78
     0
  0
ENDTAB
  0
TABLE
  2
LTYPE
 70
     2
  0
LTYPE
  2
CONTINUOUS
 70
     0
  3
Solid line
 72
    65
 73
     0
 40
0.0
  0
LTYPE
  2
PHANTOM2
 70
     0
  3
___ _ _ ___ _ _ ___ _ _ ___ _ _
 72
    65
 73
     6
 40
1.25
 49
0.625
 49
-0.125
 49
0.125
 49
-0.125
 49
0.125
 49
-0.125
  0
ENDTAB
  0
TABLE
  2
LAYER
 70
     2
  0
LAYER
  2
0
 70
     0
 62
   255
  6
CONTINUOUS
  0
LAYER
  2
DEFPOINTS
 70
     0
 62
     7
  6
CONTINUOUS
  0
ENDTAB
  0
TABLE
  2
STYLE
 70
     1
  0
STYLE
  2
STANDARD
 70
     0
 40
0.0
 41
0.8
 50
0.0
 71
     0
 42
0.2
  3
txt
  4

  0
ENDTAB
  0
TABLE
  2
VIEW
 70
     0
  0
ENDTAB
  0
TABLE
  2
UCS
 70
     0
  0
ENDTAB
  0
TABLE
  2
APPID
 70
     9
  0
APPID
  2
ACAD
 70
     0
  0
APPID
  2
ACAD_MLEADERVER
 70
     0
  0
APPID
  2
ACAD_EXEMPT_FROM_CAD_STANDARDS
 70
     0
  0
APPID
  2
ACAD_DSTYLE_DIMJAG
 70
     0
  0
APPID
  2
ACAD_DSTYLE_DIMTALN
 70
     0
  0
APPID
  2
ACAD_NAV_VCDISPLAY
 70
     0
  0
APPID
  2
ACAECLAYERSTANDARD
 70
     0
  0
APPID
  2
ACCMTRANSPARENCY
 70
     0
  0
APPID
  2
ACDBATTR
 70
     0
  0
ENDTAB
  0
TABLE
  2
DIMSTYLE
 70
     1
  0
DIMSTYLE
  2
STANDARD
 70
     0
  3

  4

  5

  6

  7

 40
1.0
 41
0.1875
 42
0.0625
 43
0.38
 44
0.125
 45
0.0
 46
0.0
 47
0.01
 48
0.01
140
0.15625
141
0.09
142
0.0
143
25.3999999999999986
144
1.0
145
0.0
146
1.0
147
0.09
 71
     1
 72
     0
 73
     1
 74
     1
 75
     0
 76
     0
 77
     0
 78
     4
170
     0
171
     2
172
     0
173
     0
174
     0
175
     0
176
     0
177
     0
178
     0
  0
ENDTAB
  0
ENDSEC
  0
SECTION
  2
BLOCKS
  0
BLOCK
  8
0
  2
$MODEL_SPACE
 70
     0
 10
0.0
 20
0.0
 30
0.0
  3
$MODEL_SPACE
  1

  0
ENDBLK
  5
21
  8
0
  0
BLOCK
 67
     1
  8
0
  2
$PAPER_SPACE
 70
     0
 10
0.0
 20
0.0
 30
0.0
  3
$PAPER_SPACE
  1

  0
ENDBLK
  5
1D
 67
     1
  8
0
  0
ENDSEC
  0
SECTION
  2
ENTITIES
  0
ATTDEF
  5
157D
  8
DEFPOINTS
 10
195.3836444656004971
 20
14.6267967656853397
 30
0.0
 40
0.001
  1
K-14675T-4
  3

  2
MODELNUMBER
 70
     0
1001
ACDBATTR
1070
     0
1070
     1
  0
ATTDEF
  5
157E
  8
DEFPOINTS
 10
195.3836444656004971
 20
14.6251300990186692
 30
0.0
 40
0.001
  1
LOURE
  3

  2
TRADENAME
 70
     0
1001
ACDBATTR
1070
     0
1070
     1
  0
ATTDEF
  5
157F
  8
DEFPOINTS
 10
195.3836444656004971
 20
14.6234634323520094
 30
0.0
 40
0.001
  1
BATH FAUCET
  3

  2
PRODUCT
 70
     0
1001
ACDBATTR
1070
     0
1070
     1
  0
LINE
  5
1EFA
  8
0
 10
194.3818258240017087
 20
7.8723520404313687
 30
0.0
 11
196.3918258240016996
 21
7.8723520404313687
 31
0.0
  0
LINE
  5
1EFB
  8
0
 10
193.8020887724015893
 20
15.7510599612313698
 30
0.0
 11
193.8020887724015893
 21
13.4915858579313692
 31
0.0
  0
LINE
  5
1EFC
  8
0
 10
194.3268258240015882
 20
14.3338111328313698
 30
0.0
 11
194.3268258240015882
 21
14.9088346864313692
 31
0.0
  0
LINE
  5
1EFD
  8
0
 10
194.3368258240016075
 20
14.8888229096313705
 30
0.0
 11
194.3368258240016075
 21
7.9041718456313736
 31
0.0
  0
LINE
  5
1EFE
  8
0
 10
196.4368258240016871
 20
7.9041718456313736
 30
0.0
 11
196.4368258240016871
 21
14.8888229096313705
 31
0.0
  0
LINE
  5
1EFF
  8
0
 10
196.4468258240017065
 20
14.9088341180313702
 30
0.0
 11
196.4468249759081004
 21
14.3338117009028601
 31
0.0
  0
LINE
  5
1F00
  8
0
 10
196.9715617333015985
 20
13.4915858579313692
 30
0.0
 11
196.9715617333015985
 21
15.7510599612313698
 31
0.0
  0
LINE
  5
1F01
  8
0
 10
201.391839187501688
 20
11.4623376379313697
 30
0.0
 11
199.3818124605016067
 21
11.4623376379313697
 31
0.0
  0
LINE
  5
1F02
  8
0
 10
193.8320887724017041
 20
13.4615870002313702
 30
0.0
 11
194.3368258240016075
 21
13.4615870002313702
 31
0.0
  0
LINE
  5
1F03
  8
0
 10
196.4368258240016019
 20
13.4615870002313702
 30
0.0
 11
196.9415628756015906
 21
13.4615870002313702
 31
0.0
  0
LINE
  5
1F04
  8
0
 10
199.3268258240015882
 20
13.6113229096313706
 30
0.0
 11
199.3268258240015882
 21
15.6313229095313702
 31
0.0
  0
LINE
  5
1F05
  8
0
 10
199.3518124605016055
 20
11.4923376379313709
 30
0.0
 11
199.3518061015016087
 21
13.3533737492313698
 31
0.0
  0
LINE
  5
1F06
  8
0
 10
199.3592432681016078
 20
11.4997501703313691
 30
0.0
 11
199.3592432681016078
 21
15.6377617933313697
 31
0.0
  0
LINE
  5
1F07
  8
0
 10
199.3268258240015882
 20
14.5206486244313702
 30
0.0
 11
199.3464080420015989
 21
15.6505970194313697
 31
0.0
  0
LINE
  5
1F08
  8
0
 10
199.3464902404016073
 20
13.5592174778313694
 30
0.0
 11
199.3366786839399936
 21
13.5690290342673201
 31
0.0
  0
LINE
  5
1F09
  8
0
 10
194.3818258240017087
 20
14.9338229096313704
 30
0.0
 11
196.3918258240016996
 21
14.9338229096313704
 31
0.0
  0
LINE
  5
1F0A
  8
0
 10
194.3618140472015909
 20
14.9438229096313702
 30
0.0
 11
196.4118370325016087
 21
14.9438229096313702
 31
0.0
  0
LINE
  5
1F0B
  8
0
 10
199.3768258240017133
 20
15.6813229096313709
 30
0.0
 11
201.3968258239017075
 21
15.6813229096313709
 31
0.0
  0
LINE
  5
1F0C
  8
0
 10
201.4144083799016016
 20
15.6377617933313697
 30
0.0
 11
201.4144083799016016
 21
11.4997501703313691
 31
0.0
  0
LINE
  5
1F0D
  8
0
 10
196.9415628756516128
 20
15.7810588189313794
 30
0.0
 11
193.8320887723517103
 21
15.7810588189313794
 31
0.0
  0
ARC
  5
1F0E
  8
0
 10
193.8320931815462131
 20
13.4915914095655598
 30
0.0
 40
0.0300044096581405
 50
180.0106012820870092
 51
269.9915803917808148
  0
ARC
  5
1F0F
  8
0
 10
196.9415592743825982
 20
13.4915894591503704
 30
0.0
 40
0.0300024591351359
 50
270.0068772579516008
 51
359.9931227420478876
  0
ARC
  5
1F10
  8
0
 10
194.3818258240017087
 20
14.8888229096313705
 30
0.0
 40
0.045
 50
90.0
 51
180.0
  0
ARC
  5
1F11
  8
0
 10
196.3918258240016996
 20
14.8888229096313705
 30
0.0
 40
0.045
 50
0.0
 51
90.0
  0
ARC
  5
1F12
  8
0
 10
194.361811257640511
 20
14.9088374759925308
 30
0.0
 40
0.0349854337500503
 50
89.9954315249964196
 51
180.0045684750504051
  0
ARC
  5
1F13
  8
0
 10
196.4118405041251947
 20
14.9088375897549401
 30
0.0
 40
0.0349853200486754
 50
359.9943143264649166
 51
90.0056855097844846
  0
ARC
  5
1F14
  8
0
 10
196.4118504894017008
 20
14.3338037950313701
 30
0.0
 40
0.0349744874
 50
315.5696137403834882
 51
0.0129515286001579
  0
ARC
  5
1F15
  8
0
 10
194.3618058499529013
 20
14.3338070221424694
 30
0.0
 40
0.0349800261927623
 50
179.9932668682401129
 51
224.4286639145844049
  0
ARC
  5
1F16
  8
0
 10
193.8320931817169992
 20
15.75105440942637
 30
0.0
 40
0.0300044098290055
 50
90.0084201253429512
 51
179.9893983918032063
  0
ARC
  5
1F17
  8
0
 10
196.9415592745534127
 20
15.7510563601831493
 30
0.0
 40
0.0300024589643365
 50
0.0068769318545191
 51
89.9931230681458914
  0
ARC
  5
1F18
  8
0
 10
200.3868258240017042
 20
-792.0350988474685892
 30
0.0
 40
803.5054865841998435
 50
89.9288637937998061
 51
90.0711362062001655
  0
ARC
  5
1F19
  8
0
 10
199.3892689101980977
 20
11.4997940875950704
 30
0.0
 40
0.0300256742144403
 50
180.0838041050128879
 51
269.9161937101592912
  0
ARC
  5
1F1A
  8
0
 10
201.3843827378076128
 20
11.4997940875940898
 30
0.0
 40
0.0300256742120587
 50
270.0838052018092981
 51
359.9161958968517183
  0
ARC
  5
1F1B
  8
0
 10
201.3918391783377047
 20
11.4923376470953897
 30
0.0
 40
0.030000009164025
 50
270.0000175020210236
 51
359.9999824980116045
  0
ARC
  5
1F1C
  8
0
 10
199.3818124742111024
 20
11.4923376516408808
 30
0.0
 40
0.0300000137094716
 50
180.0000261832234116
 51
269.9999738708002042
  0
ARC
  5
1F1D
  8
0
 10
200.3868258240017042
 20
819.1726123476312296
 30
0.0
 40
803.505488120700079
 50
269.9288637940002218
 51
270.0711362059998919
  0
ARC
  5
1F1E
  8
0
 10
199.3768258240017133
 20
13.6113229096313706
 30
0.0
 40
0.05
 50
179.999999991900097
 51
191.8518825338589124
  0
ARC
  5
1F1F
  8
0
 10
199.3768258240017133
 20
15.6313229096313702
 30
0.0
 40
0.05
 50
89.9999999919001255
 51
180.0000000004999094
  0
ARC
  5
1F20
  8
0
 10
199.3892689101963072
 20
15.6377178760684501
 30
0.0
 40
0.0300256742125684
 50
90.0838063719029947
 51
179.9161958964799908
  0
ARC
  5
1F21
  8
0
 10
201.3843827378142066
 20
15.6377178760714006
 30
0.0
 40
0.0300256742054678
 50
0.0838040979128612
 51
89.916196530604509
  0
ARC
  5
1F22
  8
0
 10
199.3776257460104944
 20
15.6501116821539696
 30
0.0
 40
0.0312214765162515
 50
91.4681294897775956
 51
179.1093022879707064
  0
ARC
  5
1F23
  8
0
 10
199.3578917345016066
 20
13.5902423921313709
 30
0.0
 40
0.0300000011
 50
180.0000009190999037
 51
225.0004150039993931
  0
ARC
  5
1F24
  8
0
 10
194.3823228967000887
 20
7.920784715088689
 30
0.0
 40
0.0484352253605767
 50
200.0592361467062119
 51
269.4119844086504827
  0
ARC
  5
1F25
  8
0
 10
196.391328751303206
 20
7.920784715088689
 30
0.0
 40
0.0484352253605767
 50
270.5880155913495173
 51
339.9407638532939018
  0
LINE
  5
1F26
  8
0
 10
199.3278917334021969
 20
13.6010537919865406
 30
0.0
 11
199.3278917334021969
 21
13.5902423917313602
 31
0.0
  0
ARC
  5
1F27
  8
0
 10
196.1824563945781961
 20
13.3745166166962601
 30
0.0
 40
3.1694202286254778
 50
359.6177830738640182
 51
3.3408567211931102
  0
LINE
  5
1F28
  8
0
 10
201.4468258240017065
 20
13.6113229096313706
 30
0.0
 11
201.4468258240017065
 21
15.6313229095313702
 31
0.0
  0
LINE
  5
1F29
  8
0
 10
201.4218391875016891
 20
11.4923376379313709
 30
0.0
 11
201.4218455465016859
 21
13.3533737492313698
 31
0.0
  0
LINE
  5
1F2A
  8
0
 10
201.4271614076016874
 20
13.5592174778313694
 30
0.0
 11
201.4369731141017041
 21
13.5690291843313808
 31
0.0
  0
ARC
  5
1F2B
  8
0
 10
201.3968258240016951
 20
13.6113229096313706
 30
0.0
 40
0.05
 50
348.148117466141116
 51
0.0000000080998804
  0
ARC
  5
1F2C
  8
0
 10
201.3968258240016951
 20
15.6313229096313702
 30
0.0
 40
0.05
 50
359.9999999995000053
 51
90.0000000080998745
  0
ARC
  5
1F2D
  8
0
 10
201.4157599136264025
 20
13.5902423921065907
 30
0.0
 40
0.0300000009753474
 50
314.999990141696685
 51
359.9999991282397787
  0
LINE
  5
1F2E
  8
0
 10
201.4457599146010978
 20
13.6010537919865406
 30
0.0
 11
201.4457599146010978
 21
13.5902423917313602
 31
0.0
  0
ARC
  5
1F2F
  8
0
 10
204.5911952534250986
 20
13.3745166166962601
 30
0.0
 40
3.1694202286254778
 50
176.6591432788067948
 51
180.3822169261360102
  0
LINE
  5
1F30
  8
0
 10
201.4468258240013938
 20
14.5206486244313702
 30
0.0
 11
201.4272436060014115
 21
15.6505970194313697
 31
0.0
  0
ARC
  5
1F31
  8
0
 10
201.3960259019926013
 20
15.6501116821539696
 30
0.0
 40
0.0312214765162515
 50
0.8906977120293088
 51
88.5318705102207844
  0
ENDSEC
  0
EOF
