  0
SECTION
  2
HEADER
  9
$ACADVER
  1
AC1009
  9
$INSBASE
 10
397.2076962612330249
 20
67.5085078618059384
 30
0.0
  9
$EXTMIN
 10
394.8086307082522808
 20
65.5365023602190035
 30
-0.0015258207003583
  9
$EXTMAX
 10
399.5948914877398011
 20
69.2506213197888485
 30
0.0000000349246037
  9
$LIMMIN
 10
0.0
 20
0.0
  9
$LIMMAX
 10
11.6929133858000007
 20
8.2677165353999982
  9
$ORTHOMODE
 70
     0
  9
$REGENMODE
 70
     1
  9
$FILLMODE
 70
     1
  9
$QTEXTMODE
 70
     0
  9
$MIRRTEXT
 70
     0
  9
$DRAGMODE
 70
     2
  9
$LTSCALE
 40
0.6431102362
  9
$OSMODE
 70
  4095
  9
$ATTMODE
 70
     1
  9
$TEXTSIZE
 40
0.2
  9
$TRACEWID
 40
0.05
  9
$TEXTSTYLE
  7
STANDARD
  9
$CLAYER
  8
0
  9
$CELTYPE
  6
BYLAYER
  9
$CECOLOR
 62
   256
  9
$DIMSCALE
 40
1.0
  9
$DIMASZ
 40
0.1875
  9
$DIMEXO
 40
0.0625
  9
$DIMDLI
 40
0.4443307087
  9
$DIMRND
 40
0.0
  9
$DIMDLE
 40
0.0
  9
$DIMEXE
 40
0.125
  9
$DIMTP
 40
0.01
  9
$DIMTM
 40
0.01
  9
$DIMTXT
 40
1.0
  9
$DIMCEN
 40
0.1052362205
  9
$DIMTSZ
 40
0.0
  9
$DIMTOL
 70
     1
  9
$DIMLIM
 70
     0
  9
$DIMTIH
 70
     0
  9
$DIMTOH
 70
     1
  9
$DIMSE1
 70
     0
  9
$DIMSE2
 70
     0
  9
$DIMTAD
 70
     0
  9
$DIMZIN
 70
     0
  9
$DIMBLK
  1

  9
$DIMASO
 70
     1
  9
$DIMSHO
 70
     1
  9
$DIMPOST
  1
\X
  9
$DIMAPOST
  1

  9
$DIMALT
 70
     1
  9
$DIMALTD
 70
     2
  9
$DIMALTF
 40
25.3999999999999986
  9
$DIMLFAC
 40
1.0
  9
$DIMTOFL
 70
     0
  9
$DIMTVP
 40
0.0
  9
$DIMTIX
 70
     0
  9
$DIMSOXD
 70
     0
  9
$DIMSAH
 70
     0
  9
$DIMBLK1
  1

  9
$DIMBLK2
  1

  9
$DIMSTYLE
  2
STANDARD
  9
$DIMCLRD
 70
     0
  9
$DIMCLRE
 70
     0
  9
$DIMCLRT
 70
     0
  9
$DIMTFAC
 40
1.0
  9
$DIMGAP
 40
0.09
  9
$LUNITS
 70
     2
  9
$LUPREC
 70
     4
  9
$SKETCHINC
 40
0.1
  9
$FILLETRAD
 40
0.0
  9
$AUNITS
 70
     0
  9
$AUPREC
 70
     0
  9
$MENU
  1
.
  9
$ELEVATION
 40
0.0
  9
$PELEVATION
 40
0.0
  9
$THICKNESS
 40
0.0
  9
$LIMCHECK
 70
     0
  9
$BLIPMODE
 70
     0
  9
$CHAMFERA
 40
0.0
  9
$CHAMFERB
 40
0.0
  9
$SKPOLY
 70
     0
  9
$TDCREATE
 40
2458172.5207638889551163
  9
$TDUPDATE
 40
2459052.3689583330415189
  9
$TDINDWG
 40
0.2683305324
  9
$TDUSRTIMER
 40
0.2683305324
  9
$USRTIMER
 70
     1
  9
$ANGBASE
 50
0.0
  9
$ANGDIR
 70
     0
  9
$PDMODE
 70
     0
  9
$PDSIZE
 40
0.3125
  9
$PLINEWID
 40
0.0
  9
$COORDS
 70
     1
  9
$SPLFRAME
 70
     0
  9
$SPLINETYPE
 70
     6
  9
$SPLINESEGS
 70
     8
  9
$ATTDIA
 70
     1
  9
$ATTREQ
 70
     1
  9
$HANDLING
 70
     1
  9
$HANDSEED
  5
DFC7
  9
$SURFTAB1
 70
     6
  9
$SURFTAB2
 70
     6
  9
$SURFTYPE
 70
     6
  9
$SURFU
 70
     6
  9
$SURFV
 70
     6
  9
$UCSNAME
  2

  9
$UCSORG
 10
0.0
 20
0.0
 30
0.0
  9
$UCSXDIR
 10
1.0
 20
0.0
 30
0.0
  9
$UCSYDIR
 10
0.0
 20
1.0
 30
0.0
  9
$PUCSNAME
  2

  9
$PUCSORG
 10
0.0
 20
0.0
 30
0.0
  9
$PUCSXDIR
 10
1.0
 20
0.0
 30
0.0
  9
$PUCSYDIR
 10
0.0
 20
1.0
 30
0.0
  9
$USERI1
 70
     0
  9
$USERI2
 70
     0
  9
$USERI3
 70
     0
  9
$USERI4
 70
     0
  9
$USERI5
 70
     0
  9
$USERR1
 40
0.0
  9
$USERR2
 40
0.0
  9
$USERR3
 40
0.0
  9
$USERR4
 40
0.0
  9
$USERR5
 40
0.0
  9
$WORLDVIEW
 70
     1
  9
$SHADEDGE
 70
     3
  9
$SHADEDIF
 70
    70
  9
$TILEMODE
 70
     1
  9
$MAXACTVP
 70
    64
  9
$PLIMCHECK
 70
     0
  9
$PEXTMIN
 10
1.0000000000000000E+20
 20
1.0000000000000000E+20
 30
1.0000000000000000E+20
  9
$PEXTMAX
 10
-1.0000000000000000E+20
 20
-1.0000000000000000E+20
 30
-1.0000000000000000E+20
  9
$PLIMMIN
 10
0.0
 20
0.0
  9
$PLIMMAX
 10
12.0
 20
9.0
  9
$UNITMODE
 70
     0
  9
$VISRETAIN
 70
     1
  9
$PLINEGEN
 70
     0
  9
$PSLTSCALE
 70
     1
  0
ENDSEC
  0
SECTION
  2
TABLES
  0
TABLE
  2
VPORT
 70
     1
  0
VPORT
  2
*ACTIVE
 70
     0
 10
0.0
 20
0.0
 11
1.0
 21
1.0
 12
-32.4275280100576992
 22
-2.3089796722147611
 13
0.0
 23
0.0
 14
1.0
 24
1.0
 15
0.0
 25
0.0
 16
0.0
 26
0.0
 36
14.6338572656650907
 17
429.6292891080536833
 27
69.7025415122186871
 37
0.0
 40
3.7450270230336709
 41
2.6486111111111108
 42
50.0
 43
0.0
 44
0.0
 50
0.0
 51
0.0
 71
     0
 72
   100
 73
     1
 74
     1
 75
     0
 76
     0
 77
     0
 78
     0
  0
ENDTAB
  0
TABLE
  2
LTYPE
 70
     2
  0
LTYPE
  2
CONTINUOUS
 70
     0
  3
Solid line
 72
    65
 73
     0
 40
0.0
  0
LTYPE
  2
PHANTOM2
 70
     0
  3
___ _ _ ___ _ _ ___ _ _ ___ _ _
 72
    65
 73
     6
 40
1.25
 49
0.625
 49
-0.125
 49
0.125
 49
-0.125
 49
0.125
 49
-0.125
  0
ENDTAB
  0
TABLE
  2
LAYER
 70
     2
  0
LAYER
  2
0
 70
     0
 62
   255
  6
CONTINUOUS
  0
LAYER
  2
DEFPOINTS
 70
     0
 62
     7
  6
CONTINUOUS
  0
ENDTAB
  0
TABLE
  2
STYLE
 70
     1
  0
STYLE
  2
STANDARD
 70
     0
 40
0.0
 41
0.8
 50
0.0
 71
     0
 42
0.2
  3
txt
  4

  0
ENDTAB
  0
TABLE
  2
VIEW
 70
     0
  0
ENDTAB
  0
TABLE
  2
UCS
 70
     0
  0
ENDTAB
  0
TABLE
  2
APPID
 70
    10
  0
APPID
  2
ACAD
 70
     0
  0
APPID
  2
ACAD_MLEADERVER
 70
     0
  0
APPID
  2
ACAD_EXEMPT_FROM_CAD_STANDARDS
 70
     0
  0
APPID
  2
ACAD_DSTYLE_DIMJAG
 70
     0
  0
APPID
  2
ACAD_DSTYLE_DIMTALN
 70
     0
  0
APPID
  2
ACAD_NAV_VCDISPLAY
 70
     0
  0
APPID
  2
ACAECLAYERSTANDARD
 70
     0
  0
APPID
  2
ACCMTRANSPARENCY
 70
     0
  0
APPID
  2
DCO15
 70
     0
  0
APPID
  2
ACDBATTR
 70
     0
  0
ENDTAB
  0
TABLE
  2
DIMSTYLE
 70
     1
  0
DIMSTYLE
  2
STANDARD
 70
     0
  3

  4

  5

  6

  7

 40
1.0
 41
0.1875
 42
0.0625
 43
0.38
 44
0.125
 45
0.0
 46
0.0
 47
0.01
 48
0.01
140
0.15625
141
0.09
142
0.0
143
25.3999999999999986
144
1.0
145
0.0
146
1.0
147
0.09
 71
     1
 72
     0
 73
     1
 74
     1
 75
     0
 76
     0
 77
     0
 78
     4
170
     0
171
     2
172
     0
173
     0
174
     0
175
     0
176
     0
177
     0
178
     0
  0
ENDTAB
  0
ENDSEC
  0
SECTION
  2
BLOCKS
  0
BLOCK
  8
0
  2
$MODEL_SPACE
 70
     0
 10
0.0
 20
0.0
 30
0.0
  3
$MODEL_SPACE
  1

  0
ENDBLK
  5
21
  8
0
  0
BLOCK
 67
     1
  8
0
  2
$PAPER_SPACE
 70
     0
 10
0.0
 20
0.0
 30
0.0
  3
$PAPER_SPACE
  1

  0
ENDBLK
  5
1D
 67
     1
  8
0
  0
BLOCK
  8
0
  2
_FILLED
 70
     0
 10
0.0
 20
0.0
 30
0.0
  3
_FILLED
  1

  0
SOLID
  5
87E2
  8
0
  6
BYBLOCK
 62
     0
 10
0.0
 20
0.0
 30
0.0
 11
-1.0
 21
0.1666666667
 31
0.0
 12
-1.0
 22
-0.1666666667
 32
0.0
 13
-1.0
 23
-0.1666666667
 33
0.0
  0
ENDBLK
  5
87E3
  8
0
  6
BYBLOCK
 62
     0
  0
ENDSEC
  0
SECTION
  2
ENTITIES
  0
ATTDEF
  5
D55F
  8
DEFPOINTS
 10
397.2078654856309754
 20
67.5119989169650694
 30
0.0
 40
0.001
  1
K-14676T
  3

  2
MODELNUMBER
 70
     0
1001
ACDBATTR
1070
     0
1070
     1
  0
ATTDEF
  5
D560
  8
DEFPOINTS
 10
397.2078654856309754
 20
67.5103322502984042
 30
0.0
 40
0.001
  1
LOURE
  3

  2
TRADENAME
 70
     0
1001
ACDBATTR
1070
     0
1070
     1
  0
ATTDEF
  5
D561
  8
DEFPOINTS
 10
397.2078654856309754
 20
67.5086655836317391
 30
0.0
 40
0.001
  1
BATHROOM SINK FAUCET
  3

  2
PRODUCT
 70
     0
1001
ACDBATTR
1070
     0
1070
     1
  0
LINE
  5
DB79
  8
0
 10
394.8626962612240163
 20
69.2485078618059333
 30
0.0
 11
399.5526962612419766
 21
69.2485078618059333
 31
0.0
  0
ARC
  5
DB7A
  8
0
 10
399.5526962612419766
 20
69.2185078618238947
 30
0.0
 40
0.0299999999820395
 50
359.9999999656976115
 51
89.9999999999967457
  0
LINE
  5
DB7B
  8
0
 10
399.5826962612239868
 20
69.2185078618059322
 30
0.0
 11
399.5826962612239868
 21
65.7985078618059447
 31
0.0
  0
ARC
  5
DB7C
  8
0
 10
399.5526962577106929
 20
65.7985078653192517
 30
0.0
 40
0.030000003513311
 50
270.000006900915821
 51
359.9999932900706199
  0
LINE
  5
DB7D
  8
0
 10
399.5526962613240016
 20
65.7685078618059435
 30
0.0
 11
399.2076962612239868
 21
65.7685078369028133
 31
0.0
  0
ARC
  5
DB7E
  8
0
 10
394.8626962612264037
 20
69.218507861800191
 30
0.0
 40
0.0300000000057503
 50
90.0000000045498751
 51
179.9999999890177094
  0
LINE
  5
DB7F
  8
0
 10
394.8326962612205762
 20
69.2185078618059322
 30
0.0
 11
394.8326962612205762
 21
65.7985078618059447
 31
0.0
  0
ARC
  5
DB80
  8
0
 10
394.8626962612261764
 20
65.7985078618115153
 30
0.0
 40
0.0300000000055749
 50
180.0000000106508082
 51
269.9999999614839794
  0
LINE
  5
DB81
  8
0
 10
394.8626962612061106
 20
65.7685078618059435
 30
0.0
 11
395.2076962612239868
 21
65.7685078616005683
 31
0.0
  0
ARC
  5
DB82
  8
0
 10
397.2076962612239868
 20
7.885358406072327
 30
0.0
 40
59.9775001221335984
 50
88.116802021663645
 51
91.8831979783657289
  0
ARC
  5
DB83
  8
0
 10
399.1776962611951944
 20
67.8004806281781498
 30
0.0
 40
0.0300000000287215
 50
0.0000000579815627
 51
88.116802021663645
  0
LINE
  5
DB84
  8
0
 10
399.2076962612239868
 20
67.8004806282085042
 30
0.0
 11
399.2076962634798747
 21
65.5712825318062613
 31
0.0
  0
ARC
  5
DB85
  8
0
 10
399.1776962598681848
 20
65.5712825332843323
 30
0.0
 40
0.0300000036116237
 50
270.0000025893170914
 51
359.9999971771021023
  0
LINE
  5
DB86
  8
0
 10
399.1776962612240141
 20
65.5412825296726993
 30
0.0
 11
395.2376962612240163
 21
65.5412825296726993
 31
0.0
  0
ARC
  5
DB87
  8
0
 10
395.2376967796603253
 20
65.5712830481090094
 30
0.0
 40
0.0300005184407822
 50
180.000986049181904
 51
269.9990098766597271
  0
LINE
  5
DB88
  8
0
 10
395.2076962612239868
 20
65.5712825318059345
 30
0.0
 11
395.2076737833298239
 21
67.8004806280975885
 31
0.0
  0
ARC
  5
DB89
  8
0
 10
395.2376727166051182
 20
67.8004809305888045
 30
0.0
 40
0.0299989332768336
 50
91.8382727315414229
 51
180.0005777362142965
  0
ARC
  5
DB8A
  8
0
 10
397.2076962597346892
 20
-17.8174640136783609
 30
0.0
 40
83.8438708167938103
 50
88.6529775631852743
 51
91.347022434778637
  0
ARC
  5
DB8B
  8
0
 10
399.1779450274009946
 20
65.9718901017535302
 30
0.0
 40
0.0313553833113522
 50
18.4065823666166892
 51
88.6529775631852743
  0
ARC
  5
DB8C
  8
0
 10
395.2370932550244902
 20
65.9719011011949732
 30
0.0
 40
0.0313380577426217
 50
90.6999987618750367
 51
159.7502562395793859
  0
ARC
  5
DB8D
  8
0
 10
395.416701795242318
 20
65.7720972675345052
 30
0.0
 40
0.2003528974585796
 50
240.2424289747683019
 51
270.2861540748672269
  0
ARC
  5
DB8E
  8
0
 10
395.3734151429771941
 20
65.6942992308398885
 30
0.0
 40
0.1113341300587597
 50
186.0262741384871106
 51
239.7097734729750869
  0
LINE
  5
DB8F
  8
0
 10
395.2626962612239936
 20
65.6826108717059327
 30
0.0
 11
395.262696596415708
 21
65.8256617271598685
 31
0.0
  0
ARC
  5
DB90
  8
0
 10
395.4152310860226862
 20
65.7454704695717425
 30
0.0
 40
0.1911186480889042
 50
88.521565828985274
 51
126.3400616259816047
  0
ARC
  5
DB91
  8
0
 10
395.3592375517807227
 20
65.8215848285757943
 30
0.0
 40
0.0966270001854459
 50
126.3400616259816047
 51
177.5818514242724007
  0
LINE
  5
DB92
  8
0
 10
395.4201620772420256
 20
65.9365254956059346
 30
0.0
 11
398.9951962612240095
 21
65.9360340964059333
 31
0.0
  0
ARC
  5
DB93
  8
0
 10
398.9951662612244263
 20
65.7177776891453647
 30
0.0
 40
0.2182564093223717
 50
62.3496151098550797
 51
89.9921245228464812
  0
ARC
  5
DB94
  8
0
 10
399.0474874534480136
 20
65.8176449018957328
 30
0.0
 40
0.1055134834324696
 50
4.357478430752451
 51
62.3496151098550797
  0
LINE
  5
DB95
  8
0
 10
399.1526959410837208
 20
65.8256617164409619
 30
0.0
 11
399.1526959412240103
 21
65.6830243722734792
 31
0.0
  0
ARC
  5
DB96
  8
0
 10
399.0653818074791843
 20
65.683916403363213
 30
0.0
 40
0.0873186902734633
 50
323.8866140030978045
 51
359.4146670602941072
  0
ARC
  5
DB97
  8
0
 10
399.0193267776497805
 20
65.7227673997804516
 30
0.0
 40
0.1474835564036603
 50
284.7150510531536725
 51
322.238526223735505
  0
ARC
  5
DB98
  8
0
 10
398.9762011966085993
 20
65.9360993430764069
 30
0.0
 40
0.3649862052525802
 50
273.3762632317062753
 51
282.7559003021298167
  0
LINE
  5
DB99
  8
0
 10
398.9976962609239877
 20
65.5717466400059408
 30
0.0
 11
395.4177024197239803
 21
65.5717468688059455
 31
0.0
  0
LINE
  5
DB9A
  8
0
 10
395.4145496823239796
 20
65.7838191861059443
 30
0.0
 11
399.0008428401239939
 21
65.7838191861185635
 31
0.0
  0
ARC
  5
DB9B
  8
0
 10
399.0008428401241076
 20
65.7622509022025952
 30
0.0
 40
0.0215682839159706
 50
19.6792780458958809
 51
90.0000000002019078
  0
LINE
  5
DB9C
  8
0
 10
399.0211513723240273
 20
65.7695141240059229
 30
0.0
 11
399.0211513087239723
 21
65.71700503740594
 31
0.0
  0
ARC
  5
DB9D
  8
0
 10
399.0073917492645137
 20
65.7182382653399344
 30
0.0
 40
0.0138147141720624
 50
294.9933219882062758
 51
354.8784361760738761
  0
ARC
  5
DB9E
  8
0
 10
399.0001013429575778
 20
65.7338773508183749
 30
0.0
 40
0.0310695980812943
 50
268.3164270482720895
 51
294.9933219882062758
  0
LINE
  5
DB9F
  8
0
 10
398.9991885286027014
 20
65.7028211647072027
 30
0.0
 11
398.6879906888240157
 21
65.7212957381059368
 31
0.0
  0
ARC
  5
DBA0
  8
0
 10
398.0268199704436825
 20
54.5841022103266624
 30
0.0
 40
11.1568017995325093
 50
86.6025657780210736
 51
90.0024080052137236
  0
LINE
  5
DBA1
  8
0
 10
398.0263510766239961
 20
65.7409040000059406
 30
0.0
 11
396.3891264367699137
 21
65.7408351913518487
 31
0.0
  0
ARC
  5
DBA2
  8
0
 10
396.3895984389744171
 20
54.5100728771753893
 30
0.0
 40
11.2307623240950196
 50
90.0024080052137236
 51
93.3802771727146563
  0
LINE
  5
DBA3
  8
0
 10
395.7274018336240147
 20
65.7212957380489797
 30
0.0
 11
395.416198475612191
 21
65.7029143527347799
 31
0.0
  0
ARC
  5
DBA4
  8
0
 10
395.4148931910725082
 20
65.7250132818949737
 30
0.0
 40
0.0221374442462663
 50
201.1083804473398118
 51
273.3802771727113736
  0
LINE
  5
DBA5
  8
0
 10
395.3942411500887033
 20
65.7170408518414462
 30
0.0
 11
395.3942411501240031
 21
65.7695141240059229
 31
0.0
  0
ARC
  5
DBA6
  8
0
 10
395.4076932639284223
 20
65.7685905248885661
 30
0.0
 40
0.0134837828941439
 50
112.433603479963395
 51
176.0723336936827934
  0
ARC
  5
DBA7
  8
0
 10
395.4168476359041051
 20
65.7464172737355881
 30
0.0
 40
0.0374724383996521
 50
93.5158028013709668
 51
112.433603479963395
  0
LINE
  5
DBA8
  8
0
 10
395.3942411500887033
 20
65.7170408518414462
 30
0.0
 11
395.4107337258777761
 21
65.7833875826848953
 31
0.0
  0
LINE
  5
DBA9
  8
0
 10
399.0211406246365868
 20
65.7168911374100446
 30
0.0
 11
399.0046350518491067
 21
65.7834831889685745
 31
0.0
  0
ENDSEC
  0
EOF
