  0
SECTION
  2
HEADER
  9
$ACADVER
  1
AC1009
  9
$INSBASE
 10
4470.6642323295773167
 20
279.0498953926987724
 30
0.0
  9
$EXTMIN
 10
4467.13954862834089
 20
276.1785639282376223
 30
-0.0000000000000058
  9
$EXTMAX
 10
4473.9791305339867904
 20
279.0730262983312855
 30
0.0000000000000104
  9
$LIMMIN
 10
0.0
 20
0.0
  9
$LIMMAX
 10
11.6929133858000007
 20
8.2677165353999982
  9
$ORTHOMODE
 70
     0
  9
$REGENMODE
 70
     1
  9
$FILLMODE
 70
     1
  9
$QTEXTMODE
 70
     0
  9
$MIRRTEXT
 70
     0
  9
$DRAGMODE
 70
     2
  9
$LTSCALE
 40
0.6431102362
  9
$OSMODE
 70
   695
  9
$ATTMODE
 70
     1
  9
$TEXTSIZE
 40
0.2
  9
$TRACEWID
 40
0.05
  9
$TEXTSTYLE
  7
STANDARD
  9
$CLAYER
  8
0
  9
$CELTYPE
  6
BYLAYER
  9
$CECOLOR
 62
   256
  9
$DIMSCALE
 40
1.0
  9
$DIMASZ
 40
0.1875
  9
$DIMEXO
 40
0.0625
  9
$DIMDLI
 40
0.4443307087
  9
$DIMRND
 40
0.0
  9
$DIMDLE
 40
0.0
  9
$DIMEXE
 40
0.125
  9
$DIMTP
 40
0.01
  9
$DIMTM
 40
0.01
  9
$DIMTXT
 40
2.0
  9
$DIMCEN
 40
0.1052362205
  9
$DIMTSZ
 40
0.0
  9
$DIMTOL
 70
     1
  9
$DIMLIM
 70
     0
  9
$DIMTIH
 70
     1
  9
$DIMTOH
 70
     1
  9
$DIMSE1
 70
     0
  9
$DIMSE2
 70
     0
  9
$DIMTAD
 70
     0
  9
$DIMZIN
 70
     0
  9
$DIMBLK
  1

  9
$DIMASO
 70
     1
  9
$DIMSHO
 70
     1
  9
$DIMPOST
  1
\X
  9
$DIMAPOST
  1

  9
$DIMALT
 70
     1
  9
$DIMALTD
 70
     2
  9
$DIMALTF
 40
25.3999999999999986
  9
$DIMLFAC
 40
1.0
  9
$DIMTOFL
 70
     0
  9
$DIMTVP
 40
0.0
  9
$DIMTIX
 70
     0
  9
$DIMSOXD
 70
     0
  9
$DIMSAH
 70
     0
  9
$DIMBLK1
  1

  9
$DIMBLK2
  1

  9
$DIMSTYLE
  2
STANDARD
  9
$DIMCLRD
 70
     0
  9
$DIMCLRE
 70
     0
  9
$DIMCLRT
 70
     0
  9
$DIMTFAC
 40
1.0
  9
$DIMGAP
 40
0.09
  9
$LUNITS
 70
     2
  9
$LUPREC
 70
     4
  9
$SKETCHINC
 40
0.1
  9
$FILLETRAD
 40
0.0
  9
$AUNITS
 70
     0
  9
$AUPREC
 70
     0
  9
$MENU
  1
.
  9
$ELEVATION
 40
0.0
  9
$PELEVATION
 40
0.0
  9
$THICKNESS
 40
0.0
  9
$LIMCHECK
 70
     0
  9
$BLIPMODE
 70
     0
  9
$CHAMFERA
 40
0.0
  9
$CHAMFERB
 40
0.0
  9
$SKPOLY
 70
     0
  9
$TDCREATE
 40
2458060.468368056230247
  9
$TDUPDATE
 40
2459347.0335648148320615
  9
$TDINDWG
 40
0.5124376157
  9
$TDUSRTIMER
 40
0.5124376157
  9
$USRTIMER
 70
     1
  9
$ANGBASE
 50
0.0
  9
$ANGDIR
 70
     0
  9
$PDMODE
 70
     0
  9
$PDSIZE
 40
0.3125
  9
$PLINEWID
 40
0.0
  9
$COORDS
 70
     1
  9
$SPLFRAME
 70
     0
  9
$SPLINETYPE
 70
     6
  9
$SPLINESEGS
 70
     8
  9
$ATTDIA
 70
     1
  9
$ATTREQ
 70
     1
  9
$HANDLING
 70
     1
  9
$HANDSEED
  5
208CD
  9
$SURFTAB1
 70
     6
  9
$SURFTAB2
 70
     6
  9
$SURFTYPE
 70
     6
  9
$SURFU
 70
     6
  9
$SURFV
 70
     6
  9
$UCSNAME
  2

  9
$UCSORG
 10
0.0
 20
0.0
 30
0.0
  9
$UCSXDIR
 10
1.0
 20
0.0
 30
0.0
  9
$UCSYDIR
 10
0.0
 20
1.0
 30
0.0
  9
$PUCSNAME
  2

  9
$PUCSORG
 10
0.0
 20
0.0
 30
0.0
  9
$PUCSXDIR
 10
1.0
 20
0.0
 30
0.0
  9
$PUCSYDIR
 10
0.0
 20
1.0
 30
0.0
  9
$USERI1
 70
     0
  9
$USERI2
 70
     0
  9
$USERI3
 70
     0
  9
$USERI4
 70
     0
  9
$USERI5
 70
     0
  9
$USERR1
 40
0.0
  9
$USERR2
 40
0.0
  9
$USERR3
 40
0.0
  9
$USERR4
 40
0.0
  9
$USERR5
 40
0.0
  9
$WORLDVIEW
 70
     1
  9
$SHADEDGE
 70
     3
  9
$SHADEDIF
 70
    70
  9
$TILEMODE
 70
     1
  9
$MAXACTVP
 70
    64
  9
$PLIMCHECK
 70
     0
  9
$PEXTMIN
 10
1.0000000000000000E+20
 20
1.0000000000000000E+20
 30
1.0000000000000000E+20
  9
$PEXTMAX
 10
-1.0000000000000000E+20
 20
-1.0000000000000000E+20
 30
-1.0000000000000000E+20
  9
$PLIMMIN
 10
0.0
 20
0.0
  9
$PLIMMAX
 10
12.0
 20
9.0
  9
$UNITMODE
 70
     0
  9
$VISRETAIN
 70
     1
  9
$PLINEGEN
 70
     0
  9
$PSLTSCALE
 70
     1
  0
ENDSEC
  0
SECTION
  2
TABLES
  0
TABLE
  2
VPORT
 70
     1
  0
VPORT
  2
*ACTIVE
 70
     0
 10
0.0
 20
0.0
 11
1.0
 21
1.0
 12
559.1939831276763471
 22
145.0461900073449044
 13
0.0
 23
0.0
 14
1.0
 24
1.0
 15
0.0
 25
0.0
 16
0.0
 26
0.0
 36
60.4960186965801583
 17
3911.3653564453120453
 27
132.5796051025390057
 37
0.0
 40
3.5344306533338861
 41
2.404287901990811
 42
50.0
 43
0.0
 44
0.0
 50
0.0
 51
0.0
 71
     0
 72
   100
 73
     1
 74
     1
 75
     0
 76
     0
 77
     0
 78
     0
  0
ENDTAB
  0
TABLE
  2
LTYPE
 70
     2
  0
LTYPE
  2
CONTINUOUS
 70
     0
  3
Solid line
 72
    65
 73
     0
 40
0.0
  0
LTYPE
  2
PHANTOM2
 70
     0
  3
___ _ _ ___ _ _ ___ _ _ ___ _ _
 72
    65
 73
     6
 40
1.25
 49
0.625
 49
-0.125
 49
0.125
 49
-0.125
 49
0.125
 49
-0.125
  0
ENDTAB
  0
TABLE
  2
LAYER
 70
     2
  0
LAYER
  2
0
 70
     0
 62
   255
  6
CONTINUOUS
  0
LAYER
  2
DEFPOINTS
 70
     0
 62
     7
  6
CONTINUOUS
  0
ENDTAB
  0
TABLE
  2
STYLE
 70
     1
  0
STYLE
  2
STANDARD
 70
     0
 40
0.0
 41
0.8
 50
0.0
 71
     0
 42
0.2
  3
txt
  4

  0
ENDTAB
  0
TABLE
  2
VIEW
 70
     0
  0
ENDTAB
  0
TABLE
  2
UCS
 70
     0
  0
ENDTAB
  0
TABLE
  2
APPID
 70
    11
  0
APPID
  2
ACAD
 70
     0
  0
APPID
  2
ACAD_MLEADERVER
 70
     0
  0
APPID
  2
ACAD_EXEMPT_FROM_CAD_STANDARDS
 70
     0
  0
APPID
  2
ACAD_NAV_VCDISPLAY
 70
     0
  0
APPID
  2
ACAECLAYERSTANDARD
 70
     0
  0
APPID
  2
ACCMTRANSPARENCY
 70
     0
  0
APPID
  2
ACAD_DSTYLE_DIMJAG
 70
     0
  0
APPID
  2
ACAD_DSTYLE_DIMTALN
 70
     0
  0
APPID
  2
ACDBATTR
 70
     0
  0
APPID
  2
ACADANNOTATIVE
 70
     0
  0
APPID
  2
DCO15
 70
     0
  0
ENDTAB
  0
TABLE
  2
DIMSTYLE
 70
     1
  0
DIMSTYLE
  2
STANDARD
 70
     0
  3

  4

  5

  6

  7

 40
1.0
 41
0.1875
 42
0.0625
 43
0.38
 44
0.125
 45
0.0
 46
0.0
 47
0.01
 48
0.01
140
0.15625
141
0.09
142
0.0
143
25.3999999999999986
144
1.0
145
0.0
146
1.0
147
0.09
 71
     1
 72
     0
 73
     1
 74
     1
 75
     0
 76
     0
 77
     0
 78
     4
170
     0
171
     2
172
     0
173
     0
174
     0
175
     0
176
     0
177
     0
178
     0
  0
ENDTAB
  0
ENDSEC
  0
SECTION
  2
BLOCKS
  0
BLOCK
  8
0
  2
$MODEL_SPACE
 70
     0
 10
0.0
 20
0.0
 30
0.0
  3
$MODEL_SPACE
  1

  0
ENDBLK
  5
21
  8
0
  0
BLOCK
 67
     1
  8
0
  2
$PAPER_SPACE
 70
     0
 10
0.0
 20
0.0
 30
0.0
  3
$PAPER_SPACE
  1

  0
ENDBLK
  5
1D
 67
     1
  8
0
  0
ENDSEC
  0
SECTION
  2
ENTITIES
  0
ATTDEF
  5
20106
  8
DEFPOINTS
 10
4470.6642974201740799
 20
279.0533902874514069
 30
0.0
 40
0.001
  1
K-14682T-4
  3

  2
MODELNUMBER
 70
     0
1001
ACDBATTR
1070
     0
1070
     1
  0
ATTDEF
  5
20107
  8
DEFPOINTS
 10
4470.6641716105168598
 20
279.0517234470722769
 30
0.0
 40
0.001
  1
LOURE
  3

  2
TRADENAME
 70
     0
1001
ACDBATTR
1070
     0
1070
     1
  0
ATTDEF
  5
20108
  8
DEFPOINTS
 10
4470.6642974201740799
 20
279.0500569541180766
 30
0.0
 40
0.001
  1
SHOWER TRIM
  3

  2
PRODUCT
 70
     0
1001
ACDBATTR
1070
     0
1070
     1
  0
LINE
  5
20783
  8
0
 10
4467.443759888627028
 20
279.0498953926987724
 30
0.0
 11
4467.5028216523633091
 21
278.3748163066479719
 31
0.0
  0
LINE
  5
20784
  8
0
 10
4469.6150197311280863
 20
276.2342437342987864
 30
0.0
 11
4469.6150197311280863
 21
277.1246985422988018
 31
0.0
  0
LINE
  5
20785
  8
0
 10
4469.6150197311280863
 20
277.3569820067987735
 30
0.0
 11
4469.6150197311280863
 21
278.3211975117628754
 31
0.0
  0
LINE
  5
20786
  8
0
 10
4469.6937599040284113
 20
277.1227235195988214
 30
0.0
 11
4469.693759888627028
 21
277.1246985422988018
 31
0.0
  0
LINE
  5
20787
  8
0
 10
4469.5853976415273792
 20
278.3207379384987803
 30
0.0
 11
4469.5853314550213327
 21
278.3063902066380138
 31
0.0
  0
LINE
  5
20788
  8
0
 10
4470.9168762513272668
 20
276.8451709831987841
 30
0.0
 11
4470.4115884078273666
 21
276.8451709831987841
 31
0.0
  0
LINE
  5
20789
  8
0
 10
4470.0922023767316205
 20
276.8648560225988149
 30
0.0
 11
4471.236262043980787
 21
276.8648560225988149
 31
0.0
  0
LINE
  5
2078A
  8
0
 10
4471.529609232706207
 20
277.3159936705358177
 30
0.0
 11
4471.5945240351265966
 21
277.3333875393988137
 31
0.0
  0
LINE
  5
2078B
  8
0
 10
4469.6465157941265716
 20
277.1561946052988219
 30
0.0
 11
4469.8627459699755491
 21
277.1561946052988219
 31
0.0
  0
LINE
  5
2078C
  8
0
 10
4471.4657186224812904
 20
277.1561946052988219
 30
0.0
 11
4471.6819488650280618
 21
277.1561946052988219
 31
0.0
  0
LINE
  5
2078D
  8
0
 10
4469.7988554264493359
 20
277.3159936705358177
 30
0.0
 11
4469.7339406240280368
 21
277.3333875393988137
 31
0.0
  0
LINE
  5
2078E
  8
0
 10
4470.3914898493267174
 20
276.8139879088988096
 30
0.0
 11
4470.3919153600281788
 21
276.8261729417988022
 31
0.0
  0
LINE
  5
20790
  8
0
 10
4469.6347047705266959
 20
277.3372969674987871
 30
0.0
 11
4471.6937598886279375
 21
277.3372969674987871
 31
0.0
  0
LINE
  5
20791
  8
0
 10
4470.9365492991273641
 20
276.8261729417988022
 30
0.0
 11
4470.9369791447279567
 21
276.8138637743890058
 31
0.0
  0
LINE
  5
20792
  8
0
 10
4471.7134449280265471
 20
278.3058093106780007
 30
0.0
 11
4473.7873561336227795
 21
278.3388886220396898
 31
0.0
  0
LINE
  5
20793
  8
0
 10
4469.5893034690270724
 20
278.3209945112988066
 30
0.0
 11
4469.5944314552270953
 21
278.3210977099988099
 31
0.0
  0
LINE
  5
20794
  8
0
 10
4469.5944314552270953
 20
278.3210977099988099
 30
0.0
 11
4469.6078121959280907
 21
278.3212286001988218
 31
0.0
  0
LINE
  5
20795
  8
0
 10
4471.7098647207276372
 20
278.3212608450987773
 30
0.0
 11
4471.7226563764270395
 21
278.3212171339988004
 31
0.0
  0
LINE
  5
20796
  8
0
 10
4471.6347047705276054
 20
277.1246985422988018
 30
0.0
 11
4471.6347047549279523
 21
277.1227260405988204
 31
0.0
  0
LINE
  5
20797
  8
0
 10
4471.7431336991267017
 20
278.3062828526988142
 30
0.0
 11
4471.7430670172279861
 21
278.3207380176987726
 31
0.0
  0
LINE
  5
20798
  8
0
 10
4471.7134449280265471
 20
278.3212486109671886
 30
0.0
 11
4471.7134449280265471
 21
277.3569820067987735
 31
0.0
  0
LINE
  5
20799
  8
0
 10
4471.7134449280265471
 20
276.2342437342987864
 30
0.0
 11
4471.7134449280265471
 21
277.1246985422988018
 31
0.0
  0
LINE
  5
2079A
  8
0
 10
4467.443759888627028
 20
279.0498953926987724
 30
0.0
 11
4473.8847047705276054
 21
279.0498953926987724
 31
0.0
  0
LINE
  5
2079B
  8
0
 10
4473.8256409995856302
 20
278.3747934020540242
 30
0.0
 11
4473.8847047705276054
 21
279.0498953926987724
 31
0.0
  0
ARC
  5
2079C
  8
0
 10
4470.6642223223279871
 20
277.2511016291987858
 30
0.0
 40
0.8070760104000001
 50
180.722176140200105
 51
204.543670730721999
  0
ARC
  5
2079D
  8
0
 10
4469.7784751500394123
 20
277.2399353040119081
 30
0.0
 40
0.0787415442117108
 50
0.7232422673752038
 51
74.9996496134985762
  0
ARC
  5
2079E
  8
0
 10
4467.5418643742623317
 20
278.3803034345016272
 30
0.0
 40
0.039375113470713
 50
185.6742324356123959
 51
269.8214430354062188
  0
ARC
  5
2079F
  8
0
 10
4467.5420403386451653
 20
278.3782468688096969
 30
0.0
 40
0.0393684405377323
 50
184.9990890884876933
 51
268.6437421636913996
  0
ARC
  5
207A0
  8
0
 10
4469.6465157941265716
 20
277.1246985422988018
 30
0.0
 40
0.031496063
 50
90.0
 51
180.0
  0
ARC
  5
207A1
  8
0
 10
4469.6465157941265716
 20
276.2342437342987864
 30
0.0
 40
0.031496063
 50
180.0
 51
268.7479746735078834
  0
ARC
  5
207A2
  8
0
 10
4469.6622638256276332
 20
277.1246985422988018
 30
0.0
 40
0.031496063
 50
0.0
 51
90.0
  0
ARC
  5
207A3
  8
0
 10
4469.5857055444548678
 20
278.3258325836122253
 30
0.0
 40
0.0194459755556718
 50
269.7644492856205147
 51
346.2091688165838832
  0
ARC
  5
207A4
  8
0
 10
4469.7390354784829469
 20
277.3524018282822112
 30
0.0
 40
0.0196850380663517
 50
230.1144569340777934
 51
255.0000250067338925
  0
ARC
  5
207A5
  8
0
 10
4470.4115884078273666
 20
276.8254859437988102
 30
0.0
 40
0.0196850394
 50
90.0
 51
177.9999999989981916
  0
ARC
  5
207A6
  8
0
 10
4469.6347047705266959
 20
277.3569820067987735
 30
0.0
 40
0.0196850394
 50
180.0000000001008971
 51
269.9999999995831104
  0
ARC
  5
207A7
  8
0
 10
4470.6551266508377012
 20
520.2948376466815716
 30
0.0
 40
241.9758755383429047
 50
269.7520129421844217
 51
270.2497448604116244
  0
ARC
  5
207A8
  8
0
 10
4470.6642323296273389
 20
322.8000594346988237
 30
0.0
 40
46.6084317584999965
 50
268.7479746731951877
 51
271.2520253268046986
  0
ARC
  5
207A9
  8
0
 10
4471.7171461534653645
 20
277.1838823310910129
 30
0.0
 40
1.1373481509469341
 50
89.3205228194371443
 51
89.722412389915263
  0
ARC
  5
207AA
  8
0
 10
4470.6642564692274391
 20
277.2510988201988198
 30
0.0
 40
0.8070615795
 50
335.5008682383663086
 51
359.2780106251000234
  0
ARC
  5
207AB
  8
0
 10
4471.5499898890757322
 20
277.2399347314653255
 30
0.0
 40
0.078742195591397
 50
105.0005096095945021
 51
179.2763445785309955
  0
ARC
  5
207AC
  8
0
 10
4473.7865599091392141
 20
278.3804109781398779
 30
0.0
 40
0.0394827657541763
 50
270.2366620843686178
 51
351.8202450839995095
  0
ARC
  5
207AD
  8
0
 10
4473.7864227453974308
 20
278.3782476360046871
 30
0.0
 40
0.0393700799324039
 50
271.3584990757155992
 51
354.9665373013563112
  0
ARC
  5
207AE
  8
0
 10
4471.6819488650280618
 20
277.1246985422988018
 30
0.0
 40
0.031496063
 50
0.0
 51
90.0
  0
ARC
  5
207AF
  8
0
 10
4471.6662008335270002
 20
277.1246985422988018
 30
0.0
 40
0.031496063
 50
90.0
 51
180.0
  0
ARC
  5
207B0
  8
0
 10
4471.6819488650280618
 20
276.2342437342987864
 30
0.0
 40
0.031496063
 50
271.2520253264921166
 51
0.0
  0
ARC
  5
207B1
  8
0
 10
4471.5894291806716865
 20
277.3524018282823249
 30
0.0
 40
0.0196850380663614
 50
284.9999749932669033
 51
309.8855430659241961
  0
ARC
  5
207B2
  8
0
 10
4470.9168762513272668
 20
276.8254859437988102
 30
0.0
 40
0.0196850394
 50
2.0000000004010512
 51
90.0
  0
ARC
  5
207B3
  8
0
 10
4471.6937598886279375
 20
277.3569820067987735
 30
0.0
 40
0.0196850394
 50
269.999999999791612
 51
0.0
  0
ARC
  5
207B4
  8
0
 10
4471.7429724875273678
 20
278.3259672318988009
 30
0.0
 40
0.0196850394
 50
193.9831656096665995
 51
270.4692084305759749
  0
ARC
  5
207B5
  8
0
 10
4470.6642181938459544
 20
2666.6116508732679904
 30
0.0
 40
2388.272763556657992
 50
269.9250903077515886
 51
270.0749103704632716
  0
LINE
  5
207B6
  8
0
 10
4471.7430670172279861
 20
278.3207380176987726
 30
0.0
 11
4471.7391599317279542
 21
278.3209945151987768
 31
0.0
  0
LINE
  5
207B7
  8
0
 10
4471.7391599317279542
 20
278.3209945151987768
 30
0.0
 11
4471.7306337786849326
 21
278.3211505054580925
 31
0.0
  0
LINE
  5
207B8
  8
0
 10
4469.5893034690270724
 20
278.3209945112988066
 30
0.0
 11
4469.5853976415273792
 21
278.3207379384987803
 31
0.0
  0
ARC
  5
207B9
  8
0
 10
4472.412631306457115
 20
520.4529875017635732
 30
0.0
 40
242.1631024868522104
 50
268.8473201690783867
 51
269.3380704986468004
  0
ARC
  5
207BA
  8
0
 10
4469.8462264005765974
 20
277.1415480464734742
 30
0.0
 40
0.1536242018111835
 50
187.0384969547085916
 51
226.4011644469150042
  0
ARC
  5
207BB
  8
0
 10
4470.1303916836350254
 20
277.462635255867383
 30
0.0
 40
0.582322702183017
 50
227.9396859055854065
 51
249.8789267372692962
  0
ARC
  5
207BC
  8
0
 10
4470.3818323219247759
 20
278.0688944946240895
 30
0.0
 40
1.238383683383526
 50
248.6047136161161006
 51
256.4745419258629795
  0
ARC
  5
207BD
  8
0
 10
4470.6054023006327043
 20
278.9784399992561248
 30
0.0
 40
2.1749968708656708
 50
256.3521162214134961
 51
264.3557960044556125
  0
ARC
  5
207BE
  8
0
 10
4470.6627990162505739
 20
279.5187348805890224
 30
0.0
 40
2.718320224867504
 50
264.2719054969741137
 51
268.5231108873788912
  0
ARC
  5
207BF
  8
0
 10
4470.6642696464468827
 20
279.756268810428196
 30
0.0
 40
2.955816810880044
 50
268.6132854965154024
 51
274.4241150885659977
  0
ARC
  5
207C0
  8
0
 10
4470.5490744073977112
 20
280.3604216682202832
 30
0.0
 40
3.5677083652591541
 50
275.5202211764778895
 51
277.9306081248997202
  0
ARC
  5
207C1
  8
0
 10
4470.7592047259586252
 20
278.7920476106630758
 30
0.0
 40
1.985359187095129
 50
278.1693811288188272
 51
283.9035190438685277
  0
ARC
  5
207C2
  8
0
 10
4470.952933960574228
 20
278.0385128852457228
 30
0.0
 40
1.207371208073621
 50
283.5718920663434801
 51
292.9310138802159145
  0
ARC
  5
207C3
  8
0
 10
4471.2054207708206377
 20
277.4713795619184111
 30
0.0
 40
0.5867952483356152
 50
291.8016119205169048
 51
308.4806773910410129
  0
ARC
  5
207C4
  8
0
 10
4471.464886284736167
 20
277.147197330155393
 30
0.0
 40
0.1715725993004167
 50
308.0159291889252131
 51
351.7999754831731138
  0
ENDSEC
  0
EOF
