  0
SECTION
  2
HEADER
  9
$ACADVER
  1
AC1009
  9
$INSBASE
 10
4488.2792946836707415
 20
271.6511366590196985
 30
0.0
  9
$EXTMIN
 10
4484.9090898887980075
 20
268.4278660392624261
 30
-0.0000000000000058
  9
$EXTMAX
 10
4491.7627615439769215
 20
274.8871130819113091
 30
0.0000000000000104
  9
$LIMMIN
 10
0.0
 20
0.0
  9
$LIMMAX
 10
11.6929133858000007
 20
8.2677165353999982
  9
$ORTHOMODE
 70
     0
  9
$REGENMODE
 70
     1
  9
$FILLMODE
 70
     1
  9
$QTEXTMODE
 70
     0
  9
$MIRRTEXT
 70
     0
  9
$DRAGMODE
 70
     2
  9
$LTSCALE
 40
0.6431102362
  9
$OSMODE
 70
   695
  9
$ATTMODE
 70
     1
  9
$TEXTSIZE
 40
0.2
  9
$TRACEWID
 40
0.05
  9
$TEXTSTYLE
  7
STANDARD
  9
$CLAYER
  8
0
  9
$CELTYPE
  6
BYLAYER
  9
$CECOLOR
 62
   256
  9
$DIMSCALE
 40
1.0
  9
$DIMASZ
 40
0.1875
  9
$DIMEXO
 40
0.0625
  9
$DIMDLI
 40
0.4443307087
  9
$DIMRND
 40
0.0
  9
$DIMDLE
 40
0.0
  9
$DIMEXE
 40
0.125
  9
$DIMTP
 40
0.01
  9
$DIMTM
 40
0.01
  9
$DIMTXT
 40
2.0
  9
$DIMCEN
 40
0.1052362205
  9
$DIMTSZ
 40
0.0
  9
$DIMTOL
 70
     1
  9
$DIMLIM
 70
     0
  9
$DIMTIH
 70
     1
  9
$DIMTOH
 70
     1
  9
$DIMSE1
 70
     0
  9
$DIMSE2
 70
     0
  9
$DIMTAD
 70
     0
  9
$DIMZIN
 70
     0
  9
$DIMBLK
  1

  9
$DIMASO
 70
     1
  9
$DIMSHO
 70
     1
  9
$DIMPOST
  1
\X
  9
$DIMAPOST
  1

  9
$DIMALT
 70
     1
  9
$DIMALTD
 70
     2
  9
$DIMALTF
 40
25.3999999999999986
  9
$DIMLFAC
 40
1.0
  9
$DIMTOFL
 70
     0
  9
$DIMTVP
 40
0.0
  9
$DIMTIX
 70
     0
  9
$DIMSOXD
 70
     0
  9
$DIMSAH
 70
     0
  9
$DIMBLK1
  1

  9
$DIMBLK2
  1

  9
$DIMSTYLE
  2
STANDARD
  9
$DIMCLRD
 70
     0
  9
$DIMCLRE
 70
     0
  9
$DIMCLRT
 70
     0
  9
$DIMTFAC
 40
1.0
  9
$DIMGAP
 40
0.09
  9
$LUNITS
 70
     2
  9
$LUPREC
 70
     4
  9
$SKETCHINC
 40
0.1
  9
$FILLETRAD
 40
0.0
  9
$AUNITS
 70
     0
  9
$AUPREC
 70
     0
  9
$MENU
  1
.
  9
$ELEVATION
 40
0.0
  9
$PELEVATION
 40
0.0
  9
$THICKNESS
 40
0.0
  9
$LIMCHECK
 70
     0
  9
$BLIPMODE
 70
     0
  9
$CHAMFERA
 40
0.0
  9
$CHAMFERB
 40
0.0
  9
$SKPOLY
 70
     0
  9
$TDCREATE
 40
2458060.468368056230247
  9
$TDUPDATE
 40
2459348.4510648148134351
  9
$TDINDWG
 40
0.5120903935
  9
$TDUSRTIMER
 40
0.5120903935
  9
$USRTIMER
 70
     1
  9
$ANGBASE
 50
0.0
  9
$ANGDIR
 70
     0
  9
$PDMODE
 70
     0
  9
$PDSIZE
 40
0.3125
  9
$PLINEWID
 40
0.0
  9
$COORDS
 70
     1
  9
$SPLFRAME
 70
     0
  9
$SPLINETYPE
 70
     6
  9
$SPLINESEGS
 70
     8
  9
$ATTDIA
 70
     1
  9
$ATTREQ
 70
     1
  9
$HANDLING
 70
     1
  9
$HANDSEED
  5
20909
  9
$SURFTAB1
 70
     6
  9
$SURFTAB2
 70
     6
  9
$SURFTYPE
 70
     6
  9
$SURFU
 70
     6
  9
$SURFV
 70
     6
  9
$UCSNAME
  2

  9
$UCSORG
 10
0.0
 20
0.0
 30
0.0
  9
$UCSXDIR
 10
1.0
 20
0.0
 30
0.0
  9
$UCSYDIR
 10
0.0
 20
1.0
 30
0.0
  9
$PUCSNAME
  2

  9
$PUCSORG
 10
0.0
 20
0.0
 30
0.0
  9
$PUCSXDIR
 10
1.0
 20
0.0
 30
0.0
  9
$PUCSYDIR
 10
0.0
 20
1.0
 30
0.0
  9
$USERI1
 70
     0
  9
$USERI2
 70
     0
  9
$USERI3
 70
     0
  9
$USERI4
 70
     0
  9
$USERI5
 70
     0
  9
$USERR1
 40
0.0
  9
$USERR2
 40
0.0
  9
$USERR3
 40
0.0
  9
$USERR4
 40
0.0
  9
$USERR5
 40
0.0
  9
$WORLDVIEW
 70
     1
  9
$SHADEDGE
 70
     3
  9
$SHADEDIF
 70
    70
  9
$TILEMODE
 70
     1
  9
$MAXACTVP
 70
    64
  9
$PLIMCHECK
 70
     0
  9
$PEXTMIN
 10
1.0000000000000000E+20
 20
1.0000000000000000E+20
 30
1.0000000000000000E+20
  9
$PEXTMAX
 10
-1.0000000000000000E+20
 20
-1.0000000000000000E+20
 30
-1.0000000000000000E+20
  9
$PLIMMIN
 10
0.0
 20
0.0
  9
$PLIMMAX
 10
12.0
 20
9.0
  9
$UNITMODE
 70
     0
  9
$VISRETAIN
 70
     1
  9
$PLINEGEN
 70
     0
  9
$PSLTSCALE
 70
     1
  0
ENDSEC
  0
SECTION
  2
TABLES
  0
TABLE
  2
VPORT
 70
     1
  0
VPORT
  2
*ACTIVE
 70
     0
 10
0.0
 20
0.0
 11
1.0
 21
1.0
 12
576.9705692684918859
 22
139.0778844482640011
 13
0.0
 23
0.0
 14
1.0
 24
1.0
 15
0.0
 25
0.0
 16
0.0
 26
0.0
 36
60.4960186965801583
 17
3911.3653564453120453
 27
132.5796051025390057
 37
0.0
 40
8.6696132533873822
 41
2.404287901990811
 42
50.0
 43
0.0
 44
0.0
 50
0.0
 51
0.0
 71
     0
 72
   100
 73
     1
 74
     1
 75
     0
 76
     0
 77
     0
 78
     0
  0
ENDTAB
  0
TABLE
  2
LTYPE
 70
     2
  0
LTYPE
  2
CONTINUOUS
 70
     0
  3
Solid line
 72
    65
 73
     0
 40
0.0
  0
LTYPE
  2
PHANTOM2
 70
     0
  3
___ _ _ ___ _ _ ___ _ _ ___ _ _
 72
    65
 73
     6
 40
1.25
 49
0.625
 49
-0.125
 49
0.125
 49
-0.125
 49
0.125
 49
-0.125
  0
ENDTAB
  0
TABLE
  2
LAYER
 70
     2
  0
LAYER
  2
0
 70
     0
 62
   255
  6
CONTINUOUS
  0
LAYER
  2
DEFPOINTS
 70
     0
 62
     7
  6
CONTINUOUS
  0
ENDTAB
  0
TABLE
  2
STYLE
 70
     1
  0
STYLE
  2
STANDARD
 70
     0
 40
0.0
 41
0.8
 50
0.0
 71
     0
 42
0.2
  3
txt
  4

  0
ENDTAB
  0
TABLE
  2
VIEW
 70
     0
  0
ENDTAB
  0
TABLE
  2
UCS
 70
     0
  0
ENDTAB
  0
TABLE
  2
APPID
 70
    11
  0
APPID
  2
ACAD
 70
     0
  0
APPID
  2
ACAD_MLEADERVER
 70
     0
  0
APPID
  2
ACAD_EXEMPT_FROM_CAD_STANDARDS
 70
     0
  0
APPID
  2
ACAD_NAV_VCDISPLAY
 70
     0
  0
APPID
  2
ACAECLAYERSTANDARD
 70
     0
  0
APPID
  2
ACCMTRANSPARENCY
 70
     0
  0
APPID
  2
ACAD_DSTYLE_DIMJAG
 70
     0
  0
APPID
  2
ACAD_DSTYLE_DIMTALN
 70
     0
  0
APPID
  2
ACDBATTR
 70
     0
  0
APPID
  2
ACADANNOTATIVE
 70
     0
  0
APPID
  2
DCO15
 70
     0
  0
ENDTAB
  0
TABLE
  2
DIMSTYLE
 70
     1
  0
DIMSTYLE
  2
STANDARD
 70
     0
  3

  4

  5

  6

  7

 40
1.0
 41
0.1875
 42
0.0625
 43
0.38
 44
0.125
 45
0.0
 46
0.0
 47
0.01
 48
0.01
140
0.15625
141
0.09
142
0.0
143
25.3999999999999986
144
1.0
145
0.0
146
1.0
147
0.09
 71
     1
 72
     0
 73
     1
 74
     1
 75
     0
 76
     0
 77
     0
 78
     4
170
     0
171
     2
172
     0
173
     0
174
     0
175
     0
176
     0
177
     0
178
     0
  0
ENDTAB
  0
ENDSEC
  0
SECTION
  2
BLOCKS
  0
BLOCK
  8
0
  2
$MODEL_SPACE
 70
     0
 10
0.0
 20
0.0
 30
0.0
  3
$MODEL_SPACE
  1

  0
ENDBLK
  5
21
  8
0
  0
BLOCK
 67
     1
  8
0
  2
$PAPER_SPACE
 70
     0
 10
0.0
 20
0.0
 30
0.0
  3
$PAPER_SPACE
  1

  0
ENDBLK
  5
1D
 67
     1
  8
0
  0
ENDSEC
  0
SECTION
  2
ENTITIES
  0
ATTDEF
  5
20106
  8
DEFPOINTS
 10
4488.2792988004466679
 20
271.6500959655280099
 30
0.0
 40
0.001
  1
K-14682X-4
  3

  2
MODELNUMBER
 70
     0
1001
ACDBATTR
1070
     0
1070
     1
  0
ATTDEF
  5
20107
  8
DEFPOINTS
 10
4488.2791729907903573
 20
271.6484291251488798
 30
0.0
 40
0.001
  1
LOURE
  3

  2
TRADENAME
 70
     0
1001
ACDBATTR
1070
     0
1070
     1
  0
ATTDEF
  5
20108
  8
DEFPOINTS
 10
4488.2792988004466679
 20
271.6467626321946796
 30
0.0
 40
0.001
  1
SHOWER TRIM
  3

  2
PRODUCT
 70
     0
1001
ACDBATTR
1070
     0
1070
     1
  0
LINE
  5
20650
  8
0
 10
4485.0588222427231813
 20
274.7147280451696929
 30
0.0
 11
4485.0588222427231813
 21
268.5875452729696917
 31
0.0
  0
LINE
  5
20651
  8
0
 10
4485.2157032975219408
 20
268.430664218069694
 30
0.0
 11
4487.7571503533217765
 21
268.430664218069694
 31
0.0
  0
LINE
  5
20652
  8
0
 10
4488.0927775967220441
 20
268.430664218069694
 30
0.0
 11
4488.4658117706221674
 21
268.430664218069694
 31
0.0
  0
LINE
  5
20653
  8
0
 10
4488.801439014020616
 20
268.430664218069694
 30
0.0
 11
4491.3428860698222707
 21
268.430664218069694
 31
0.0
  0
LINE
  5
20654
  8
0
 10
4487.7674836600217532
 20
268.4409975248697151
 30
0.0
 11
4488.0824442900220674
 21
268.4409975248697151
 31
0.0
  0
LINE
  5
20655
  8
0
 10
4488.4761450774221885
 20
268.4409975248697151
 30
0.0
 11
4488.7911057073206393
 21
268.4409975248697151
 31
0.0
  0
LINE
  5
20656
  8
0
 10
4488.0824442900220674
 20
268.4409975248697151
 30
0.0
 11
4488.0927775967220441
 21
268.430664218069694
 31
0.0
  0
LINE
  5
20657
  8
0
 10
4487.2615781482209059
 20
269.5428689425697257
 30
0.0
 11
4489.2970112191223961
 21
269.5428689425697257
 31
0.0
  0
LINE
  5
20658
  8
0
 10
4488.7911057073206393
 20
268.4409975248697151
 30
0.0
 11
4488.801439014020616
 21
268.430664218069694
 31
0.0
  0
LINE
  5
20659
  8
0
 10
4487.2202395655222062
 20
271.6668831246698232
 30
0.0
 11
4487.2202395655222062
 21
273.7220016909698188
 31
0.0
  0
LINE
  5
2065A
  8
0
 10
4487.2300820852224206
 20
269.5743650054698151
 30
0.0
 11
4487.2300820852224206
 21
273.7121602810697141
 31
0.0
  0
LINE
  5
2065B
  8
0
 10
4489.3285072821217909
 20
273.7121602810697141
 30
0.0
 11
4489.3285072821217909
 21
269.5743650054698151
 31
0.0
  0
LINE
  5
2065C
  8
0
 10
4489.3383498018220052
 20
273.7220028007698147
 30
0.0
 11
4489.3383498018220052
 21
271.6668871669696728
 31
0.0
  0
LINE
  5
2065D
  8
0
 10
4487.7674836600217532
 20
268.4409975248697151
 30
0.0
 11
4487.7571503533217765
 21
268.430664218069694
 31
0.0
  0
LINE
  5
2065E
  8
0
 10
4489.2970112191223961
 20
273.7436563440696773
 30
0.0
 11
4487.2615781482209059
 21
273.7436563440696773
 31
0.0
  0
LINE
  5
2065F
  8
0
 10
4487.2517341250222671
 20
273.7534988637697211
 30
0.0
 11
4489.3068526177221429
 21
273.7534988637697211
 31
0.0
  0
LINE
  5
20660
  8
0
 10
4488.4761450774221885
 20
268.4409975248697151
 30
0.0
 11
4488.4658117706221674
 21
268.430664218069694
 31
0.0
  0
LINE
  5
20661
  8
0
 10
4491.4997671246210302
 20
274.7147280451696929
 30
0.0
 11
4491.4997671246210302
 21
268.5875452729696917
 31
0.0
  0
LINE
  5
20662
  8
0
 10
4485.2157032975219408
 20
274.871609099969703
 30
0.0
 11
4491.3428860698222707
 21
274.871609099969703
 31
0.0
  0
ARC
  5
20663
  8
0
 10
4485.2747520122966307
 20
274.6556873632566749
 30
0.0
 40
0.1570394751349353
 50
90.0606981219536777
 51
179.942202728943812
  0
ARC
  5
20664
  8
0
 10
4485.2747577071577325
 20
268.6465996822053057
 30
0.0
 40
0.1570532086858842
 50
180.062770182281497
 51
269.937229488997275
  0
ARC
  5
20665
  8
0
 10
4491.2838454810807889
 20
274.6556793776787799
 30
0.0
 40
0.1570393816125094
 50
0.0606809067538926
 51
89.9422345438866557
  0
ARC
  5
20666
  8
0
 10
4491.2838513562219305
 20
268.6465800741697194
 30
0.0
 40
0.1570254224
 50
270.055583079382302
 51
359.9443412926985957
  0
ARC
  5
20667
  8
0
 10
4487.2615781482209059
 20
269.5743650054698151
 30
0.0
 40
0.031496063
 50
180.0
 51
270.0
  0
ARC
  5
20668
  8
0
 10
4489.2970112191223961
 20
273.7121602810697141
 30
0.0
 40
0.031496063
 50
0.0
 51
90.0
  0
ARC
  5
20669
  8
0
 10
4487.2615781482209059
 20
273.7121602810697141
 30
0.0
 40
0.031496063
 50
90.0000000036998244
 51
180.0
  0
ARC
  5
2066A
  8
0
 10
4489.2970112191223961
 20
269.5743650054698151
 30
0.0
 40
0.031496063
 50
270.0
 51
0.0
  0
ARC
  5
2066B
  8
0
 10
4487.2517356285970891
 20
273.7220028007109818
 30
0.0
 40
0.0314960630946445
 50
90.0027352151006284
 51
180.0020187757897077
  0
ARC
  5
2066C
  8
0
 10
4489.3068537387880497
 20
273.7220028007556039
 30
0.0
 40
0.031496063034048
 50
0.000000047162995
 51
90.0020393770197558
  0
ARC
  5
2066D
  8
0
 10
4489.3068537383205694
 20
271.6668846909190052
 30
0.0
 40
0.0314960635975017
 50
313.4325367502439121
 51
0.004504285326856
  0
ARC
  5
2066E
  8
0
 10
4487.2517356287253278
 20
271.6668846907105035
 30
0.0
 40
0.0314960632424456
 50
180.0028488489845984
 51
226.5674633805788858
  0
LINE
  5
2066F
  8
0
 10
4485.2745856475221444
 20
274.8127267502696895
 30
0.0
 11
4491.2840038077511053
 21
274.8127186794790191
 31
0.0
  0
LINE
  5
20670
  8
0
 10
4491.4408847746208266
 20
274.6558456951697167
 30
0.0
 11
4491.4408767045306377
 21
268.6464275353487778
 31
0.0
  0
LINE
  5
20671
  8
0
 10
4491.2840036877760213
 20
268.4895547256588202
 30
0.0
 11
4485.2745856472211017
 21
268.4895465677698212
 31
0.0
  0
LINE
  5
20672
  8
0
 10
4485.1177045927206564
 20
268.6464276231696999
 30
0.0
 11
4485.1177126170623524
 21
274.6558457772210886
 31
0.0
  0
ARC
  5
20673
  8
0
 10
4485.2154578084537206
 20
268.5872997838026208
 30
0.0
 40
0.1566357581056516
 50
179.9102025285945956
 51
270.0897974713988106
  0
ARC
  5
20674
  8
0
 10
4485.2154578084682726
 20
274.714973534322894
 30
0.0
 40
0.1566357581254079
 50
89.9102025345417246
 51
180.0897974893474895
  0
ARC
  5
20675
  8
0
 10
4491.3431315588750294
 20
274.714973534322894
 30
0.0
 40
0.1566357581254111
 50
359.9102025106524252
 51
90.0897974660314986
  0
ARC
  5
20676
  8
0
 10
4491.3431315588750294
 20
268.5872997838166043
 30
0.0
 40
0.1566357581253156
 50
269.9102025471523802
 51
0.0897974893605804
  0
ENDSEC
  0
EOF
