  0
SECTION
  2
HEADER
  9
$ACADVER
  1
AC1009
  9
$INSBASE
 10
96.1399810157094379
 20
-46.7148789396055335
 30
0.0
  9
$EXTMIN
 10
85.0612055474641551
 20
-50.4354262071332187
 30
-0.0000000000000058
  9
$EXTMAX
 10
107.2128165959311019
 20
-43.0900312505265433
 30
0.0000000000000104
  9
$LIMMIN
 10
0.0
 20
0.0
  9
$LIMMAX
 10
11.6929133858000007
 20
8.2677165353999982
  9
$ORTHOMODE
 70
     0
  9
$REGENMODE
 70
     1
  9
$FILLMODE
 70
     1
  9
$QTEXTMODE
 70
     0
  9
$MIRRTEXT
 70
     0
  9
$DRAGMODE
 70
     2
  9
$LTSCALE
 40
0.6431102362
  9
$OSMODE
 70
  4095
  9
$ATTMODE
 70
     1
  9
$TEXTSIZE
 40
0.2
  9
$TRACEWID
 40
0.05
  9
$TEXTSTYLE
  7
STANDARD
  9
$CLAYER
  8
0
  9
$CELTYPE
  6
BYLAYER
  9
$CECOLOR
 62
   256
  9
$DIMSCALE
 40
1.0
  9
$DIMASZ
 40
0.1875
  9
$DIMEXO
 40
0.0625
  9
$DIMDLI
 40
0.4443307087
  9
$DIMRND
 40
0.0
  9
$DIMDLE
 40
0.0
  9
$DIMEXE
 40
0.125
  9
$DIMTP
 40
0.01
  9
$DIMTM
 40
0.01
  9
$DIMTXT
 40
1.0
  9
$DIMCEN
 40
0.1052362205
  9
$DIMTSZ
 40
0.0
  9
$DIMTOL
 70
     1
  9
$DIMLIM
 70
     0
  9
$DIMTIH
 70
     1
  9
$DIMTOH
 70
     1
  9
$DIMSE1
 70
     0
  9
$DIMSE2
 70
     0
  9
$DIMTAD
 70
     0
  9
$DIMZIN
 70
     0
  9
$DIMBLK
  1

  9
$DIMASO
 70
     1
  9
$DIMSHO
 70
     1
  9
$DIMPOST
  1
\X
  9
$DIMAPOST
  1

  9
$DIMALT
 70
     1
  9
$DIMALTD
 70
     2
  9
$DIMALTF
 40
25.3999999999999986
  9
$DIMLFAC
 40
1.0
  9
$DIMTOFL
 70
     0
  9
$DIMTVP
 40
0.0
  9
$DIMTIX
 70
     0
  9
$DIMSOXD
 70
     0
  9
$DIMSAH
 70
     0
  9
$DIMBLK1
  1

  9
$DIMBLK2
  1

  9
$DIMSTYLE
  2
STANDARD
  9
$DIMCLRD
 70
     0
  9
$DIMCLRE
 70
     0
  9
$DIMCLRT
 70
     0
  9
$DIMTFAC
 40
1.0
  9
$DIMGAP
 40
0.09
  9
$LUNITS
 70
     2
  9
$LUPREC
 70
     4
  9
$SKETCHINC
 40
0.1
  9
$FILLETRAD
 40
0.0
  9
$AUNITS
 70
     0
  9
$AUPREC
 70
     0
  9
$MENU
  1
.
  9
$ELEVATION
 40
0.0
  9
$PELEVATION
 40
0.0
  9
$THICKNESS
 40
0.0
  9
$LIMCHECK
 70
     0
  9
$BLIPMODE
 70
     0
  9
$CHAMFERA
 40
0.0
  9
$CHAMFERB
 40
0.0
  9
$SKPOLY
 70
     0
  9
$TDCREATE
 40
2458172.4620254631154239
  9
$TDUPDATE
 40
2459060.7349999998696148
  9
$TDINDWG
 40
0.1031193634
  9
$TDUSRTIMER
 40
0.1031193634
  9
$USRTIMER
 70
     1
  9
$ANGBASE
 50
0.0
  9
$ANGDIR
 70
     0
  9
$PDMODE
 70
     0
  9
$PDSIZE
 40
0.3125
  9
$PLINEWID
 40
0.0
  9
$COORDS
 70
     1
  9
$SPLFRAME
 70
     0
  9
$SPLINETYPE
 70
     6
  9
$SPLINESEGS
 70
     8
  9
$ATTDIA
 70
     1
  9
$ATTREQ
 70
     1
  9
$HANDLING
 70
     1
  9
$HANDSEED
  5
CC31
  9
$SURFTAB1
 70
     6
  9
$SURFTAB2
 70
     6
  9
$SURFTYPE
 70
     6
  9
$SURFU
 70
     6
  9
$SURFV
 70
     6
  9
$UCSNAME
  2

  9
$UCSORG
 10
0.0
 20
0.0
 30
0.0
  9
$UCSXDIR
 10
1.0
 20
0.0
 30
0.0
  9
$UCSYDIR
 10
0.0
 20
1.0
 30
0.0
  9
$PUCSNAME
  2

  9
$PUCSORG
 10
0.0
 20
0.0
 30
0.0
  9
$PUCSXDIR
 10
1.0
 20
0.0
 30
0.0
  9
$PUCSYDIR
 10
0.0
 20
1.0
 30
0.0
  9
$USERI1
 70
     0
  9
$USERI2
 70
     0
  9
$USERI3
 70
     0
  9
$USERI4
 70
     0
  9
$USERI5
 70
     0
  9
$USERR1
 40
0.0
  9
$USERR2
 40
0.0
  9
$USERR3
 40
0.0
  9
$USERR4
 40
0.0
  9
$USERR5
 40
0.0
  9
$WORLDVIEW
 70
     1
  9
$SHADEDGE
 70
     3
  9
$SHADEDIF
 70
    70
  9
$TILEMODE
 70
     1
  9
$MAXACTVP
 70
    64
  9
$PLIMCHECK
 70
     0
  9
$PEXTMIN
 10
1.0000000000000000E+20
 20
1.0000000000000000E+20
 30
1.0000000000000000E+20
  9
$PEXTMAX
 10
-1.0000000000000000E+20
 20
-1.0000000000000000E+20
 30
-1.0000000000000000E+20
  9
$PLIMMIN
 10
0.0
 20
0.0
  9
$PLIMMAX
 10
12.0
 20
9.0
  9
$UNITMODE
 70
     0
  9
$VISRETAIN
 70
     1
  9
$PLINEGEN
 70
     0
  9
$PSLTSCALE
 70
     1
  0
ENDSEC
  0
SECTION
  2
TABLES
  0
TABLE
  2
VPORT
 70
     1
  0
VPORT
  2
*ACTIVE
 70
     0
 10
0.0
 20
0.0
 11
1.0
 21
1.0
 12
-28.4741475283749885
 22
-52.0750028992077034
 13
0.0
 23
0.0
 14
1.0
 24
1.0
 15
0.0
 25
0.0
 16
0.0
 26
0.0
 36
30.6214257250603907
 17
124.6111586000725993
 27
5.3122741703778242
 37
0.0
 40
8.3897594374356466
 41
2.6486111111111108
 42
50.0
 43
0.0
 44
0.0
 50
0.0
 51
0.0
 71
     0
 72
   100
 73
     1
 74
     1
 75
     0
 76
     0
 77
     0
 78
     1
  0
ENDTAB
  0
TABLE
  2
LTYPE
 70
     2
  0
LTYPE
  2
CONTINUOUS
 70
     0
  3
Solid line
 72
    65
 73
     0
 40
0.0
  0
LTYPE
  2
PHANTOM2
 70
     0
  3
___ _ _ ___ _ _ ___ _ _ ___ _ _
 72
    65
 73
     6
 40
1.25
 49
0.625
 49
-0.125
 49
0.125
 49
-0.125
 49
0.125
 49
-0.125
  0
ENDTAB
  0
TABLE
  2
LAYER
 70
     2
  0
LAYER
  2
0
 70
     0
 62
   255
  6
CONTINUOUS
  0
LAYER
  2
DEFPOINTS
 70
     0
 62
     7
  6
CONTINUOUS
  0
ENDTAB
  0
TABLE
  2
STYLE
 70
     1
  0
STYLE
  2
STANDARD
 70
     0
 40
0.0
 41
0.8
 50
0.0
 71
     0
 42
0.2
  3
txt
  4

  0
ENDTAB
  0
TABLE
  2
VIEW
 70
     0
  0
ENDTAB
  0
TABLE
  2
UCS
 70
     0
  0
ENDTAB
  0
TABLE
  2
APPID
 70
     9
  0
APPID
  2
ACAD
 70
     0
  0
APPID
  2
ACAD_MLEADERVER
 70
     0
  0
APPID
  2
ACAD_EXEMPT_FROM_CAD_STANDARDS
 70
     0
  0
APPID
  2
ACAD_DSTYLE_DIMJAG
 70
     0
  0
APPID
  2
ACAD_DSTYLE_DIMTALN
 70
     0
  0
APPID
  2
ACAD_NAV_VCDISPLAY
 70
     0
  0
APPID
  2
ACAECLAYERSTANDARD
 70
     0
  0
APPID
  2
ACCMTRANSPARENCY
 70
     0
  0
APPID
  2
ACDBATTR
 70
     0
  0
ENDTAB
  0
TABLE
  2
DIMSTYLE
 70
     1
  0
DIMSTYLE
  2
STANDARD
 70
     0
  3

  4

  5

  6

  7

 40
1.0
 41
0.1875
 42
0.0625
 43
0.38
 44
0.125
 45
0.0
 46
0.0
 47
0.01
 48
0.01
140
0.15625
141
0.09
142
0.0
143
25.3999999999999986
144
1.0
145
0.0
146
1.0
147
0.09
 71
     1
 72
     0
 73
     1
 74
     1
 75
     0
 76
     0
 77
     0
 78
     4
170
     0
171
     2
172
     0
173
     0
174
     0
175
     0
176
     0
177
     0
178
     0
  0
ENDTAB
  0
ENDSEC
  0
SECTION
  2
BLOCKS
  0
BLOCK
  8
0
  2
$MODEL_SPACE
 70
     0
 10
0.0
 20
0.0
 30
0.0
  3
$MODEL_SPACE
  1

  0
ENDBLK
  5
21
  8
0
  0
BLOCK
 67
     1
  8
0
  2
$PAPER_SPACE
 70
     0
 10
0.0
 20
0.0
 30
0.0
  3
$PAPER_SPACE
  1

  0
ENDBLK
  5
1D
 67
     1
  8
0
  0
BLOCK
  8
0
  2
_FILLED
 70
     0
 10
0.0
 20
0.0
 30
0.0
  3
_FILLED
  1

  0
SOLID
  5
B3EB
  8
0
  6
BYBLOCK
 62
     0
 10
0.0
 20
0.0
 30
0.0
 11
-1.0
 21
0.1666666667
 31
0.0
 12
-1.0
 22
-0.1666666667
 32
0.0
 13
-1.0
 23
-0.1666666667
 33
0.0
  0
ENDBLK
  5
B3EC
  8
0
  6
BYBLOCK
 62
     0
  0
ENDSEC
  0
SECTION
  2
ENTITIES
  0
ATTDEF
  5
C3A9
  8
DEFPOINTS
 10
96.140369906311264
 20
-46.7109625032920306
 30
0.0
 40
0.001
  1
K-14715IN-8
  3

  2
MODELNUMBER
 70
     0
1001
ACDBATTR
1070
     0
1070
     1
  0
ATTDEF
  5
C3AA
  8
DEFPOINTS
 10
96.140369906311264
 20
-46.7126291699586886
 30
0.0
 40
0.001
  1
PARLIAMENT
  3

  2
TRADENAME
 70
     0
1001
ACDBATTR
1070
     0
1070
     1
  0
ATTDEF
  5
C3AB
  8
DEFPOINTS
 10
96.140369906311264
 20
-46.7142958366253467
 30
0.0
 40
0.001
  1
BATHROOM SINK
  3

  2
PRODUCT
 70
     0
1001
ACDBATTR
1070
     0
1070
     1
  0
LINE
  5
C6AA
  8
0
 10
85.3103622109094317
 20
-43.0928316955055308
 30
0.0
 11
106.9823469487722036
 21
-43.0928316955055308
 31
0.0
  0
ARC
  5
C6AB
  8
0
 10
106.975973418510705
 20
-43.329115113585857
 30
0.0
 40
0.2363693640783675
 50
0.0719903324809114
 51
91.5451406802939687
  0
ARC
  5
C6AC
  8
0
 10
106.9761322534248933
 20
-43.3290531489255883
 30
0.0
 40
0.2362104595082111
 50
352.4890449182099132
 51
0.0570084549517581
  0
ARC
  5
C6AD
  8
0
 10
96.0871780688177637
 20
-41.8962311126534317
 30
0.0
 40
11.2190289526602101
 50
334.6914640797447191
 51
352.5034958449347755
  0
ARC
  5
C6AE
  8
0
 10
106.194753251739499
 20
-46.6770526896692388
 30
0.0
 40
0.0378389277921128
 50
271.4832120674390126
 51
336.2662079784846014
  0
LINE
  5
C6AF
  8
0
 10
106.1957326761695981
 20
-46.7148789396055335
 30
0.0
 11
86.0861882042094351
 21
-46.7148789396055335
 31
0.0
  0
ARC
  5
C6B0
  8
0
 10
86.0861703663382229
 20
-46.6755569804292776
 30
0.0
 40
0.0393219632222023
 50
205.3209016181241111
 51
270.0259914482015802
  0
ARC
  5
C6B1
  8
0
 10
96.1755894431550047
 20
-41.9018065999957585
 30
0.0
 40
11.2010901924197306
 50
187.4904338601517111
 51
205.3209016181241111
  0
ARC
  5
C6B2
  8
0
 10
85.3627499505213763
 20
-43.323525087228667
 30
0.0
 40
0.2951843914937642
 50
181.0728782339602105
 51
187.487021669630991
  0
ARC
  5
C6B3
  8
0
 10
85.312373033875474
 20
-43.3377330625979695
 30
0.0
 40
0.2449096221318158
 50
90.4704305317882955
 51
177.9687085147357948
  0
ARC
  5
C6B4
  8
0
 10
86.8548650513094458
 20
-47.1085797270055266
 30
0.0
 40
0.3937007873999985
 50
27.0481860903501712
 51
90.0
  0
ARC
  5
C6B5
  8
0
 10
97.6517351127849906
 20
-41.5958571429614423
 30
0.0
 40
11.7291088462211093
 50
207.0481860903501001
 51
217.7311120231813959
  0
ARC
  5
C6B6
  8
0
 10
97.7108490388642679
 20
-41.5501174133420932
 30
0.0
 40
11.8038522681534594
 50
217.7311120231813959
 51
222.8417011569368071
  0
ARC
  5
C6B7
  8
0
 10
98.3666743855343242
 20
-40.9419292577938592
 30
0.0
 40
12.6982793014457407
 50
222.8417011569368071
 51
223.7731858324563916
  0
ARC
  5
C6B8
  8
0
 10
89.7269117864682926
 20
-49.2194054761227591
 30
0.0
 40
0.7332423055472154
 50
223.7731858324555958
 51
251.1651421607753036
  0
ARC
  5
C6B9
  8
0
 10
89.777977520098645
 20
-49.0696994788013967
 30
0.0
 40
0.8914181405701167
 50
251.1651421607753036
 51
269.3776445433267099
  0
LINE
  5
C6BA
  8
0
 10
89.7682949913094319
 20
-49.9610650323055268
 30
0.0
 11
94.8223761228345552
 21
-49.9609550053158884
 31
0.0
  0
LINE
  5
C6BB
  8
0
 10
97.4573810557926237
 20
-49.9608976414444115
 30
0.0
 11
102.5262537826717022
 21
-49.9607872924427809
 31
0.0
  0
LINE
  5
C6BC
  8
0
 10
94.8638825232094405
 20
-50.4353513806055318
 30
0.0
 11
94.7872353326094554
 21
-49.559314213605532
 31
0.0
  0
ARC
  5
C6BD
  8
0
 10
95.3242774127597841
 20
-49.5123267475160915
 30
0.0
 40
0.5390937004099738
 50
169.8147305825418982
 51
185.000251166207903
  0
ARC
  5
C6BE
  8
0
 10
94.9003823154853308
 20
-49.4418865115469117
 30
0.0
 40
0.1095672895962807
 50
92.2709825281413458
 51
166.8704416596621058
  0
LINE
  5
C6BF
  8
0
 10
94.8960406300094377
 20
-49.3324052770055275
 30
0.0
 11
95.0057002401746757
 21
-49.3240388468055286
 31
0.0
  0
LINE
  5
C6C0
  8
0
 10
95.0057002401746757
 20
-49.3240388468055286
 30
0.0
 11
97.2745734881094251
 21
-49.3240388468055286
 31
0.0
  0
LINE
  5
C6C1
  8
0
 10
97.2745734881094251
 20
-49.3240388468055286
 30
0.0
 11
97.3839857851053949
 21
-49.3324076212880129
 31
0.0
  0
ARC
  5
C6C2
  8
0
 10
97.3745818713838815
 20
-49.45535319751
 30
0.0
 40
0.1233046970145009
 50
44.3808146218861381
 51
85.6260525855103651
  0
ARC
  5
C6C3
  8
0
 10
97.321279789714211
 20
-49.468482257264867
 30
0.0
 40
0.1728489733679574
 50
2.600651451705458
 51
35.0928145584468822
  0
ARC
  5
C6C4
  8
0
 10
96.202270452011561
 20
-49.4939613731673305
 30
0.0
 40
1.2921100256853639
 50
352.5181108592253736
 51
1.477755804813071
  0
LINE
  5
C6C5
  8
0
 10
97.4833795439094359
 20
-49.6622106321055412
 30
0.0
 11
97.4160833779094304
 21
-50.4353513806055318
 31
0.0
  0
ARC
  5
C6C6
  8
0
 10
105.4251008498093967
 20
-47.1085797270055266
 30
0.0
 40
0.3937007873999985
 50
90.0
 51
152.9518139096497862
  0
ARC
  5
C6C7
  8
0
 10
94.6282307883338945
 20
-41.5958571429614423
 30
0.0
 40
11.7291088462211093
 50
322.2688879768189167
 51
332.9518139096493883
  0
ARC
  5
C6C8
  8
0
 10
94.569116862254603
 20
-41.5501174133420932
 30
0.0
 40
11.8038522681534594
 50
317.1582988430632213
 51
322.2688879768189167
  0
ARC
  5
C6C9
  8
0
 10
93.9132915155845751
 20
-40.9419292577938592
 30
0.0
 40
12.6982793014457407
 50
316.22681416754358
 51
317.1582988430635055
  0
ARC
  5
C6CA
  8
0
 10
102.5530541146506067
 20
-49.2194054761227591
 30
0.0
 40
0.7332423055472154
 50
288.8348578392245827
 51
316.22681416754358
  0
ARC
  5
C6CB
  8
0
 10
102.5019883810201975
 20
-49.069699478801347
 30
0.0
 40
0.8914181405701685
 50
271.5598480635009082
 51
288.8348578392245258
  0
LINE
  5
C6CC
  8
0
 10
94.8638786535094312
 20
-50.4353513806055318
 30
0.0
 11
97.4160833779094446
 21
-50.4353513806055318
 31
0.0
  0
ENDSEC
  0
EOF
