  0
SECTION
  2
HEADER
  9
$ACADVER
  1
AC1009
  9
$INSBASE
 10
123.5893607301320998
 20
-29.8548269323586695
 30
0.0
  9
$EXTMIN
 10
112.5040410118899956
 20
-38.5630810378442135
 30
-0.0015258207003583
  9
$EXTMAX
 10
134.6645814452622005
 20
-21.1443654096607112
 30
0.0000000349246037
  9
$LIMMIN
 10
0.0
 20
0.0
  9
$LIMMAX
 10
11.6929133858000007
 20
8.2677165353999982
  9
$ORTHOMODE
 70
     0
  9
$REGENMODE
 70
     1
  9
$FILLMODE
 70
     1
  9
$QTEXTMODE
 70
     0
  9
$MIRRTEXT
 70
     0
  9
$DRAGMODE
 70
     2
  9
$LTSCALE
 40
0.6431102362
  9
$OSMODE
 70
  4095
  9
$ATTMODE
 70
     1
  9
$TEXTSIZE
 40
0.2
  9
$TRACEWID
 40
0.05
  9
$TEXTSTYLE
  7
STANDARD
  9
$CLAYER
  8
0
  9
$CELTYPE
  6
BYLAYER
  9
$CECOLOR
 62
   256
  9
$DIMSCALE
 40
1.0
  9
$DIMASZ
 40
0.1875
  9
$DIMEXO
 40
0.0625
  9
$DIMDLI
 40
0.4443307087
  9
$DIMRND
 40
0.0
  9
$DIMDLE
 40
0.0
  9
$DIMEXE
 40
0.125
  9
$DIMTP
 40
0.01
  9
$DIMTM
 40
0.01
  9
$DIMTXT
 40
1.0
  9
$DIMCEN
 40
0.1052362205
  9
$DIMTSZ
 40
0.0
  9
$DIMTOL
 70
     1
  9
$DIMLIM
 70
     0
  9
$DIMTIH
 70
     1
  9
$DIMTOH
 70
     1
  9
$DIMSE1
 70
     0
  9
$DIMSE2
 70
     0
  9
$DIMTAD
 70
     0
  9
$DIMZIN
 70
     0
  9
$DIMBLK
  1

  9
$DIMASO
 70
     1
  9
$DIMSHO
 70
     1
  9
$DIMPOST
  1
\X
  9
$DIMAPOST
  1

  9
$DIMALT
 70
     1
  9
$DIMALTD
 70
     2
  9
$DIMALTF
 40
25.3999999999999986
  9
$DIMLFAC
 40
1.0
  9
$DIMTOFL
 70
     0
  9
$DIMTVP
 40
0.0
  9
$DIMTIX
 70
     0
  9
$DIMSOXD
 70
     0
  9
$DIMSAH
 70
     0
  9
$DIMBLK1
  1

  9
$DIMBLK2
  1

  9
$DIMSTYLE
  2
STANDARD
  9
$DIMCLRD
 70
     0
  9
$DIMCLRE
 70
     0
  9
$DIMCLRT
 70
     0
  9
$DIMTFAC
 40
1.0
  9
$DIMGAP
 40
0.09
  9
$LUNITS
 70
     2
  9
$LUPREC
 70
     4
  9
$SKETCHINC
 40
0.1
  9
$FILLETRAD
 40
0.0
  9
$AUNITS
 70
     0
  9
$AUPREC
 70
     0
  9
$MENU
  1
.
  9
$ELEVATION
 40
0.0
  9
$PELEVATION
 40
0.0
  9
$THICKNESS
 40
0.0
  9
$LIMCHECK
 70
     0
  9
$BLIPMODE
 70
     0
  9
$CHAMFERA
 40
0.0
  9
$CHAMFERB
 40
0.0
  9
$SKPOLY
 70
     0
  9
$TDCREATE
 40
2458172.4620254631154239
  9
$TDUPDATE
 40
2459180.6324999998323619
  9
$TDINDWG
 40
0.1035128819
  9
$TDUSRTIMER
 40
0.1035128819
  9
$USRTIMER
 70
     1
  9
$ANGBASE
 50
0.0
  9
$ANGDIR
 70
     0
  9
$PDMODE
 70
     0
  9
$PDSIZE
 40
0.3125
  9
$PLINEWID
 40
0.0
  9
$COORDS
 70
     1
  9
$SPLFRAME
 70
     0
  9
$SPLINETYPE
 70
     6
  9
$SPLINESEGS
 70
     8
  9
$ATTDIA
 70
     1
  9
$ATTREQ
 70
     1
  9
$HANDLING
 70
     1
  9
$HANDSEED
  5
CBDF
  9
$SURFTAB1
 70
     6
  9
$SURFTAB2
 70
     6
  9
$SURFTYPE
 70
     6
  9
$SURFU
 70
     6
  9
$SURFV
 70
     6
  9
$UCSNAME
  2

  9
$UCSORG
 10
0.0
 20
0.0
 30
0.0
  9
$UCSXDIR
 10
1.0
 20
0.0
 30
0.0
  9
$UCSYDIR
 10
0.0
 20
1.0
 30
0.0
  9
$PUCSNAME
  2

  9
$PUCSORG
 10
0.0
 20
0.0
 30
0.0
  9
$PUCSXDIR
 10
1.0
 20
0.0
 30
0.0
  9
$PUCSYDIR
 10
0.0
 20
1.0
 30
0.0
  9
$USERI1
 70
     0
  9
$USERI2
 70
     0
  9
$USERI3
 70
     0
  9
$USERI4
 70
     0
  9
$USERI5
 70
     0
  9
$USERR1
 40
0.0
  9
$USERR2
 40
0.0
  9
$USERR3
 40
0.0
  9
$USERR4
 40
0.0
  9
$USERR5
 40
0.0
  9
$WORLDVIEW
 70
     1
  9
$SHADEDGE
 70
     3
  9
$SHADEDIF
 70
    70
  9
$TILEMODE
 70
     1
  9
$MAXACTVP
 70
    64
  9
$PLIMCHECK
 70
     0
  9
$PEXTMIN
 10
1.0000000000000000E+20
 20
1.0000000000000000E+20
 30
1.0000000000000000E+20
  9
$PEXTMAX
 10
-1.0000000000000000E+20
 20
-1.0000000000000000E+20
 30
-1.0000000000000000E+20
  9
$PLIMMIN
 10
0.0
 20
0.0
  9
$PLIMMAX
 10
12.0
 20
9.0
  9
$UNITMODE
 70
     0
  9
$VISRETAIN
 70
     1
  9
$PLINEGEN
 70
     0
  9
$PSLTSCALE
 70
     1
  0
ENDSEC
  0
SECTION
  2
TABLES
  0
TABLE
  2
VPORT
 70
     1
  0
VPORT
  2
*ACTIVE
 70
     0
 10
0.0
 20
0.0
 11
1.0
 21
1.0
 12
-1.026847371496513
 22
-35.1659973941302866
 13
0.0
 23
0.0
 14
1.0
 24
1.0
 15
0.0
 25
0.0
 16
0.0
 26
0.0
 36
30.6214257250603907
 17
124.6111586000725993
 27
5.3122741703778242
 37
0.0
 40
17.6406100947845701
 41
2.887234042553191
 42
50.0
 43
0.0
 44
0.0
 50
0.0
 51
0.0
 71
     0
 72
   100
 73
     1
 74
     1
 75
     0
 76
     0
 77
     0
 78
     1
  0
ENDTAB
  0
TABLE
  2
LTYPE
 70
     2
  0
LTYPE
  2
CONTINUOUS
 70
     0
  3
Solid line
 72
    65
 73
     0
 40
0.0
  0
LTYPE
  2
PHANTOM2
 70
     0
  3
___ _ _ ___ _ _ ___ _ _ ___ _ _
 72
    65
 73
     6
 40
1.25
 49
0.625
 49
-0.125
 49
0.125
 49
-0.125
 49
0.125
 49
-0.125
  0
ENDTAB
  0
TABLE
  2
LAYER
 70
     2
  0
LAYER
  2
0
 70
     0
 62
   255
  6
CONTINUOUS
  0
LAYER
  2
DEFPOINTS
 70
     0
 62
     7
  6
CONTINUOUS
  0
ENDTAB
  0
TABLE
  2
STYLE
 70
     1
  0
STYLE
  2
STANDARD
 70
     0
 40
0.0
 41
0.8
 50
0.0
 71
     0
 42
0.2
  3
txt
  4

  0
ENDTAB
  0
TABLE
  2
VIEW
 70
     0
  0
ENDTAB
  0
TABLE
  2
UCS
 70
     0
  0
ENDTAB
  0
TABLE
  2
APPID
 70
    10
  0
APPID
  2
ACAD
 70
     0
  0
APPID
  2
ACAD_MLEADERVER
 70
     0
  0
APPID
  2
ACAD_EXEMPT_FROM_CAD_STANDARDS
 70
     0
  0
APPID
  2
ACAD_DSTYLE_DIMJAG
 70
     0
  0
APPID
  2
ACAD_DSTYLE_DIMTALN
 70
     0
  0
APPID
  2
ACAD_NAV_VCDISPLAY
 70
     0
  0
APPID
  2
ACAECLAYERSTANDARD
 70
     0
  0
APPID
  2
ACCMTRANSPARENCY
 70
     0
  0
APPID
  2
ACDBATTR
 70
     0
  0
APPID
  2
ACADANNOTATIVE
 70
     0
  0
ENDTAB
  0
TABLE
  2
DIMSTYLE
 70
     1
  0
DIMSTYLE
  2
STANDARD
 70
     0
  3

  4

  5

  6

  7

 40
1.0
 41
0.1875
 42
0.0625
 43
0.38
 44
0.125
 45
0.0
 46
0.0
 47
0.01
 48
0.01
140
0.15625
141
0.09
142
0.0
143
25.3999999999999986
144
1.0
145
0.0
146
1.0
147
0.09
 71
     1
 72
     0
 73
     1
 74
     1
 75
     0
 76
     0
 77
     0
 78
     4
170
     0
171
     2
172
     0
173
     0
174
     0
175
     0
176
     0
177
     0
178
     0
  0
ENDTAB
  0
ENDSEC
  0
SECTION
  2
BLOCKS
  0
BLOCK
  8
0
  2
$MODEL_SPACE
 70
     0
 10
0.0
 20
0.0
 30
0.0
  3
$MODEL_SPACE
  1

  0
ENDBLK
  5
21
  8
0
  0
BLOCK
 67
     1
  8
0
  2
$PAPER_SPACE
 70
     0
 10
0.0
 20
0.0
 30
0.0
  3
$PAPER_SPACE
  1

  0
ENDBLK
  5
1D
 67
     1
  8
0
  0
ENDSEC
  0
SECTION
  2
ENTITIES
  0
ATTDEF
  5
BA2F
  8
DEFPOINTS
 10
123.5839158526876957
 20
-29.8571040813725297
 30
0.0
 40
0.001
  1
K-14715LM-1
  3

  2
MODELNUMBER
 70
     0
1001
ACDBATTR
1070
     0
1070
     1
  0
ATTDEF
  5
BA30
  8
DEFPOINTS
 10
123.5839158526876957
 20
-29.8587707480391913
 30
0.0
 40
0.001
  1
PARLIAMENT
  3

  2
TRADENAME
 70
     0
1001
ACDBATTR
1070
     0
1070
     1
  0
ATTDEF
  5
BA31
  8
DEFPOINTS
 10
123.5839158526876957
 20
-29.86043741470586
 30
0.0
 40
0.001
  1
BATHROOM SINK
  3

  2
PRODUCT
 70
     0
1001
ACDBATTR
1070
     0
1070
     1
  0
LINE
  5
CA99
  8
0
 10
112.510625773582305
 20
-21.3893249674557886
 30
0.0
 11
112.5106210870544032
 21
-38.3194379127545233
 31
0.0
  0
LINE
  5
CA9A
  8
0
 10
114.2780692727640002
 20
-26.1834164250557784
 30
0.0
 11
132.8788387847322952
 21
-26.1834164250557784
 31
0.0
  0
ARC
  5
CA9B
  8
0
 10
114.2826023806644002
 20
-26.7252337514970613
 30
0.0
 40
0.5418362892047828
 50
89.5206467600853131
 51
179.7351116522526127
  0
LINE
  5
CA9C
  8
0
 10
113.7407718819822975
 20
-26.7227287570745098
 30
0.0
 11
113.7407718009863942
 21
-36.2736413305422332
 31
0.0
  0
ARC
  5
CA9D
  8
0
 10
114.7372385012009062
 20
-36.2742335069931769
 30
0.0
 40
0.9964668761726162
 50
179.9659504854853083
 51
270.2815841524400753
  0
LINE
  5
CA9E
  8
0
 10
114.7421356882823034
 20
-37.2706883493557868
 30
0.0
 11
132.4236250515916993
 21
-37.2706883493557868
 31
0.0
  0
ARC
  5
CA9F
  8
0
 10
132.428552892666886
 20
-36.2740508569349274
 30
0.0
 40
0.9966496751198999
 50
269.7167052243066223
 51
0.0294107642980065
  0
LINE
  5
CAA0
  8
0
 10
133.4252024364822944
 20
-36.2735392620557917
 30
0.0
 11
133.4252023930822872
 21
-26.7227300182226202
 31
0.0
  0
ARC
  5
CAA1
  8
0
 10
132.8833718297493078
 20
-26.7252338111218606
 30
0.0
 40
0.5418363483014043
 50
0.2647612639804884
 51
90.4793465378856467
  0
CIRCLE
  5
CAA2
  8
0
 10
123.5829871374823057
 20
-28.6309251063557895
 30
0.0
 40
0.8858267716999996
  0
CIRCLE
  5
CAA3
  8
0
 10
123.5829871374823057
 20
-28.6309251063557895
 30
0.0
 40
1.5140914197000011
  0
CIRCLE
  5
CAA4
  8
0
 10
123.5829871374823057
 20
-24.1143896732557899
 30
0.0
 40
0.6889763779999996
  0
ARC
  5
CAA5
  8
0
 10
122.2813355586190056
 20
-36.7971922623171679
 30
0.0
 40
0.0574370022238457
 50
126.813363449847202
 51
169.2792595451134048
  0
ARC
  5
CAA6
  8
0
 10
122.4030898007724062
 20
-36.9598654023190818
 30
0.0
 40
0.260628158430103
 50
106.483580668162503
 51
126.813363449847202
  0
ARC
  5
CAA7
  8
0
 10
122.5140973906756017
 20
-37.3350154954435283
 30
0.0
 40
0.6518573462310699
 50
89.4816145074201756
 51
106.483580668161494
  0
ARC
  5
CAA8
  8
0
 10
122.5132534461908023
 20
-37.4282919053924772
 30
0.0
 40
0.7451375740141135
 50
74.8452657645226651
 51
89.4816145074201756
  0
ARC
  5
CAA9
  8
0
 10
122.6478054904066965
 20
-36.931507249394727
 30
0.0
 40
0.2304539361961968
 50
47.5002170435606885
 51
74.8452657645226651
  0
ARC
  5
CAAA
  8
0
 10
122.778920296224797
 20
-36.7884194589834124
 30
0.0
 40
0.0363786722661743
 50
357.7365141433696181
 51
47.5002170435618467
  0
ARC
  5
CAAB
  8
0
 10
122.775706176282597
 20
-36.7882924181763116
 30
0.0
 40
0.0395953019261916
 50
326.2804579157847797
 51
357.7365141433675717
  0
ARC
  5
CAAC
  8
0
 10
122.7077924751558982
 20
-36.7210848229751079
 30
0.0
 40
0.1346282478427522
 50
284.6891700481755834
 51
318.5109740512493204
  0
ARC
  5
CAAD
  8
0
 10
122.5343954467625025
 20
-36.1259784619502895
 30
0.0
 40
0.7544407888259581
 50
268.906296840894413
 51
285.9670841399516235
  0
ARC
  5
CAAE
  8
0
 10
122.5155794861284022
 20
-35.9619938572413673
 30
0.0
 40
0.9182985622302497
 50
260.6808524397351903
 51
270.2755007493270227
  0
ARC
  5
CAAF
  8
0
 10
122.4136156478876956
 20
-36.5349225144010674
 30
0.0
 40
0.3365116220151812
 50
241.8407481452954926
 51
262.0161283081363877
  0
ARC
  5
CAB0
  8
0
 10
122.2872924839780069
 20
-36.773137213215783
 30
0.0
 40
0.0668854712773916
 50
207.0486860528176862
 51
240.9431936065205093
  0
ARC
  5
CAB1
  8
0
 10
122.2583274628627947
 20
-36.7897304028234799
 30
0.0
 40
0.0335813679396382
 50
174.4930199349979034
 51
204.3067263425261046
  0
ARC
  5
CAB2
  8
0
 10
123.344589229187406
 20
-36.7971922623171679
 30
0.0
 40
0.0574370022238457
 50
126.813363449847202
 51
169.2792595451134048
  0
ARC
  5
CAB3
  8
0
 10
123.466343471340906
 20
-36.9598654023190818
 30
0.0
 40
0.260628158430103
 50
106.483580668162503
 51
126.813363449847202
  0
ARC
  5
CAB4
  8
0
 10
123.577351061244002
 20
-37.3350154954435283
 30
0.0
 40
0.6518573462310699
 50
89.4816145074201756
 51
106.483580668161494
  0
ARC
  5
CAB5
  8
0
 10
123.5765071167592026
 20
-37.4282919053924772
 30
0.0
 40
0.7451375740141135
 50
74.8452657645226651
 51
89.4816145074201756
  0
ARC
  5
CAB6
  8
0
 10
123.7110591609751964
 20
-36.931507249394727
 30
0.0
 40
0.2304539361961968
 50
47.5002170435606885
 51
74.8452657645226651
  0
ARC
  5
CAB7
  8
0
 10
123.8421739667931973
 20
-36.7884194589834124
 30
0.0
 40
0.0363786722661743
 50
357.7365141433696181
 51
47.5002170435618467
  0
ARC
  5
CAB8
  8
0
 10
123.8389598468509973
 20
-36.7882924181763116
 30
0.0
 40
0.0395953019261916
 50
326.2804579157847797
 51
357.7365141433675717
  0
ARC
  5
CAB9
  8
0
 10
123.7710461457242985
 20
-36.7210848229751079
 30
0.0
 40
0.1346282478427522
 50
284.6891700481755834
 51
318.5109740512493204
  0
ARC
  5
CABA
  8
0
 10
123.5976491173309029
 20
-36.1259784619502895
 30
0.0
 40
0.7544407888259581
 50
268.906296840894413
 51
285.9670841399516235
  0
ARC
  5
CABB
  8
0
 10
123.5788331566968026
 20
-35.9619938572413673
 30
0.0
 40
0.9182985622302497
 50
260.6808524397351903
 51
270.2755007493270227
  0
ARC
  5
CABC
  8
0
 10
123.4768693184561954
 20
-36.5349225144010674
 30
0.0
 40
0.3365116220151812
 50
241.8407481452954926
 51
262.0161283081363877
  0
ARC
  5
CABD
  8
0
 10
123.3505461545465067
 20
-36.773137213215783
 30
0.0
 40
0.0668854712773916
 50
207.0486860528176862
 51
240.9431936065205093
  0
ARC
  5
CABE
  8
0
 10
123.3215811334312946
 20
-36.7897304028234799
 30
0.0
 40
0.0335813679396382
 50
174.4930199349979034
 51
204.3067263425261046
  0
ARC
  5
CABF
  8
0
 10
124.4105758494071949
 20
-36.7971922623171679
 30
0.0
 40
0.0574370022238457
 50
126.813363449847202
 51
169.2792595451134048
  0
ARC
  5
CAC0
  8
0
 10
124.532330091560695
 20
-36.9598654023190818
 30
0.0
 40
0.260628158430103
 50
106.483580668162503
 51
126.813363449847202
  0
ARC
  5
CAC1
  8
0
 10
124.6433376814638052
 20
-37.3350154954435283
 30
0.0
 40
0.6518573462310699
 50
89.4816145074201756
 51
106.483580668161494
  0
ARC
  5
CAC2
  8
0
 10
124.6424937369790058
 20
-37.4282919053924772
 30
0.0
 40
0.7451375740141135
 50
74.8452657645226651
 51
89.4816145074201756
  0
ARC
  5
CAC3
  8
0
 10
124.7770457811949001
 20
-36.931507249394727
 30
0.0
 40
0.2304539361961968
 50
47.5002170435606885
 51
74.8452657645226651
  0
ARC
  5
CAC4
  8
0
 10
124.9081605870130005
 20
-36.7884194589834124
 30
0.0
 40
0.0363786722661743
 50
357.7365141433696181
 51
47.5002170435618467
  0
ARC
  5
CAC5
  8
0
 10
124.9049464670708005
 20
-36.7882924181763116
 30
0.0
 40
0.0395953019261916
 50
326.2804579157847797
 51
357.7365141433675717
  0
ARC
  5
CAC6
  8
0
 10
124.8370327659441017
 20
-36.7210848229751079
 30
0.0
 40
0.1346282478427522
 50
284.6891700481755834
 51
318.5109740512493204
  0
ARC
  5
CAC7
  8
0
 10
124.663635737550706
 20
-36.1259784619502895
 30
0.0
 40
0.7544407888259581
 50
268.906296840894413
 51
285.9670841399516235
  0
ARC
  5
CAC8
  8
0
 10
124.6448197769166057
 20
-35.9619938572413673
 30
0.0
 40
0.9182985622302497
 50
260.6808524397351903
 51
270.2755007493270227
  0
ARC
  5
CAC9
  8
0
 10
124.5428559386759986
 20
-36.5349225144010674
 30
0.0
 40
0.3365116220151812
 50
241.8407481452954926
 51
262.0161283081363877
  0
ARC
  5
CACA
  8
0
 10
124.4165327747662957
 20
-36.773137213215783
 30
0.0
 40
0.0668854712773916
 50
207.0486860528176862
 51
240.9431936065205093
  0
ARC
  5
CACB
  8
0
 10
124.3875677536509983
 20
-36.7897304028234799
 30
0.0
 40
0.0335813679396382
 50
174.4930199349979034
 51
204.3067263425261046
  0
POINT
  5
CACC
  8
DEFPOINTS
 10
123.5829871374823057
 20
-24.1143896732557899
 30
0.0
  0
LINE
  5
CACD
  8
0
 10
112.5106234303183044
 20
-21.3901640119529084
 30
0.0
 11
112.5106234303183044
 21
-38.3194899323586711
 31
0.0
  0
ARC
  5
CACE
  8
0
 10
112.7534234303184064
 20
-38.3194899323586711
 30
0.0
 40
0.2428
 50
180.0
 51
270.0
  0
LINE
  5
CACF
  8
0
 10
134.6553508553461995
 20
-21.3901639323586714
 30
0.0
 11
134.6553508553461995
 21
-38.3194899323586711
 31
0.0
  0
ARC
  5
CAD0
  8
0
 10
134.4125508553462112
 20
-38.3194899323586711
 30
0.0
 40
0.2428
 50
270.0
 51
0.0
  0
ARC
  5
CAD1
  8
0
 10
134.4125508553462112
 20
-21.3901639323586608
 30
0.0
 40
0.2428
 50
359.9999999999992042
 51
90.0000002105545462
  0
LINE
  5
CAD2
  8
0
 10
134.4125508553462112
 20
-21.1473639323586688
 30
0.0
 11
112.7534234303184064
 21
-21.1473639323586688
 31
0.0
  0
LINE
  5
CAD3
  8
0
 10
134.4125508553462112
 20
-38.5622899323586665
 30
0.0
 11
112.7534234303184064
 21
-38.5622899323586665
 31
0.0
  0
ARC
  5
CAD4
  8
0
 10
112.7534234303183069
 20
-21.3901639323586608
 30
0.0
 40
0.2428
 50
89.9999999999992042
 51
180.0
  0
ENDSEC
  0
EOF
