  0
SECTION
  2
HEADER
  9
$ACADVER
  1
AC1009
  9
$INSBASE
 10
121.5131325662895989
 20
-46.6745042138770287
 30
0.0
  9
$EXTMIN
 10
110.426351335697305
 20
-50.3951161124841107
 30
-0.0000000000000058
  9
$EXTMAX
 10
132.5791926108337009
 20
-43.0502892453886403
 30
0.0000000000000104
  9
$LIMMIN
 10
0.0
 20
0.0
  9
$LIMMAX
 10
11.6929133858000007
 20
8.2677165353999982
  9
$ORTHOMODE
 70
     0
  9
$REGENMODE
 70
     1
  9
$FILLMODE
 70
     1
  9
$QTEXTMODE
 70
     0
  9
$MIRRTEXT
 70
     0
  9
$DRAGMODE
 70
     2
  9
$LTSCALE
 40
0.6431102362
  9
$OSMODE
 70
  4095
  9
$ATTMODE
 70
     1
  9
$TEXTSIZE
 40
0.2
  9
$TRACEWID
 40
0.05
  9
$TEXTSTYLE
  7
STANDARD
  9
$CLAYER
  8
0
  9
$CELTYPE
  6
BYLAYER
  9
$CECOLOR
 62
   256
  9
$DIMSCALE
 40
1.0
  9
$DIMASZ
 40
0.1875
  9
$DIMEXO
 40
0.0625
  9
$DIMDLI
 40
0.4443307087
  9
$DIMRND
 40
0.0
  9
$DIMDLE
 40
0.0
  9
$DIMEXE
 40
0.125
  9
$DIMTP
 40
0.01
  9
$DIMTM
 40
0.01
  9
$DIMTXT
 40
1.0
  9
$DIMCEN
 40
0.1052362205
  9
$DIMTSZ
 40
0.0
  9
$DIMTOL
 70
     1
  9
$DIMLIM
 70
     0
  9
$DIMTIH
 70
     1
  9
$DIMTOH
 70
     1
  9
$DIMSE1
 70
     0
  9
$DIMSE2
 70
     0
  9
$DIMTAD
 70
     0
  9
$DIMZIN
 70
     0
  9
$DIMBLK
  1

  9
$DIMASO
 70
     1
  9
$DIMSHO
 70
     1
  9
$DIMPOST
  1
\X
  9
$DIMAPOST
  1

  9
$DIMALT
 70
     1
  9
$DIMALTD
 70
     2
  9
$DIMALTF
 40
25.3999999999999986
  9
$DIMLFAC
 40
1.0
  9
$DIMTOFL
 70
     0
  9
$DIMTVP
 40
0.0
  9
$DIMTIX
 70
     0
  9
$DIMSOXD
 70
     0
  9
$DIMSAH
 70
     0
  9
$DIMBLK1
  1

  9
$DIMBLK2
  1

  9
$DIMSTYLE
  2
STANDARD
  9
$DIMCLRD
 70
     0
  9
$DIMCLRE
 70
     0
  9
$DIMCLRT
 70
     0
  9
$DIMTFAC
 40
1.0
  9
$DIMGAP
 40
0.09
  9
$LUNITS
 70
     2
  9
$LUPREC
 70
     4
  9
$SKETCHINC
 40
0.1
  9
$FILLETRAD
 40
0.0
  9
$AUNITS
 70
     0
  9
$AUPREC
 70
     0
  9
$MENU
  1
.
  9
$ELEVATION
 40
0.0
  9
$PELEVATION
 40
0.0
  9
$THICKNESS
 40
0.0
  9
$LIMCHECK
 70
     0
  9
$BLIPMODE
 70
     0
  9
$CHAMFERA
 40
0.0
  9
$CHAMFERB
 40
0.0
  9
$SKPOLY
 70
     0
  9
$TDCREATE
 40
2458172.4620254631154239
  9
$TDUPDATE
 40
2459180.6304629631340504
  9
$TDINDWG
 40
0.1051564005
  9
$TDUSRTIMER
 40
0.1051564005
  9
$USRTIMER
 70
     1
  9
$ANGBASE
 50
0.0
  9
$ANGDIR
 70
     0
  9
$PDMODE
 70
     0
  9
$PDSIZE
 40
0.3125
  9
$PLINEWID
 40
0.0
  9
$COORDS
 70
     1
  9
$SPLFRAME
 70
     0
  9
$SPLINETYPE
 70
     6
  9
$SPLINESEGS
 70
     8
  9
$ATTDIA
 70
     1
  9
$ATTREQ
 70
     1
  9
$HANDLING
 70
     1
  9
$HANDSEED
  5
CA76
  9
$SURFTAB1
 70
     6
  9
$SURFTAB2
 70
     6
  9
$SURFTYPE
 70
     6
  9
$SURFU
 70
     6
  9
$SURFV
 70
     6
  9
$UCSNAME
  2

  9
$UCSORG
 10
0.0
 20
0.0
 30
0.0
  9
$UCSXDIR
 10
1.0
 20
0.0
 30
0.0
  9
$UCSYDIR
 10
0.0
 20
1.0
 30
0.0
  9
$PUCSNAME
  2

  9
$PUCSORG
 10
0.0
 20
0.0
 30
0.0
  9
$PUCSXDIR
 10
1.0
 20
0.0
 30
0.0
  9
$PUCSYDIR
 10
0.0
 20
1.0
 30
0.0
  9
$USERI1
 70
     0
  9
$USERI2
 70
     0
  9
$USERI3
 70
     0
  9
$USERI4
 70
     0
  9
$USERI5
 70
     0
  9
$USERR1
 40
0.0
  9
$USERR2
 40
0.0
  9
$USERR3
 40
0.0
  9
$USERR4
 40
0.0
  9
$USERR5
 40
0.0
  9
$WORLDVIEW
 70
     1
  9
$SHADEDGE
 70
     3
  9
$SHADEDIF
 70
    70
  9
$TILEMODE
 70
     1
  9
$MAXACTVP
 70
    64
  9
$PLIMCHECK
 70
     0
  9
$PEXTMIN
 10
1.0000000000000000E+20
 20
1.0000000000000000E+20
 30
1.0000000000000000E+20
  9
$PEXTMAX
 10
-1.0000000000000000E+20
 20
-1.0000000000000000E+20
 30
-1.0000000000000000E+20
  9
$PLIMMIN
 10
0.0
 20
0.0
  9
$PLIMMAX
 10
12.0
 20
9.0
  9
$UNITMODE
 70
     0
  9
$VISRETAIN
 70
     1
  9
$PLINEGEN
 70
     0
  9
$PSLTSCALE
 70
     1
  0
ENDSEC
  0
SECTION
  2
TABLES
  0
TABLE
  2
VPORT
 70
     1
  0
VPORT
  2
*ACTIVE
 70
     0
 10
0.0
 20
0.0
 11
1.0
 21
1.0
 12
-3.108386626807103
 22
-52.034976849314198
 13
0.0
 23
0.0
 14
1.0
 24
1.0
 15
0.0
 25
0.0
 16
0.0
 26
0.0
 36
30.6214257250603907
 17
124.6111586000725993
 27
5.3122741703778242
 37
0.0
 40
7.706539260342951
 41
2.887234042553191
 42
50.0
 43
0.0
 44
0.0
 50
0.0
 51
0.0
 71
     0
 72
   100
 73
     1
 74
     1
 75
     0
 76
     0
 77
     0
 78
     1
  0
ENDTAB
  0
TABLE
  2
LTYPE
 70
     2
  0
LTYPE
  2
CONTINUOUS
 70
     0
  3
Solid line
 72
    65
 73
     0
 40
0.0
  0
LTYPE
  2
PHANTOM2
 70
     0
  3
___ _ _ ___ _ _ ___ _ _ ___ _ _
 72
    65
 73
     6
 40
1.25
 49
0.625
 49
-0.125
 49
0.125
 49
-0.125
 49
0.125
 49
-0.125
  0
ENDTAB
  0
TABLE
  2
LAYER
 70
     2
  0
LAYER
  2
0
 70
     0
 62
   255
  6
CONTINUOUS
  0
LAYER
  2
DEFPOINTS
 70
     0
 62
     7
  6
CONTINUOUS
  0
ENDTAB
  0
TABLE
  2
STYLE
 70
     1
  0
STYLE
  2
STANDARD
 70
     0
 40
0.0
 41
0.8
 50
0.0
 71
     0
 42
0.2
  3
txt
  4

  0
ENDTAB
  0
TABLE
  2
VIEW
 70
     0
  0
ENDTAB
  0
TABLE
  2
UCS
 70
     0
  0
ENDTAB
  0
TABLE
  2
APPID
 70
    10
  0
APPID
  2
ACAD
 70
     0
  0
APPID
  2
ACAD_MLEADERVER
 70
     0
  0
APPID
  2
ACAD_EXEMPT_FROM_CAD_STANDARDS
 70
     0
  0
APPID
  2
ACAD_DSTYLE_DIMJAG
 70
     0
  0
APPID
  2
ACAD_DSTYLE_DIMTALN
 70
     0
  0
APPID
  2
ACAD_NAV_VCDISPLAY
 70
     0
  0
APPID
  2
ACAECLAYERSTANDARD
 70
     0
  0
APPID
  2
ACCMTRANSPARENCY
 70
     0
  0
APPID
  2
ACDBATTR
 70
     0
  0
APPID
  2
ACADANNOTATIVE
 70
     0
  0
ENDTAB
  0
TABLE
  2
DIMSTYLE
 70
     1
  0
DIMSTYLE
  2
STANDARD
 70
     0
  3

  4

  5

  6

  7

 40
1.0
 41
0.1875
 42
0.0625
 43
0.38
 44
0.125
 45
0.0
 46
0.0
 47
0.01
 48
0.01
140
0.15625
141
0.09
142
0.0
143
25.3999999999999986
144
1.0
145
0.0
146
1.0
147
0.09
 71
     1
 72
     0
 73
     1
 74
     1
 75
     0
 76
     0
 77
     0
 78
     4
170
     0
171
     2
172
     0
173
     0
174
     0
175
     0
176
     0
177
     0
178
     0
  0
ENDTAB
  0
ENDSEC
  0
SECTION
  2
BLOCKS
  0
BLOCK
  8
0
  2
$MODEL_SPACE
 70
     0
 10
0.0
 20
0.0
 30
0.0
  3
$MODEL_SPACE
  1

  0
ENDBLK
  5
21
  8
0
  0
BLOCK
 67
     1
  8
0
  2
$PAPER_SPACE
 70
     0
 10
0.0
 20
0.0
 30
0.0
  3
$PAPER_SPACE
  1

  0
ENDBLK
  5
1D
 67
     1
  8
0
  0
ENDSEC
  0
SECTION
  2
ENTITIES
  0
ATTDEF
  5
C3A9
  8
DEFPOINTS
 10
121.5096472651404014
 20
-46.6702099838549671
 30
0.0
 40
0.001
  1
K-14715LM-8
  3

  2
MODELNUMBER
 70
     0
1001
ACDBATTR
1070
     0
1070
     1
  0
ATTDEF
  5
C3AA
  8
DEFPOINTS
 10
121.5096472651404014
 20
-46.6718766505216323
 30
0.0
 40
0.001
  1
PARLIAMENT
  3

  2
TRADENAME
 70
     0
1001
ACDBATTR
1070
     0
1070
     1
  0
ATTDEF
  5
C3AB
  8
DEFPOINTS
 10
121.5096472651404014
 20
-46.6735433171882974
 30
0.0
 40
0.001
  1
BATHROOM SINK
  3

  2
PRODUCT
 70
     0
1001
ACDBATTR
1070
     0
1070
     1
  0
LINE
  5
C842
  8
0
 10
110.6771401688371981
 20
-43.0524569697770332
 30
0.0
 11
132.349124963742014
 21
-43.0524569697770332
 31
0.0
  0
ARC
  5
C843
  8
0
 10
132.3427498807187987
 20
-43.2887438047864777
 30
0.0
 40
0.2363728201006699
 50
0.0160859943024562
 51
88.4545192281607342
  0
ARC
  5
C844
  8
0
 10
132.21038726606929
 20
-43.2799558326898719
 30
0.0
 40
0.3688385560703635
 50
353.8367666279290233
 51
358.645049462858708
  0
ARC
  5
C845
  8
0
 10
121.4539560267481022
 20
-41.8558563869249269
 30
0.0
 40
11.2190289526602101
 50
334.6914640797443212
 51
352.5034958449347755
  0
ARC
  5
C846
  8
0
 10
131.5615312096699085
 20
-46.6366779639407412
 30
0.0
 40
0.0378389277921128
 50
271.4832120674390126
 51
336.2662079784843172
  0
LINE
  5
C847
  8
0
 10
131.5625106340999935
 20
-46.6745042138770287
 30
0.0
 11
111.452966162139802
 21
-46.6745042138770287
 31
0.0
  0
ARC
  5
C848
  8
0
 10
111.4529483242686041
 20
-46.6351822547007728
 30
0.0
 40
0.0393219632222023
 50
205.3209016181241111
 51
270.0259914482015802
  0
ARC
  5
C849
  8
0
 10
121.5423674010853006
 20
-41.8614318742672609
 30
0.0
 40
11.2010901924197306
 50
187.4904338601511995
 51
205.3209016181241111
  0
ARC
  5
C84A
  8
0
 10
110.7295279084517006
 20
-43.2831503615001694
 30
0.0
 40
0.2951843914937642
 50
181.0728782339598126
 51
187.4870216696305931
  0
ARC
  5
C84B
  8
0
 10
110.6791509918057983
 20
-43.2973583368694719
 30
0.0
 40
0.2449096221318158
 50
90.4704305323989928
 51
177.9687085147357948
  0
ARC
  5
C84C
  8
0
 10
112.2216430092397985
 20
-47.068205001277029
 30
0.0
 40
0.3937007873999985
 50
27.04818609035053
 51
90.0
  0
ARC
  5
C84D
  8
0
 10
123.0185130707153007
 20
-41.5554824172329376
 30
0.0
 40
11.7291088462211093
 50
207.048186090350498
 51
217.7311120231811117
  0
ARC
  5
C84E
  8
0
 10
123.0776269967946064
 20
-41.5097426876135813
 30
0.0
 40
11.8038522681534594
 50
217.7311120231811117
 51
222.8417011569370914
  0
ARC
  5
C84F
  8
0
 10
123.7334523434647053
 20
-40.9015545320653473
 30
0.0
 40
12.6982793014457407
 50
222.8417011569370914
 51
223.7731858324561074
  0
ARC
  5
C850
  8
0
 10
115.0936897443986027
 20
-49.1790307503942614
 30
0.0
 40
0.7332423055472154
 50
223.7731858324555958
 51
251.1651421607755026
  0
ARC
  5
C851
  8
0
 10
115.1447554780289977
 20
-49.0293247530728991
 30
0.0
 40
0.8914181405701167
 50
251.1651421607755026
 51
268.4538026625216958
  0
LINE
  5
C852
  8
0
 10
120.2306604811397932
 20
-50.394976654877027
 30
0.0
 11
120.154013290539794
 21
-49.5189394878770202
 31
0.0
  0
ARC
  5
C853
  8
0
 10
120.6910553706900942
 20
-49.4719520217875797
 30
0.0
 40
0.5390937004099738
 50
169.8147305825415003
 51
185.0002511662075051
  0
ARC
  5
C854
  8
0
 10
120.2671602734156977
 20
-49.401511785818407
 30
0.0
 40
0.1095672895962807
 50
92.2709825281413458
 51
166.8704416596617079
  0
LINE
  5
C855
  8
0
 10
120.2628185879398046
 20
-49.2920305512770298
 30
0.0
 11
120.372478198105
 21
-49.283664121077031
 31
0.0
  0
LINE
  5
C856
  8
0
 10
120.372478198105
 20
-49.283664121077031
 30
0.0
 11
122.6413514460398062
 21
-49.283664121077031
 31
0.0
  0
LINE
  5
C857
  8
0
 10
122.6413514460398062
 20
-49.283664121077031
 30
0.0
 11
122.750763743035705
 21
-49.2920328955595011
 31
0.0
  0
ARC
  5
C858
  8
0
 10
122.7413598293142059
 20
-49.4149784717814882
 30
0.0
 40
0.1233046970145009
 50
44.3808146218864366
 51
85.6260525855103936
  0
ARC
  5
C859
  8
0
 10
122.6880577476445069
 20
-49.4281075315363623
 30
0.0
 40
0.1728489733679574
 50
2.600651451705458
 51
35.0928145584468822
  0
ARC
  5
C85A
  8
0
 10
121.5690484099418995
 20
-49.4535866474388186
 30
0.0
 40
1.2921100256853639
 50
352.5181108592249757
 51
1.477755804812664
  0
LINE
  5
C85B
  8
0
 10
122.8501575018398029
 20
-49.6218359063770293
 30
0.0
 11
122.7828613358397973
 21
-50.394976654877027
 31
0.0
  0
ARC
  5
C85C
  8
0
 10
130.7918788077398062
 20
-47.068205001277029
 30
0.0
 40
0.3937007873999985
 50
90.0
 51
152.9518139096493883
  0
ARC
  5
C85D
  8
0
 10
119.9950087462642045
 20
-41.5554824172329376
 30
0.0
 40
11.7291088462211093
 50
322.2688879768189167
 51
332.9518139096493883
  0
ARC
  5
C85E
  8
0
 10
119.9358948201848989
 20
-41.5097426876135813
 30
0.0
 40
11.8038522681534594
 50
317.1582988430628802
 51
322.2688879768189167
  0
ARC
  5
C85F
  8
0
 10
119.2800694735148994
 20
-40.9015545320653473
 30
0.0
 40
12.6982793014457407
 50
316.2268141675432958
 51
317.1582988430628802
  0
ARC
  5
C860
  8
0
 10
127.9198320725809026
 20
-49.1790307503942614
 30
0.0
 40
0.7332423055472154
 50
288.8348578392245258
 51
316.2268141675432958
  0
ARC
  5
C861
  8
0
 10
127.8687041267183986
 20
-49.0290844748665933
 30
0.0
 40
0.8916656374950674
 50
271.5630811823505724
 51
288.8336568217318927
  0
LINE
  5
C862
  8
0
 10
120.2306566114397981
 20
-50.394976654877027
 30
0.0
 11
122.7828613358397973
 21
-50.394976654877027
 31
0.0
  0
LINE
  5
C863
  8
0
 10
127.8930265622461064
 20
-49.9204183226584775
 30
0.0
 11
122.8241681177726008
 21
-49.9204183226584775
 31
0.0
  0
LINE
  5
C864
  8
0
 10
120.1891399106542053
 20
-49.9204183226584775
 30
0.0
 11
115.1207023788376063
 21
-49.9204183226584775
 31
0.0
  0
ENDSEC
  0
EOF
