  0
SECTION
  2
HEADER
  9
$ACADVER
  1
AC1009
  9
$INSBASE
 10
4419.6283892228511831
 20
429.3420678270455824
 30
0.0
  9
$EXTMIN
 10
4411.8312188951240387
 20
429.3262583960120082
 30
-0.0000000000112498
  9
$EXTMAX
 10
4421.2765117033450224
 20
442.840257608687125
 30
0.0000000000002956
  9
$LIMMIN
 10
0.0
 20
0.0
  9
$LIMMAX
 10
11.6929133858000007
 20
8.2677165353999982
  9
$ORTHOMODE
 70
     1
  9
$REGENMODE
 70
     1
  9
$FILLMODE
 70
     1
  9
$QTEXTMODE
 70
     0
  9
$MIRRTEXT
 70
     0
  9
$DRAGMODE
 70
     2
  9
$LTSCALE
 40
0.6431102362
  9
$OSMODE
 70
     7
  9
$ATTMODE
 70
     1
  9
$TEXTSIZE
 40
0.2
  9
$TRACEWID
 40
0.05
  9
$TEXTSTYLE
  7
STANDARD
  9
$CLAYER
  8
0
  9
$CELTYPE
  6
BYLAYER
  9
$CECOLOR
 62
   256
  9
$DIMSCALE
 40
1.0
  9
$DIMASZ
 40
0.1875
  9
$DIMEXO
 40
0.0625
  9
$DIMDLI
 40
0.4443307087
  9
$DIMRND
 40
0.0
  9
$DIMDLE
 40
0.0
  9
$DIMEXE
 40
0.125
  9
$DIMTP
 40
0.01
  9
$DIMTM
 40
0.01
  9
$DIMTXT
 40
2.0
  9
$DIMCEN
 40
0.1052362205
  9
$DIMTSZ
 40
0.0
  9
$DIMTOL
 70
     1
  9
$DIMLIM
 70
     0
  9
$DIMTIH
 70
     1
  9
$DIMTOH
 70
     1
  9
$DIMSE1
 70
     0
  9
$DIMSE2
 70
     0
  9
$DIMTAD
 70
     0
  9
$DIMZIN
 70
     0
  9
$DIMBLK
  1

  9
$DIMASO
 70
     1
  9
$DIMSHO
 70
     1
  9
$DIMPOST
  1
\X
  9
$DIMAPOST
  1

  9
$DIMALT
 70
     1
  9
$DIMALTD
 70
     2
  9
$DIMALTF
 40
25.3999999999999986
  9
$DIMLFAC
 40
1.0
  9
$DIMTOFL
 70
     0
  9
$DIMTVP
 40
0.0
  9
$DIMTIX
 70
     0
  9
$DIMSOXD
 70
     0
  9
$DIMSAH
 70
     0
  9
$DIMBLK1
  1

  9
$DIMBLK2
  1

  9
$DIMSTYLE
  2
STANDARD
  9
$DIMCLRD
 70
     0
  9
$DIMCLRE
 70
     0
  9
$DIMCLRT
 70
     0
  9
$DIMTFAC
 40
1.0
  9
$DIMGAP
 40
0.09
  9
$LUNITS
 70
     2
  9
$LUPREC
 70
     4
  9
$SKETCHINC
 40
0.1
  9
$FILLETRAD
 40
0.0
  9
$AUNITS
 70
     0
  9
$AUPREC
 70
     0
  9
$MENU
  1
.
  9
$ELEVATION
 40
0.0
  9
$PELEVATION
 40
0.0
  9
$THICKNESS
 40
0.0
  9
$LIMCHECK
 70
     0
  9
$BLIPMODE
 70
     0
  9
$CHAMFERA
 40
0.0
  9
$CHAMFERB
 40
0.0
  9
$SKPOLY
 70
     0
  9
$TDCREATE
 40
2458060.468368056230247
  9
$TDUPDATE
 40
2459388.0201273150742054
  9
$TDINDWG
 40
1.4112751967999999
  9
$TDUSRTIMER
 40
1.4112751967999999
  9
$USRTIMER
 70
     1
  9
$ANGBASE
 50
0.0
  9
$ANGDIR
 70
     0
  9
$PDMODE
 70
     0
  9
$PDSIZE
 40
0.3125
  9
$PLINEWID
 40
0.0
  9
$COORDS
 70
     1
  9
$SPLFRAME
 70
     0
  9
$SPLINETYPE
 70
     6
  9
$SPLINESEGS
 70
     8
  9
$ATTDIA
 70
     1
  9
$ATTREQ
 70
     1
  9
$HANDLING
 70
     1
  9
$HANDSEED
  5
18146
  9
$SURFTAB1
 70
     6
  9
$SURFTAB2
 70
     6
  9
$SURFTYPE
 70
     6
  9
$SURFU
 70
     6
  9
$SURFV
 70
     6
  9
$UCSNAME
  2

  9
$UCSORG
 10
0.0
 20
0.0
 30
0.0
  9
$UCSXDIR
 10
1.0
 20
0.0
 30
0.0
  9
$UCSYDIR
 10
0.0
 20
1.0
 30
0.0
  9
$PUCSNAME
  2

  9
$PUCSORG
 10
0.0
 20
0.0
 30
0.0
  9
$PUCSXDIR
 10
1.0
 20
0.0
 30
0.0
  9
$PUCSYDIR
 10
0.0
 20
1.0
 30
0.0
  9
$USERI1
 70
     0
  9
$USERI2
 70
     0
  9
$USERI3
 70
     0
  9
$USERI4
 70
     0
  9
$USERI5
 70
     0
  9
$USERR1
 40
0.0
  9
$USERR2
 40
0.0
  9
$USERR3
 40
0.0
  9
$USERR4
 40
0.0
  9
$USERR5
 40
0.0
  9
$WORLDVIEW
 70
     1
  9
$SHADEDGE
 70
     3
  9
$SHADEDIF
 70
    70
  9
$TILEMODE
 70
     1
  9
$MAXACTVP
 70
    64
  9
$PLIMCHECK
 70
     0
  9
$PEXTMIN
 10
1.0000000000000000E+20
 20
1.0000000000000000E+20
 30
1.0000000000000000E+20
  9
$PEXTMAX
 10
-1.0000000000000000E+20
 20
-1.0000000000000000E+20
 30
-1.0000000000000000E+20
  9
$PLIMMIN
 10
0.0
 20
0.0
  9
$PLIMMAX
 10
12.0
 20
9.0
  9
$UNITMODE
 70
     0
  9
$VISRETAIN
 70
     1
  9
$PLINEGEN
 70
     0
  9
$PSLTSCALE
 70
     1
  0
ENDSEC
  0
SECTION
  2
TABLES
  0
TABLE
  2
VPORT
 70
     1
  0
VPORT
  2
*ACTIVE
 70
     0
 10
0.0
 20
0.0
 11
1.0
 21
1.0
 12
505.1885088539219737
 22
303.5036528998105041
 13
0.0
 23
0.0
 14
1.0
 24
1.0
 15
0.0
 25
0.0
 16
0.0
 26
0.0
 36
60.4960186965801583
 17
3911.3653564453120453
 27
132.5796051025390057
 37
0.0
 40
13.6178199492641205
 41
2.3461538461538458
 42
50.0
 43
0.0
 44
0.0
 50
0.0
 51
0.0
 71
     0
 72
   100
 73
     1
 74
     1
 75
     0
 76
     0
 77
     0
 78
     0
  0
ENDTAB
  0
TABLE
  2
LTYPE
 70
     3
  0
LTYPE
  2
CONTINUOUS
 70
     0
  3
Solid line
 72
    65
 73
     0
 40
0.0
  0
LTYPE
  2
PHANTOM2
 70
     0
  3
___ _ _ ___ _ _ ___ _ _ ___ _ _
 72
    65
 73
     6
 40
1.25
 49
0.625
 49
-0.125
 49
0.125
 49
-0.125
 49
0.125
 49
-0.125
  0
ENDTAB
  0
TABLE
  2
LAYER
 70
     2
  0
LAYER
  2
0
 70
     0
 62
   255
  6
CONTINUOUS
  0
LAYER
  2
DEFPOINTS
 70
     0
 62
     7
  6
CONTINUOUS
  0
ENDTAB
  0
TABLE
  2
STYLE
 70
     1
  0
STYLE
  2
STANDARD
 70
     0
 40
0.0
 41
0.8
 50
0.0
 71
     0
 42
0.2
  3
txt
  4

  0
ENDTAB
  0
TABLE
  2
VIEW
 70
     0
  0
ENDTAB
  0
TABLE
  2
UCS
 70
     0
  0
ENDTAB
  0
TABLE
  2
APPID
 70
    11
  0
APPID
  2
ACAD
 70
     0
  0
APPID
  2
ACAD_MLEADERVER
 70
     0
  0
APPID
  2
ACAD_EXEMPT_FROM_CAD_STANDARDS
 70
     0
  0
APPID
  2
ACAD_NAV_VCDISPLAY
 70
     0
  0
APPID
  2
ACAECLAYERSTANDARD
 70
     0
  0
APPID
  2
ACCMTRANSPARENCY
 70
     0
  0
APPID
  2
ACAD_DSTYLE_DIMJAG
 70
     0
  0
APPID
  2
ACAD_DSTYLE_DIMTALN
 70
     0
  0
APPID
  2
ACDBATTR
 70
     0
  0
APPID
  2
ACADANNOTATIVE
 70
     0
  0
APPID
  2
DCO15
 70
     0
  0
ENDTAB
  0
TABLE
  2
DIMSTYLE
 70
     2
  0
DIMSTYLE
  2
STANDARD
 70
     0
  3

  4

  5

  6

  7

 40
1.0
 41
0.1875
 42
0.0625
 43
0.38
 44
0.125
 45
0.0
 46
0.0
 47
0.01
 48
0.01
140
0.15625
141
0.09
142
0.0
143
25.3999999999999986
144
1.0
145
0.0
146
1.0
147
0.09
 71
     1
 72
     0
 73
     1
 74
     1
 75
     0
 76
     0
 77
     0
 78
     4
170
     0
171
     2
172
     0
173
     0
174
     0
175
     0
176
     0
177
     0
178
     0
  0
ENDTAB
  0
ENDSEC
  0
SECTION
  2
BLOCKS
  0
BLOCK
  8
0
  2
$MODEL_SPACE
 70
     0
 10
0.0
 20
0.0
 30
0.0
  3
$MODEL_SPACE
  1

  0
ENDBLK
  5
21
  8
0
  0
BLOCK
 67
     1
  8
0
  2
$PAPER_SPACE
 70
     0
 10
0.0
 20
0.0
 30
0.0
  3
$PAPER_SPACE
  1

  0
ENDBLK
  5
1D
 67
     1
  8
0
  0
ENDSEC
  0
SECTION
  2
ENTITIES
  0
ATTDEF
  5
159BF
  8
DEFPOINTS
 10
4419.6283893049785547
 20
429.345406159372601
 30
0.0
 40
0.001
  1
K-14761IN-4ND
  3

  2
MODELNUMBER
 70
     0
1001
ACDBATTR
1070
     0
1070
     1
  0
ATTDEF
  5
159C0
  8
DEFPOINTS
 10
4419.6283893049785547
 20
429.3437393189933005
 30
0.0
 40
0.001
  1
STANCE
  3

  2
TRADENAME
 70
     0
1001
ACDBATTR
1070
     0
1070
     1
  0
ATTDEF
  5
159C1
  8
DEFPOINTS
 10
4419.6283893049785547
 20
429.3420728260392139
 30
0.0
 40
0.001
  1
BATHROOM SINK FAUCET
  3

  2
PRODUCT
 70
     0
1001
ACDBATTR
1070
     0
1070
     1
  0
LINE
  5
18041
  8
0
 10
4420.7845409757719608
 20
429.3420678270455824
 30
0.0
 11
4418.4722374699304055
 21
429.3420678270455824
 31
0.0
  0
LINE
  5
18042
  8
0
 10
4420.0459915219225877
 20
442.8075121050454754
 30
0.0
 11
4419.602623146564838
 21
442.8075121050454754
 31
0.0
  0
LINE
  5
18043
  8
0
 10
4412.067403002312858
 20
438.3087381942779075
 30
0.0
 11
4412.1006921972266355
 21
438.3087381942779075
 31
0.0
  0
LINE
  5
18044
  8
0
 10
4412.0673026946296886
 20
437.9719777574455861
 30
0.0
 11
4421.1570179185200686
 21
437.9719777574455861
 31
0.0
  0
ARC
  5
18045
  8
0
 10
4412.0646818981476827
 20
437.427221365675905
 30
0.0
 40
0.5447626959952875
 50
46.8839289770290577
 51
89.7243549207091746
  0
ARC
  5
18046
  8
0
 10
4411.8591838422125875
 20
437.3202093633811955
 30
0.0
 40
0.7671923032140299
 50
11.7724168669873706
 51
41.1336572550743398
  0
ARC
  5
18047
  8
0
 10
4412.0673839122528079
 20
438.0520479267809719
 30
0.0
 40
0.0800702105262254
 50
180.0210474216318914
 51
269.941883156914912
  0
LINE
  5
18048
  8
0
 10
4411.9873137071281235
 20
438.052018513245514
 30
0.0
 11
4411.9873137071281235
 21
438.228789258445488
 31
0.0
  0
ARC
  5
18049
  8
0
 10
4412.0671563534597226
 20
438.2288958577590279
 30
0.0
 40
0.0798427174916912
 50
89.8230025077940155
 51
180.0764965518314114
  0
LINE
  5
1804A
  8
0
 10
4412.067403002312858
 20
438.3087381942779075
 30
0.0
 11
4412.0673851808278414
 21
438.2131437044454856
 31
0.0
  0
LINE
  5
1804B
  8
0
 10
4412.2173615797291859
 20
438.1850295421456281
 30
0.0
 11
4418.3306045865292617
 21
438.1720668317454965
 31
0.0
  0
LINE
  5
1804C
  8
0
 10
4418.3306045865292617
 20
438.1720668317454965
 30
0.0
 11
4421.1256044964293324
 21
438.1720668270455121
 31
0.0
  0
ARC
  5
1804D
  8
0
 10
4412.2107760078888532
 20
438.563983846791416
 30
0.0
 40
0.3790115232629939
 50
247.7698210862671999
 51
270.9956015533509799
  0
ARC
  5
1804E
  8
0
 10
4412.0667810609438675
 20
438.1336762986421718
 30
0.0
 40
0.0794697020627043
 50
89.5644396262382685
 51
179.5595365421033023
  0
ARC
  5
1804F
  8
0
 10
4421.1256044964293324
 20
438.092066827045528
 30
0.0
 40
0.0800000000000072
 50
0.0000000000065138
 51
90.0
  0
ARC
  5
18050
  8
0
 10
4421.1290379205647696
 20
438.0432595111950036
 30
0.0
 40
0.0765765545263097
 50
291.4313373195045074
 51
0.9249762952019485
  0
ARC
  5
18051
  8
0
 10
4421.1989914365558434
 20
437.6214168491349028
 30
0.0
 40
0.3530647626879149
 50
96.8276613192200273
 51
154.665315467378008
  0
ARC
  5
18052
  8
0
 10
4422.1948768978709268
 20
437.2613371004539999
 30
0.0
 40
1.410847627227519
 50
158.7581433310290038
 51
180.5807234634779945
  0
LINE
  5
18053
  8
0
 10
4421.2056044964292596
 20
438.092066827045528
 30
0.0
 11
4421.2056044964292596
 21
438.0444957003455215
 31
0.0
  0
LINE
  5
18054
  8
0
 10
4412.6703590222296043
 20
437.4184015769454845
 30
0.0
 11
4413.7113747871289888
 21
437.1971268356455198
 31
0.0
  0
LINE
  5
18055
  8
0
 10
4414.2974185036291601
 20
437.4726356740454776
 30
0.0
 11
4417.84456017742923
 21
437.4726356740454776
 31
0.0
  0
LINE
  5
18056
  8
0
 10
4418.6505917175281866
 20
437.0863182173454788
 30
0.0
 11
4418.6505587499295871
 21
429.3420678270455824
 31
0.0
  0
LINE
  5
18057
  8
0
 10
4420.6063271267294112
 20
437.2471386493455157
 30
0.0
 11
4420.6062560633290559
 21
429.3420678270455824
 31
0.0
  0
LINE
  5
18058
  8
0
 10
4420.7841017375767478
 20
437.2470376476899787
 30
0.0
 11
4420.7845409757719608
 21
429.3420678270455824
 31
0.0
  0
LINE
  5
18059
  8
0
 10
4418.4722374699304055
 20
429.3420678270455824
 30
0.0
 11
4418.4722624459291183
 21
436.9569140436454973
 31
0.0
  0
LINE
  5
1805A
  8
0
 10
4420.0759915157286741
 20
442.7775121050455027
 30
0.0
 11
4420.0759915157286741
 21
438.6440099870455924
 31
0.0
  0
LINE
  5
1805B
  8
0
 10
4420.0759915157286741
 20
438.4790142448454731
 30
0.0
 11
4420.0759915157286741
 21
438.3474484727456115
 31
0.0
  0
LINE
  5
1805C
  8
0
 10
4420.0759915157286741
 20
438.6440099870455924
 30
0.0
 11
4420.0745681320286167
 21
438.6253792541455141
 31
0.0
  0
LINE
  5
1805D
  8
0
 10
4420.0745737835286491
 20
438.4975708222455069
 30
0.0
 11
4420.0759915157286741
 21
438.4790142448455867
 31
0.0
  0
ARC
  5
1805E
  8
0
 10
4420.2897149466525661
 20
438.5614845515448224
 30
0.0
 40
0.2244341437105674
 50
163.459535241453807
 51
196.5455318279524874
  0
ARC
  5
1805F
  8
0
 10
4420.125991344418253
 20
438.3474483402360988
 30
0.0
 40
0.0499998286891967
 50
179.9998481547949893
 51
247.8456929359236938
  0
ARC
  5
18060
  8
0
 10
4419.8243074256379259
 20
437.6065122477871796
 30
0.0
 40
0.749999841991899
 50
48.9444303518392729
 51
67.8455141589517865
  0
ARC
  5
18061
  8
0
 10
4419.82430733172896
 20
437.6065121200455224
 30
0.0
 40
0.7499999999999903
 50
112.1544888026189994
 51
131.0447544095796957
  0
ARC
  5
18062
  8
0
 10
4419.5226233135326765
 20
438.3474483440473932
 30
0.0
 40
0.049999834295479
 50
292.1543610206791186
 51
0.0001435815682205
  0
LINE
  5
18063
  8
0
 10
4419.5726231981288947
 20
438.3474484147153021
 30
0.0
 11
4419.5726231478292902
 21
442.7775121050455027
 31
0.0
  0
ARC
  5
18064
  8
0
 10
4419.6026231478290356
 20
442.7775121050455027
 30
0.0
 40
0.0299999999999905
 50
90.0000024827908618
 51
180.0000000000163141
  0
ARC
  5
18065
  8
0
 10
4420.0459915157289288
 20
442.7775121050455027
 30
0.0
 40
0.0300000000000011
 50
0.0000000000032569
 51
89.9999881697842739
  0
ARC
  5
18066
  8
0
 10
4412.686743122554617
 20
437.4954349148505912
 30
0.0
 40
0.0787564212764495
 50
193.7350332735030065
 51
257.9927708510343223
  0
ARC
  5
18067
  8
0
 10
4413.7277410108936238
 20
437.2741601219329937
 30
0.0
 40
0.0787526537746893
 50
258.0054844171075956
 51
320.2015621538226924
  0
ARC
  5
18068
  8
0
 10
4414.2824079135398279
 20
436.8580662239144203
 30
0.0
 40
0.6147527363495643
 50
88.6008538191284032
 51
143.498113086828198
  0
ARC
  5
18069
  8
0
 10
4418.0983668219259926
 20
437.0831154839796113
 30
0.0
 40
0.3679883043493012
 50
8.5408194665722181
 51
75.3693017000408929
  0
ARC
  5
1806A
  8
0
 10
4417.8822998351151909
 20
436.0504226560240113
 30
0.0
 40
1.4227136572030721
 50
77.4552501741081443
 51
91.5200365610921125
  0
ARC
  5
1806B
  8
0
 10
4417.2871075150032993
 20
436.9821621833743279
 30
0.0
 40
1.185423839331857
 50
358.7795747015774737
 51
7.5427003146414551
  0
ARC
  5
1806C
  8
0
 10
4418.3364546538114155
 20
437.6953838717886924
 30
0.0
 40
0.2854468454856327
 50
16.1806352025087605
 51
75.6930144474387561
  0
ARC
  5
1806D
  8
0
 10
4417.4563133736519376
 20
437.4617330128128856
 30
0.0
 40
1.196016684923398
 50
358.9742922250700872
 51
15.1807749050004297
  0
ARC
  5
1806E
  8
0
 10
4392.7319337543885922
 20
437.3765662135787124
 30
0.0
 40
25.9202830715553816
 50
359.3584046630272724
 51
0.140932247394778
  0
ARC
  5
1806F
  8
0
 10
4421.1318925504847357
 20
437.4257479485663112
 30
0.0
 40
0.5544931573209068
 50
99.9039488274473655
 51
135.0815800870309999
  0
ARC
  5
18070
  8
0
 10
4421.3401339379215642
 20
437.4061212531690899
 30
0.0
 40
0.7280868559339219
 50
145.6182283297710001
 51
177.4475897916273084
  0
ARC
  5
18071
  8
0
 10
4422.8410651865879117
 20
437.2677344919919165
 30
0.0
 40
2.234832965775988
 50
175.6165436413814973
 51
180.5280356885016033
  0
ARC
  5
18072
  8
0
 10
4411.7855174676278693
 20
346.2527381033311258
 30
0.0
 40
92.0565396256810544
 50
87.8645187911343442
 51
89.8038355866224265
  0
ARC
  5
18073
  8
0
 10
4418.9269686820462084
 20
529.7585458533915244
 30
0.0
 40
91.5884206093588205
 50
267.677722318328108
 51
269.6269245942900739
  0
LINE
  5
18074
  8
0
 10
4419.5414784092654372
 20
438.3011399345031123
 30
0.0
 11
4420.1071362944112479
 21
438.3011399181278875
 31
0.0
  0
ENDSEC
  0
EOF
