  0
SECTION
  2
HEADER
  9
$ACADVER
  1
AC1009
  9
$INSBASE
 10
426.7107782685864095
 20
76.7069619611003759
 30
0.0
  9
$EXTMIN
 10
426.1886452346593046
 20
76.3552152179481425
 30
-0.0015258207003583
  9
$EXTMAX
 10
427.2228792383314158
 20
85.3748277125782664
 30
0.0000000349246037
  9
$LIMMIN
 10
0.0
 20
0.0
  9
$LIMMAX
 10
11.6929133858000007
 20
8.2677165353999982
  9
$ORTHOMODE
 70
     0
  9
$REGENMODE
 70
     1
  9
$FILLMODE
 70
     1
  9
$QTEXTMODE
 70
     0
  9
$MIRRTEXT
 70
     0
  9
$DRAGMODE
 70
     2
  9
$LTSCALE
 40
0.6431102362
  9
$OSMODE
 70
  4095
  9
$ATTMODE
 70
     1
  9
$TEXTSIZE
 40
0.2
  9
$TRACEWID
 40
0.05
  9
$TEXTSTYLE
  7
STANDARD
  9
$CLAYER
  8
0
  9
$CELTYPE
  6
BYLAYER
  9
$CECOLOR
 62
   256
  9
$DIMSCALE
 40
1.0
  9
$DIMASZ
 40
0.1875
  9
$DIMEXO
 40
0.0625
  9
$DIMDLI
 40
0.4443307087
  9
$DIMRND
 40
0.0
  9
$DIMDLE
 40
0.0
  9
$DIMEXE
 40
0.125
  9
$DIMTP
 40
0.01
  9
$DIMTM
 40
0.01
  9
$DIMTXT
 40
1.0
  9
$DIMCEN
 40
0.1052362205
  9
$DIMTSZ
 40
0.0
  9
$DIMTOL
 70
     1
  9
$DIMLIM
 70
     0
  9
$DIMTIH
 70
     0
  9
$DIMTOH
 70
     1
  9
$DIMSE1
 70
     0
  9
$DIMSE2
 70
     0
  9
$DIMTAD
 70
     0
  9
$DIMZIN
 70
     0
  9
$DIMBLK
  1

  9
$DIMASO
 70
     1
  9
$DIMSHO
 70
     1
  9
$DIMPOST
  1
\X
  9
$DIMAPOST
  1

  9
$DIMALT
 70
     1
  9
$DIMALTD
 70
     2
  9
$DIMALTF
 40
25.3999999999999986
  9
$DIMLFAC
 40
1.0
  9
$DIMTOFL
 70
     0
  9
$DIMTVP
 40
0.0
  9
$DIMTIX
 70
     0
  9
$DIMSOXD
 70
     0
  9
$DIMSAH
 70
     0
  9
$DIMBLK1
  1

  9
$DIMBLK2
  1

  9
$DIMSTYLE
  2
STANDARD
  9
$DIMCLRD
 70
     0
  9
$DIMCLRE
 70
     0
  9
$DIMCLRT
 70
     0
  9
$DIMTFAC
 40
1.0
  9
$DIMGAP
 40
0.09
  9
$LUNITS
 70
     2
  9
$LUPREC
 70
     4
  9
$SKETCHINC
 40
0.1
  9
$FILLETRAD
 40
0.0
  9
$AUNITS
 70
     0
  9
$AUPREC
 70
     0
  9
$MENU
  1
.
  9
$ELEVATION
 40
0.0
  9
$PELEVATION
 40
0.0
  9
$THICKNESS
 40
0.0
  9
$LIMCHECK
 70
     0
  9
$BLIPMODE
 70
     0
  9
$CHAMFERA
 40
0.0
  9
$CHAMFERB
 40
0.0
  9
$SKPOLY
 70
     0
  9
$TDCREATE
 40
2458172.5207638889551163
  9
$TDUPDATE
 40
2459389.9999421299435198
  9
$TDINDWG
 40
0.316235625
  9
$TDUSRTIMER
 40
0.316235625
  9
$USRTIMER
 70
     1
  9
$ANGBASE
 50
0.0
  9
$ANGDIR
 70
     0
  9
$PDMODE
 70
     0
  9
$PDSIZE
 40
0.3125
  9
$PLINEWID
 40
0.0
  9
$COORDS
 70
     1
  9
$SPLFRAME
 70
     0
  9
$SPLINETYPE
 70
     6
  9
$SPLINESEGS
 70
     8
  9
$ATTDIA
 70
     1
  9
$ATTREQ
 70
     1
  9
$HANDLING
 70
     1
  9
$HANDSEED
  5
1199C
  9
$SURFTAB1
 70
     6
  9
$SURFTAB2
 70
     6
  9
$SURFTYPE
 70
     6
  9
$SURFU
 70
     6
  9
$SURFV
 70
     6
  9
$UCSNAME
  2

  9
$UCSORG
 10
0.0
 20
0.0
 30
0.0
  9
$UCSXDIR
 10
1.0
 20
0.0
 30
0.0
  9
$UCSYDIR
 10
0.0
 20
1.0
 30
0.0
  9
$PUCSNAME
  2

  9
$PUCSORG
 10
0.0
 20
0.0
 30
0.0
  9
$PUCSXDIR
 10
1.0
 20
0.0
 30
0.0
  9
$PUCSYDIR
 10
0.0
 20
1.0
 30
0.0
  9
$USERI1
 70
     0
  9
$USERI2
 70
     0
  9
$USERI3
 70
     0
  9
$USERI4
 70
     0
  9
$USERI5
 70
     0
  9
$USERR1
 40
0.0
  9
$USERR2
 40
0.0
  9
$USERR3
 40
0.0
  9
$USERR4
 40
0.0
  9
$USERR5
 40
0.0
  9
$WORLDVIEW
 70
     1
  9
$SHADEDGE
 70
     3
  9
$SHADEDIF
 70
    70
  9
$TILEMODE
 70
     1
  9
$MAXACTVP
 70
    64
  9
$PLIMCHECK
 70
     0
  9
$PEXTMIN
 10
1.0000000000000000E+20
 20
1.0000000000000000E+20
 30
1.0000000000000000E+20
  9
$PEXTMAX
 10
-1.0000000000000000E+20
 20
-1.0000000000000000E+20
 30
-1.0000000000000000E+20
  9
$PLIMMIN
 10
0.0
 20
0.0
  9
$PLIMMAX
 10
12.0
 20
9.0
  9
$UNITMODE
 70
     0
  9
$VISRETAIN
 70
     1
  9
$PLINEGEN
 70
     0
  9
$PSLTSCALE
 70
     1
  0
ENDSEC
  0
SECTION
  2
TABLES
  0
TABLE
  2
VPORT
 70
     1
  0
VPORT
  2
*ACTIVE
 70
     0
 10
0.0
 20
0.0
 11
1.0
 21
1.0
 12
-2.9235268715583511
 22
11.1624799530445102
 13
0.0
 23
0.0
 14
1.0
 24
1.0
 15
0.0
 25
0.0
 16
0.0
 26
0.0
 36
14.6338572656650907
 17
429.6292891080536833
 27
69.7025415122186871
 37
0.0
 40
9.3797085754373022
 41
1.619230769230769
 42
50.0
 43
0.0
 44
0.0
 50
0.0
 51
0.0
 71
     0
 72
   100
 73
     1
 74
     1
 75
     0
 76
     0
 77
     0
 78
     0
  0
ENDTAB
  0
TABLE
  2
LTYPE
 70
     2
  0
LTYPE
  2
CONTINUOUS
 70
     0
  3
Solid line
 72
    65
 73
     0
 40
0.0
  0
LTYPE
  2
PHANTOM2
 70
     0
  3
___ _ _ ___ _ _ ___ _ _ ___ _ _
 72
    65
 73
     6
 40
1.25
 49
0.625
 49
-0.125
 49
0.125
 49
-0.125
 49
0.125
 49
-0.125
  0
ENDTAB
  0
TABLE
  2
LAYER
 70
     2
  0
LAYER
  2
0
 70
     0
 62
   255
  6
CONTINUOUS
  0
LAYER
  2
DEFPOINTS
 70
     0
 62
     7
  6
CONTINUOUS
  0
ENDTAB
  0
TABLE
  2
STYLE
 70
     1
  0
STYLE
  2
STANDARD
 70
     0
 40
0.0
 41
0.8
 50
0.0
 71
     0
 42
0.2
  3
txt
  4

  0
ENDTAB
  0
TABLE
  2
VIEW
 70
     1
  0
ENDTAB
  0
TABLE
  2
UCS
 70
     0
  0
ENDTAB
  0
TABLE
  2
APPID
 70
    10
  0
APPID
  2
ACAD
 70
     0
  0
APPID
  2
ACAD_MLEADERVER
 70
     0
  0
APPID
  2
ACAD_EXEMPT_FROM_CAD_STANDARDS
 70
     0
  0
APPID
  2
ACAD_DSTYLE_DIMJAG
 70
     0
  0
APPID
  2
ACAD_DSTYLE_DIMTALN
 70
     0
  0
APPID
  2
ACAD_NAV_VCDISPLAY
 70
     0
  0
APPID
  2
ACAECLAYERSTANDARD
 70
     0
  0
APPID
  2
ACCMTRANSPARENCY
 70
     0
  0
APPID
  2
DCO15
 70
     0
  0
APPID
  2
ACDBATTR
 70
     0
  0
ENDTAB
  0
TABLE
  2
DIMSTYLE
 70
     1
  0
DIMSTYLE
  2
STANDARD
 70
     0
  3

  4

  5

  6

  7

 40
1.0
 41
0.1875
 42
0.0625
 43
0.38
 44
0.125
 45
0.0
 46
0.0
 47
0.01
 48
0.01
140
0.15625
141
0.09
142
0.0
143
25.3999999999999986
144
1.0
145
0.0
146
1.0
147
0.09
 71
     1
 72
     0
 73
     1
 74
     1
 75
     0
 76
     0
 77
     0
 78
     4
170
     0
171
     2
172
     0
173
     0
174
     0
175
     0
176
     0
177
     0
178
     0
  0
ENDTAB
  0
ENDSEC
  0
SECTION
  2
BLOCKS
  0
BLOCK
  8
0
  2
$MODEL_SPACE
 70
     0
 10
0.0
 20
0.0
 30
0.0
  3
$MODEL_SPACE
  1

  0
ENDBLK
  5
21
  8
0
  0
BLOCK
 67
     1
  8
0
  2
$PAPER_SPACE
 70
     0
 10
0.0
 20
0.0
 30
0.0
  3
$PAPER_SPACE
  1

  0
ENDBLK
  5
1D
 67
     1
  8
0
  0
ENDSEC
  0
SECTION
  2
ENTITIES
  0
ATTDEF
  5
E04D
  8
DEFPOINTS
 10
426.7059850253294258
 20
76.7122116135655432
 30
0.0
 40
0.001
  1
K-14788D
  3

  2
MODELNUMBER
 70
     0
1001
ACDBATTR
1070
     0
1070
     1
  0
ATTDEF
  5
E04E
  8
DEFPOINTS
 10
426.7059850253294258
 20
76.7105449468988638
 30
0.0
 40
0.001
  1
SHIFT
  3

  2
TRADENAME
 70
     0
1001
ACDBATTR
1070
     0
1070
     1
  0
ATTDEF
  5
E04F
  8
DEFPOINTS
 10
426.7059850253294258
 20
76.7088782802322129
 30
0.0
 40
0.001
  1
HANDSHOWER
  3

  2
PRODUCT
 70
     0
1001
ACDBATTR
1070
     0
1070
     1
  0
LINE
  5
116EF
  8
0
 10
426.2527782685863826
 20
81.6009619611003671
 30
0.0
 11
427.1687782685863795
 21
81.6009619611003671
 31
0.0
  0
LINE
  5
116F0
  8
0
 10
426.2407782685863822
 20
81.5469619611003651
 30
0.0
 11
427.1807782685863799
 21
81.5469619611003651
 31
0.0
  0
LINE
  5
116F1
  8
0
 10
427.170778268586389
 20
81.5929619611003716
 30
0.0
 11
426.2507782685863162
 21
81.5929619611003716
 31
0.0
  0
LINE
  5
116F2
  8
0
 10
427.1687782685863795
 20
81.6009619611003671
 30
0.0
 11
426.2527782685863826
 21
81.6009619611003671
 31
0.0
  0
LINE
  5
116F3
  8
0
 10
426.2407782685863822
 20
76.7969619611003651
 30
0.0
 11
426.2407782685863822
 21
81.5469619611003651
 31
0.0
  0
LINE
  5
116F4
  8
0
 10
427.1807782685863799
 20
76.7969619611003651
 30
0.0
 11
427.1807782685863799
 21
81.2039619611003616
 31
0.0
  0
LINE
  5
116F5
  8
0
 10
427.1807782685863799
 20
81.6129619611003534
 30
0.0
 11
427.1807782685863799
 21
85.2699619611003641
 31
0.0
  0
LINE
  5
116F6
  8
0
 10
427.170778268586389
 20
81.5929619611003716
 30
0.0
 11
427.170778268586389
 21
81.5529619611003795
 31
0.0
  0
ARC
  5
116F7
  8
0
 10
427.1687782685863795
 20
81.6129619611003534
 30
0.0
 40
0.012
 50
269.9999999999673719
 51
0.0
  0
LINE
  5
116F8
  8
0
 10
426.3282782685864163
 20
81.6009619611003671
 30
0.0
 11
426.3282782685864163
 21
81.597961961100367
 31
0.0
  0
ARC
  5
116F9
  8
0
 10
426.3332782685864117
 20
81.597961961100367
 30
0.0
 40
0.0049999999999992
 50
180.0
 51
270.0
  0
LINE
  5
116FA
  8
0
 10
427.0932782685864026
 20
81.597961961100367
 30
0.0
 11
427.0932782685864026
 21
81.6009619611003671
 31
0.0
  0
ARC
  5
116FB
  8
0
 10
427.0882782685864072
 20
81.597961961100367
 30
0.0
 40
0.0049999999999992
 50
270.0
 51
0.0
  0
LINE
  5
116FC
  8
0
 10
426.2507782685863162
 20
81.5929619611003716
 30
0.0
 11
426.2507782685863162
 21
81.5529619611003795
 31
0.0
  0
LINE
  5
116FD
  8
0
 10
426.2407782685863822
 20
81.6129619611003534
 30
0.0
 11
426.2407782685863822
 21
82.1129559320333584
 31
0.0
  0
LINE
  5
116FE
  8
0
 10
426.2407782685863822
 20
84.7859679900684
 30
0.0
 11
426.2407782685863822
 21
85.2699619611003641
 31
0.0
  0
ARC
  5
116FF
  8
0
 10
426.2527782685863826
 20
81.6129619611003534
 30
0.0
 40
0.012
 50
179.9999999999909903
 51
270.0000000000097771
  0
LINE
  5
11700
  8
0
 10
426.2387782685863726
 20
85.3609619611003723
 30
0.0
 11
426.2387782685863726
 21
85.2929619611003744
 31
0.0
  0
ARC
  5
11701
  8
0
 10
426.2487782685864204
 20
85.3609619611003438
 30
0.0
 40
0.01
 50
90.0000000000097771
 51
179.9999999999486988
  0
ARC
  5
11702
  8
0
 10
426.2507782685863162
 20
85.2929619611003744
 30
0.0
 40
0.012
 50
179.9999999999828901
 51
270.0000000000163141
  0
LINE
  5
11703
  8
0
 10
426.2487782685864204
 20
85.3709619611003632
 30
0.0
 11
427.1727782685863986
 21
85.3709619611003632
 31
0.0
  0
LINE
  5
11704
  8
0
 10
426.2507782685863162
 20
85.280961961100374
 30
0.0
 11
427.170778268586389
 21
85.280961961100374
 31
0.0
  0
ARC
  5
11705
  8
0
 10
426.2517782685864063
 20
85.2699619611003641
 30
0.0
 40
0.011
 50
89.9999999999902229
 51
180.0
  0
LINE
  5
11706
  8
0
 10
427.1827782685863895
 20
85.3609619611003723
 30
0.0
 11
427.1827782685863895
 21
85.2929619611003744
 31
0.0
  0
ARC
  5
11707
  8
0
 10
427.1727782685863986
 20
85.3609619611003438
 30
0.0
 40
0.01
 50
0.0000000000504818
 51
89.9999999999902229
  0
ARC
  5
11708
  8
0
 10
427.170778268586389
 20
85.2929619611003744
 30
0.0
 40
0.012
 50
269.9999999999837996
 51
0.0000000000170987
  0
ARC
  5
11709
  8
0
 10
427.1697782685865263
 20
85.2699619611003641
 30
0.0
 40
0.011
 50
0.0
 51
90.0000000000097771
  0
ARC
  5
1170A
  8
0
 10
427.4494754749687218
 20
81.3147297740710542
 30
0.0
 40
0.2771861618153745
 50
174.3971689783253964
 51
180.1587110216688075
  0
LINE
  5
1170B
  8
0
 10
427.1722903765863748
 20
81.3139619611004179
 30
0.0
 11
427.1722903765863748
 21
81.2539619611000745
 31
0.0
  0
LINE
  5
1170C
  8
0
 10
427.1783526233638213
 20
81.3639619611003724
 30
0.0
 11
427.2107782685864095
 21
81.3639619611003724
 31
0.0
  0
ARC
  5
1170D
  8
0
 10
427.2633142270586859
 20
81.335767612131491
 30
0.0
 40
0.0899027550411292
 50
162.1638600222258901
 51
176.1577060931587084
  0
ARC
  5
1170E
  8
0
 10
427.1791820186289783
 20
81.3625585938267051
 30
0.0
 40
0.0016301337979257
 50
120.5832447120913002
 51
152.7713548611606029
  0
ARC
  5
1170F
  8
0
 10
427.424241593920101
 20
81.3129775354745448
 30
0.0
 40
0.2216504170306046
 50
166.7016453957714077
 51
179.7455289288762117
  0
LINE
  5
11710
  8
0
 10
427.2107782685864095
 20
81.3639619611003724
 30
0.0
 11
427.2107782685864095
 21
81.2039619611003758
 31
0.0
  0
LINE
  5
11711
  8
0
 10
427.2025933629864767
 20
81.3139619611003752
 30
0.0
 11
427.2025933629864767
 21
81.2539619611006287
 31
0.0
  0
ARC
  5
11712
  8
0
 10
427.4494754749687218
 20
81.253194148129694
 30
0.0
 40
0.2771861618153745
 50
179.8412889783311073
 51
185.6028310216746036
  0
LINE
  5
11713
  8
0
 10
427.1783526233638213
 20
81.2039619611003758
 30
0.0
 11
427.2107782685864095
 21
81.2039619611003758
 31
0.0
  0
ARC
  5
11714
  8
0
 10
427.2633142270586859
 20
81.232156310069243
 30
0.0
 40
0.0899027550411292
 50
183.8422939068404958
 51
197.8361399777741099
  0
ARC
  5
11715
  8
0
 10
427.1791820186289783
 20
81.2053653283740289
 30
0.0
 40
0.0016301337979257
 50
207.2286451388393118
 51
239.4167552879085861
  0
ARC
  5
11716
  8
0
 10
427.424241593920101
 20
81.254946386726175
 30
0.0
 40
0.2216504170306046
 50
180.254471071123703
 51
193.298354604228507
  0
LINE
  5
11717
  8
0
 10
427.1722903765863748
 20
81.3139619611003752
 30
0.0
 11
427.2025933629864767
 21
81.3139619611003752
 31
0.0
  0
LINE
  5
11718
  8
0
 10
427.1722903765863748
 20
81.2539619611003587
 30
0.0
 11
427.2025933629864767
 21
81.2539619611003587
 31
0.0
  0
LINE
  5
11719
  8
0
 10
427.1807782685863799
 20
81.5469619611003651
 30
0.0
 11
427.1807782685863799
 21
81.3579619611003722
 31
0.0
  0
LINE
  5
1171A
  8
0
 10
427.0707782685864231
 20
76.3569619611003532
 30
0.0
 11
426.3507782685863958
 21
76.3569619611003532
 31
0.0
  0
LINE
  5
1171B
  8
0
 10
426.3507782685863958
 20
76.6319619611003731
 30
0.0
 11
426.3157583014864258
 21
76.5969408125003639
 31
0.0
  0
LINE
  5
1171C
  8
0
 10
426.3159449889864163
 20
76.5965284015003647
 30
0.0
 11
426.3468264082864039
 21
76.5804259996003651
 31
0.0
  0
LINE
  5
1171D
  8
0
 10
426.3468264082865176
 20
76.5804259996003651
 30
0.0
 11
426.3468264082864039
 21
76.5692169182003681
 31
0.0
  0
LINE
  5
1171E
  8
0
 10
426.3468264082864039
 20
76.5692169182003681
 30
0.0
 11
426.3016588504863762
 21
76.5456666804003731
 31
0.0
  0
LINE
  5
1171F
  8
0
 10
426.3010782685864228
 20
76.5450613498003776
 30
0.0
 11
426.3010782685864228
 21
76.5331526360003664
 31
0.0
  0
ARC
  5
11720
  8
0
 10
426.3161297018971823
 20
76.5968604758614333
 30
0.0
 40
0.0003799897902403
 50
167.7945429463684945
 51
240.9154552035606969
  0
ARC
  5
11721
  8
0
 10
426.3022191488262251
 20
76.5445482018141945
 30
0.0
 40
0.0012509710537689
 50
116.6084357708380992
 51
155.7826179721407129
  0
ARC
  5
11722
  8
0
 10
427.1198753258620968
 20
76.5808725650872901
 30
0.0
 40
0.0006106413747026
 50
300.8428900403724242
 51
350.8922908057697896
  0
ARC
  5
11723
  8
0
 10
426.8353518809440743
 20
68.7491126532388677
 30
0.0
 40
7.8147989704922809
 50
90.9133753206988331
 51
93.9159263481855362
  0
ARC
  5
11724
  8
0
 10
426.5931999382502227
 20
84.1418551988175238
 30
0.0
 40
7.5798485256476811
 50
270.8888056657741004
 51
273.9867013586235203
  0
ARC
  5
11725
  8
0
 10
426.8353518809440743
 20
68.6776835545388735
 30
0.0
 40
7.8147989704922809
 50
90.9133753206988331
 51
93.9159263481855362
  0
ARC
  5
11726
  8
0
 10
426.6082075474415092
 20
83.5535971109851943
 30
0.0
 40
7.0628523804644354
 50
270.832110842984207
 51
274.1593316641582874
  0
ARC
  5
11727
  8
0
 10
426.8984986259878838
 20
66.4325787431321686
 30
0.0
 40
9.9892456489393773
 50
91.076779740017443
 51
93.410793213903716
  0
ARC
  5
11728
  8
0
 10
426.6082075514037228
 20
83.4821678481792162
 30
0.0
 40
7.0628522895104773
 50
270.8321108215549202
 51
274.1593316855896774
  0
LINE
  5
11729
  8
0
 10
426.3010782685864228
 20
76.4736322511003692
 30
0.0
 11
426.3010782685864228
 21
76.4617233447003741
 31
0.0
  0
LINE
  5
1172A
  8
0
 10
427.1204782685863961
 20
76.5807759061003708
 30
0.0
 11
427.1204782685863961
 21
76.5688671557003744
 31
0.0
  0
LINE
  5
1172B
  8
0
 10
427.1204782685863961
 20
76.5093467991003706
 30
0.0
 11
427.1204782685863961
 21
76.4974374732003639
 31
0.0
  0
LINE
  5
1172C
  8
0
 10
427.1204782685863961
 20
76.4379176272003633
 30
0.0
 11
427.1204782685863961
 21
76.4260084923003689
 31
0.0
  0
LINE
  5
1172D
  8
0
 10
426.3468263482864131
 20
76.508997034700343
 30
0.0
 11
426.3468263482864131
 21
76.4977877230003713
 31
0.0
  0
LINE
  5
1172E
  8
0
 10
426.3468273239864175
 20
76.4375669754003582
 30
0.0
 11
426.3468273239864175
 21
76.426358821100365
 31
0.0
  0
LINE
  5
1172F
  8
0
 10
426.3468263751864242
 20
76.3664790207003676
 30
0.0
 11
426.3468263751864242
 21
76.3609138546003692
 31
0.0
  0
LINE
  5
11730
  8
0
 10
426.3468263751864242
 20
76.3609138546003692
 30
0.0
 11
426.3507782685863958
 21
76.3569619611003532
 31
0.0
  0
LINE
  5
11731
  8
0
 10
426.3468263751864242
 20
76.3664790207003676
 30
0.0
 11
426.3372350944864024
 21
76.3711402256003709
 31
0.0
  0
LINE
  5
11732
  8
0
 10
426.3372350944864024
 20
76.3711402256003709
 30
0.0
 11
426.3352209863863891
 21
76.3725202354003727
 31
0.0
  0
LINE
  5
11733
  8
0
 10
426.3352209863863891
 20
76.3725202354003727
 30
0.0
 11
426.3040106112864009
 21
76.4037296183003747
 31
0.0
  0
LINE
  5
11734
  8
0
 10
426.3041942691863824
 20
76.4041298244003713
 30
0.0
 11
426.3468273239864175
 21
76.426358821100365
 31
0.0
  0
LINE
  5
11735
  8
0
 10
426.3016600822863893
 20
76.4611171553003715
 30
0.0
 11
426.3468273239864175
 21
76.4375669754003724
 31
0.0
  0
ARC
  5
11736
  8
0
 10
426.3021946612764168
 20
76.4622125419323169
 30
0.0
 40
0.0012188710226895
 50
203.662772435719603
 51
243.9863434789579912
  0
ARC
  5
11737
  8
0
 10
426.3023743552038809
 20
76.4611077250237372
 30
0.0
 40
0.0014348617028833
 50
103.268432682509598
 51
154.5930561728195869
  0
ARC
  5
11738
  8
0
 10
426.8418617463030955
 20
68.4416875809834551
 30
0.0
 40
8.0389615412359312
 50
90.9343076409997764
 51
93.8503120554792503
  0
ARC
  5
11739
  8
0
 10
426.5867699263914119
 20
84.2799521076294269
 30
0.0
 40
7.8013574458387458
 50
270.9107970809640733
 51
273.9185186711391111
  0
ARC
  5
1173A
  8
0
 10
426.9515805493380185
 20
76.6590515943302933
 30
0.0
 40
0.2337639059305959
 50
316.0568054588733844
 51
316.2624415962015973
  0
LINE
  5
1173B
  8
0
 10
427.1198971444865151
 20
76.4968323368003666
 30
0.0
 11
427.0747299596864082
 21
76.4732822298003754
 31
0.0
  0
LINE
  5
1173C
  8
0
 10
427.0747299596864082
 20
76.4732822298003754
 30
0.0
 11
427.0747299596866924
 21
76.4620729703004258
 31
0.0
  0
LINE
  5
1173D
  8
0
 10
427.0747299596864082
 20
76.462072970300369
 30
0.0
 11
427.1198976664863949
 21
76.4385226059003742
 31
0.0
  0
LINE
  5
1173E
  8
0
 10
427.1198980116864732
 20
76.4254030911003639
 30
0.0
 11
427.0747297044865149
 21
76.4018524867003634
 31
0.0
  0
LINE
  5
1173F
  8
0
 10
427.0747297044864013
 20
76.4018524867003634
 30
0.0
 11
427.0747297044864013
 21
76.3906440711003683
 31
0.0
  0
LINE
  5
11740
  8
0
 10
427.0747297044864013
 20
76.3906440711003683
 30
0.0
 11
427.0938636653863796
 21
76.380666601800371
 31
0.0
  0
LINE
  5
11741
  8
0
 10
427.0707782685864231
 20
76.3569619611003532
 30
0.0
 11
427.0940567733863986
 21
76.380241613800365
 31
0.0
  0
ARC
  5
11742
  8
0
 10
427.0936023172175169
 20
76.3800867290981103
 30
0.0
 40
0.0006360465519691
 50
40.0617656386879233
 51
65.7389479723696155
  0
ARC
  5
11743
  8
0
 10
427.0939530046790082
 20
76.3803840987843188
 30
0.0
 40
0.0001762666028598
 50
306.0650349247734994
 51
39.448972227654707
  0
ARC
  5
11744
  8
0
 10
426.264455142014981
 20
88.2555068426822658
 30
0.0
 40
11.8953849078841394
 50
270.661168197866516
 51
272.1502822826042802
  0
ARC
  5
11745
  8
0
 10
426.60113655118829
 20
86.2073839668856863
 30
0.0
 40
9.8394967947174443
 50
270.6384612756841079
 51
272.8714958895778864
  0
LINE
  5
11746
  8
0
 10
426.3468263751864242
 20
76.3609138546003692
 30
0.0
 11
426.4017196267864733
 21
76.3609139296003718
 31
0.0
  0
ARC
  5
11747
  8
0
 10
425.7274705330244728
 20
99.2565216744045955
 30
0.0
 40
22.9055335201862817
 50
271.686806748912602
 51
273.3719730827671128
  0
ARC
  5
11748
  8
0
 10
444.7656396150894125
 20
-295.142725353866183
 30
0.0
 40
371.9655113262384134
 50
92.7260511176747855
 51
92.8383061827051534
  0
ARC
  5
11749
  8
0
 10
426.5862209330239239
 20
84.2216669508123488
 30
0.0
 40
7.8145083910980011
 50
270.9133786216257249
 51
273.9159549556446223
  0
ARC
  5
1174A
  8
0
 10
426.821923351958219
 20
44.6167195234525806
 30
0.0
 40
31.7916262094902713
 50
90.2002874643454646
 51
90.9331074317712194
  0
ARC
  5
1174B
  8
0
 10
426.3043744499021841
 20
76.4038048938577532
 30
0.0
 40
0.000371544005286
 50
119.0092760185341945
 51
191.6891581201981012
  0
ARC
  5
1174C
  8
0
 10
417.7724589427530759
 20
258.6192533368941895
 30
0.0
 40
182.3945465335525
 50
272.694467887828921
 51
272.9233998755594826
  0
ARC
  5
1174D
  8
0
 10
436.0398263908944045
 20
-113.6772948527541018
 30
0.0
 40
190.3618000515054973
 50
92.6993454408694504
 51
92.9186958930332167
  0
LINE
  5
1174E
  8
0
 10
426.3016598912864197
 20
76.5325468498003687
 30
0.0
 11
426.3468263482864131
 21
76.5089970347003714
 31
0.0
  0
LINE
  5
1174F
  8
0
 10
426.3016588504863762
 20
76.4742375817003648
 30
0.0
 11
426.3468263482864131
 21
76.4977877230003855
 31
0.0
  0
ARC
  5
11750
  8
0
 10
426.3022485469207936
 20
76.4730909069490252
 30
0.0
 40
0.0012894203620218
 50
117.2152418467027957
 51
155.1758118960601962
  0
ARC
  5
11751
  8
0
 10
426.3023140875159243
 20
76.5337570561733855
 30
0.0
 40
0.0013757078802914
 50
206.062551120980288
 51
241.6058586289670984
  0
ARC
  5
11752
  8
0
 10
426.8133224734933151
 20
69.4893788107578843
 30
0.0
 40
7.062375225561996
 50
90.8319520411055237
 51
94.159397486014015
  0
ARC
  5
11753
  8
0
 10
426.5861719305070778
 20
84.3659318608775948
 30
0.0
 40
7.8159156641208689
 50
270.9134846361781115
 51
273.9155992002386029
  0
ARC
  5
11754
  8
0
 10
427.1194031903896757
 20
76.5693160362556
 30
0.0
 40
0.0011650265583863
 50
295.062299796052173
 51
337.3378567596333824
  0
LINE
  5
11755
  8
0
 10
427.1198966996864215
 20
76.5682606996003727
 30
0.0
 11
427.0747301565863836
 21
76.5447109398003676
 31
0.0
  0
LINE
  5
11756
  8
0
 10
427.0747301565863836
 20
76.5447109398003676
 30
0.0
 11
427.0747301565863836
 21
76.5331618756003706
 31
0.0
  0
LINE
  5
11757
  8
0
 10
427.0747301565863836
 20
76.5331618756003849
 30
0.0
 11
427.1198977056864123
 21
76.5099520849003767
 31
0.0
  0
LINE
  5
11758
  8
0
 10
427.0747301104864277
 20
76.6049315107003679
 30
0.0
 11
427.1198976042863933
 21
76.5813813046003702
 31
0.0
  0
LINE
  5
11759
  8
0
 10
427.0747301104864277
 20
76.6161407858003543
 30
0.0
 11
427.0747301104864846
 21
76.6049315107003821
 31
0.0
  0
LINE
  5
1175A
  8
0
 10
427.0707782685864231
 20
76.6319619611003731
 30
0.0
 11
427.0823121241863873
 21
76.6204281054003644
 31
0.0
  0
LINE
  5
1175B
  8
0
 10
427.0747301104864846
 20
76.6161407858003543
 30
0.0
 11
427.082110281586381
 21
76.6199894229003746
 31
0.0
  0
ARC
  5
1175C
  8
0
 10
409.098240380469008
 20
438.9335809174630185
 30
0.0
 40
362.8459975063641991
 50
272.7246924965670019
 51
272.8397689824885219
  0
ARC
  5
1175D
  8
0
 10
435.7604514574164796
 20
-107.9192762059349064
 30
0.0
 40
184.6683630409326042
 50
92.6958534409486248
 51
92.9219669513560405
  0
ARC
  5
1175E
  8
0
 10
417.5739979073998143
 20
262.8049694457295118
 30
0.0
 40
186.4422646274202862
 50
272.6969835163365019
 51
272.9209456488331966
  0
ARC
  5
1175F
  8
0
 10
435.8450959132629237
 20
-109.5684095869102066
 30
0.0
 40
186.3910033070343104
 50
92.6969679279342245
 51
92.9209916575729693
  0
ARC
  5
11760
  8
0
 10
426.8233038642010797
 20
66.1737141120956238
 30
0.0
 40
10.4355765219877394
 50
90.6178256363812693
 51
92.7877420607800758
  0
ARC
  5
11761
  8
0
 10
426.6095236754654252
 20
86.0383318447178311
 30
0.0
 40
9.4301915184629923
 50
270.615212561164924
 51
272.8725359962206198
  0
ARC
  5
11762
  8
0
 10
427.0819554245629206
 20
76.6203264505450932
 30
0.0
 40
0.000370902050476
 50
294.6777733383065083
 51
15.9068778442639704
  0
LINE
  5
11763
  8
0
 10
427.1198976042863933
 20
76.5813813046003702
 30
0.0
 11
427.1204782685863961
 21
76.5807759061003708
 31
0.0
  0
ARC
  5
11764
  8
0
 10
427.1185271609713823
 20
76.5080564522841087
 30
0.0
 40
0.0023391912773222
 50
33.4782852428643523
 51
54.1330244450384228
  0
LINE
  5
11765
  8
0
 10
427.1198976664863949
 20
76.4385226059003742
 30
0.0
 11
427.1204782685863961
 21
76.4379176272003633
 31
0.0
  0
ARC
  5
11766
  8
0
 10
427.1192911621728854
 20
76.4265655152234018
 30
0.0
 40
0.0013112956089126
 50
297.5670426309025061
 51
334.8627410533296143
  0
LINE
  5
11767
  8
0
 10
426.3507782685863958
 20
76.6319619611003731
 30
0.0
 11
427.0707782685864231
 21
76.6319619611003731
 31
0.0
  0
LINE
  5
11768
  8
0
 10
427.1607782685863981
 20
76.7069619611003759
 30
0.0
 11
426.2607782685864208
 21
76.7069619611003759
 31
0.0
  0
LINE
  5
11769
  8
0
 10
426.2407782685863822
 20
76.7269619611003719
 30
0.0
 11
426.2407782685863822
 21
76.7789619611003786
 31
0.0
  0
ARC
  5
1176A
  8
0
 10
426.330778268586414
 20
76.6869619611003657
 30
0.0
 40
0.02
 50
0.0000000000024427
 51
89.9999999999934914
  0
ARC
  5
1176B
  8
0
 10
426.2607782685864208
 20
76.7269619611003719
 30
0.0
 40
0.02
 50
180.0000000000023874
 51
270.0
  0
ARC
  5
1176C
  8
0
 10
426.2608635351829776
 20
76.776756109326314
 30
0.0
 40
0.020206031681349
 50
89.7582193740981751
 51
173.7326441858787973
  0
LINE
  5
1176D
  8
0
 10
426.3507782685863958
 20
76.6869619611003657
 30
0.0
 11
426.3507782685863958
 21
76.6319619611003731
 31
0.0
  0
LINE
  5
1176E
  8
0
 10
427.1807782685863799
 20
76.7269619611003719
 30
0.0
 11
427.1807782685863799
 21
76.7789619611003786
 31
0.0
  0
ARC
  5
1176F
  8
0
 10
427.0907782685864049
 20
76.6869619611003657
 30
0.0
 40
0.02
 50
90.0000000000065086
 51
179.9999999999974989
  0
ARC
  5
11770
  8
0
 10
427.1607782685863981
 20
76.7269619611003719
 30
0.0
 40
0.02
 50
270.0
 51
359.9999999999976126
  0
ARC
  5
11771
  8
0
 10
427.1607032653178067
 20
76.7767675130240832
 30
0.0
 40
0.0201945873588984
 50
6.2383736433312187
 51
90.2127985715826526
  0
LINE
  5
11772
  8
0
 10
427.0707782685864231
 20
76.6869619611003657
 30
0.0
 11
427.0707782685864231
 21
76.6319619611003731
 31
0.0
  0
LINE
  5
11773
  8
0
 10
426.2407782685863822
 20
76.7969619611003651
 30
0.0
 11
427.1807782685863799
 21
76.7969619611003651
 31
0.0
  0
ARC
  5
11774
  8
0
 10
426.2440009182216158
 20
84.776361089662899
 30
0.0
 40
0.0101330156455146
 50
91.5986624087200028
 51
149.2913691119796908
  0
LINE
  5
11775
  8
0
 10
426.2437182242863969
 20
84.7864901612003479
 30
0.0
 11
426.2586836888202129
 21
84.7868840551952445
 31
0.0
  0
LINE
  5
11776
  8
0
 10
426.2357439584865233
 20
84.7106200555003568
 30
0.0
 11
426.2612949006621079
 21
84.7044821907107348
 31
0.0
  0
ARC
  5
11777
  8
0
 10
426.238202972871477
 20
84.7205658138266955
 30
0.0
 40
0.0102452359871114
 50
191.7605460255144862
 51
256.1125508794943926
  0
ARC
  5
11778
  8
0
 10
426.6943360900385755
 20
84.7009600974591166
 30
0.0
 40
0.4670473897432456
 50
170.8957603509010141
 51
177.0450656775738025
  0
ARC
  5
11779
  8
0
 10
426.2554118623500017
 20
84.7714824149810084
 30
0.0
 40
0.0224945986315134
 50
153.4536393880840137
 51
171.3603735386363951
  0
ARC
  5
1177A
  8
0
 10
426.2558646971041867
 20
84.7228732475650474
 30
0.0
 40
0.0280385896755011
 50
175.5748507812338062
 51
189.0195229345484904
  0
ARC
  5
1177B
  8
0
 10
426.4486269663706821
 20
84.7265992615280368
 30
0.0
 40
0.2196112328783506
 50
168.8560786588010103
 51
179.1439200088769041
  0
ARC
  5
1177C
  8
0
 10
426.0158216911532918
 20
84.7720889340863835
 30
0.0
 40
0.2173561805797188
 50
348.8025648042373064
 51
359.1974338634403239
  0
ARC
  5
1177D
  8
0
 10
426.0565524684240017
 20
84.7393192937869486
 30
0.0
 40
0.2076850676132456
 50
349.5351491282585812
 51
11.4985094869507698
  0
ARC
  5
1177E
  8
0
 10
426.2500654816519159
 20
84.7998247039373609
 30
0.0
 40
0.0021373239519238
 50
55.421231278177487
 51
142.4131365325455079
  0
ARC
  5
1177F
  8
0
 10
426.282940877046201
 20
84.7836466098484607
 30
0.0
 40
0.038738012804
 50
153.1740083102882011
 51
175.7673935442838058
  0
ARC
  5
11780
  8
0
 10
426.2140429121777743
 20
84.7736120325137108
 30
0.0
 40
0.0465719392476302
 50
8.7786661862106303
 51
36.9149179114204316
  0
ARC
  5
11781
  8
0
 10
426.2503225146566024
 20
84.6799986649798768
 30
0.0
 40
0.0027605517634984
 50
196.5498710928083881
 51
331.2592373403049919
  0
ARC
  5
11782
  8
0
 10
426.1962195383762833
 20
84.7113666642553369
 30
0.0
 40
0.0652984583764867
 50
329.953205853389079
 51
330.6138672491990746
  0
ARC
  5
11783
  8
0
 10
426.1962195383762833
 20
84.7113666642553369
 30
0.0
 40
0.0652984583764867
 50
333.9625483778045236
 51
351.3953332805318155
  0
ARC
  5
11784
  8
0
 10
426.3566600493821284
 20
84.7114573653294372
 30
0.0
 40
0.1136538368527258
 50
181.3052620246795925
 51
196.481919026604686
  0
LINE
  5
11785
  8
0
 10
426.2421732895464856
 20
84.6872641194127453
 30
0.0
 11
426.2230889801863896
 21
84.6865976807003733
 31
0.0
  0
LINE
  5
11786
  8
0
 10
426.2134840151863955
 20
84.6775622144003677
 30
0.0
 11
426.2080788363863917
 21
84.6214272863003742
 31
0.0
  0
LINE
  5
11787
  8
0
 10
426.2157769683864217
 20
84.6106595347003747
 30
0.0
 11
426.2427296232592084
 21
84.6044370240646941
 31
0.0
  0
ARC
  5
11788
  8
0
 10
426.2234379787988132
 20
84.6766037724266454
 30
0.0
 40
0.0100000001307614
 50
92.000020873376755
 51
174.5000895876196978
  0
ARC
  5
11789
  8
0
 10
426.2180267381500016
 20
84.6204036190656552
 30
0.0
 40
0.0100004321960181
 50
174.1247815076984864
 51
256.9990474484212086
  0
ARC
  5
1178A
  8
0
 10
425.6070125189850728
 20
84.6415824502769141
 30
0.0
 40
0.6368013971052549
 50
355.0362345320342001
 51
5.4304718861790811
  0
ARC
  5
1178B
  8
0
 10
426.2571602378868079
 20
84.7042732525050042
 30
0.0
 40
0.0163849266266506
 50
181.0886080210399882
 51
188.5123358819811017
  0
LINE
  5
1178C
  8
0
 10
426.2407782685863822
 20
84.7094107101003573
 30
0.0
 11
426.2407782685863822
 21
84.703961961000374
 31
0.0
  0
LINE
  5
1178D
  8
0
 10
426.2421850390863938
 20
84.4878417224003755
 30
0.0
 11
426.2224389974863925
 21
84.4868068763003492
 31
0.0
  0
LINE
  5
1178E
  8
0
 10
426.2129931860864076
 20
84.4776051563003705
 30
0.0
 11
426.20856853238638
 21
84.4213846007003781
 31
0.0
  0
LINE
  5
1178F
  8
0
 10
426.2164534027863851
 20
84.4107526839003555
 30
0.0
 11
426.2427526324755149
 21
84.405162609990839
 31
0.0
  0
ARC
  5
11790
  8
0
 10
426.2229623605934989
 20
84.4768205812180923
 30
0.0
 40
0.0099999999206052
 50
93.0000203610002956
 51
175.5000912025244872
  0
ARC
  5
11791
  8
0
 10
426.2185327731510824
 20
84.4205345497510535
 30
0.0
 40
0.0100004340223182
 50
175.1238942982564879
 51
257.9990439756609248
  0
LINE
  5
11792
  8
0
 10
426.2421358080771938
 20
84.288427730970966
 30
0.0
 11
426.2217854628863734
 21
84.287004696200384
 31
0.0
  0
LINE
  5
11793
  8
0
 10
426.2125016821864278
 20
84.2776395256003639
 30
0.0
 11
426.2090588940864109
 21
84.2213504366003747
 31
0.0
  0
LINE
  5
11794
  8
0
 10
426.2171281083864756
 20
84.2108576242003721
 30
0.0
 11
426.242775283783601
 21
84.2058723183428839
 31
0.0
  0
ARC
  5
11795
  8
0
 10
426.222483031126103
 20
84.2770290559502087
 30
0.0
 40
0.0099999999924829
 50
94.000020118413758
 51
176.5000903792245026
  0
ARC
  5
11796
  8
0
 10
426.2190364460865908
 20
84.2206742918080238
 30
0.0
 40
0.0100004357753676
 50
176.1231869925778994
 51
258.9990393201667871
  0
LINE
  5
11797
  8
0
 10
426.2421141188685851
 20
84.0890270774437454
 30
0.0
 11
426.2211285753863876
 21
84.0871910803003715
 31
0.0
  0
LINE
  5
11798
  8
0
 10
426.2120096533813012
 20
84.0776653116872978
 30
0.0
 11
426.2095497737864207
 21
84.0213248045003667
 31
0.0
  0
LINE
  5
11799
  8
0
 10
426.2178008798863971
 20
84.0109743239003564
 30
0.0
 11
426.2427975940539113
 21
84.0065667287616549
 31
0.0
  0
ARC
  5
1179A
  8
0
 10
426.2220001363314736
 20
84.0772291335810991
 30
0.0
 40
0.0100000000459374
 50
95.0000202086726944
 51
177.5000904383423119
  0
ARC
  5
1179B
  8
0
 10
426.2195376029773115
 20
84.0208228025064443
 30
0.0
 40
0.0100004368879007
 50
177.1226568276973126
 51
259.9990374612791015
  0
LINE
  5
1179C
  8
0
 10
426.2424052479229886
 20
83.8896716132224469
 30
0.0
 11
426.2204685349864235
 21
83.8873659717003761
 31
0.0
  0
LINE
  5
1179D
  8
0
 10
426.2115172495863931
 20
83.8776825068003689
 30
0.0
 11
426.2100410235864274
 21
83.8213077122003654
 31
0.0
  0
LINE
  5
1179E
  8
0
 10
426.2184715121863974
 20
83.8111027472003798
 30
0.0
 11
426.2425376366904857
 21
83.8072910474930666
 31
0.0
  0
ARC
  5
1179F
  8
0
 10
426.2215138229668128
 20
83.8774207533901688
 30
0.0
 40
0.0099999997099759
 50
96.0000194619535989
 51
178.5000920789277075
  0
ARC
  5
117A0
  8
0
 10
426.2200360915379065
 20
83.8209800366108766
 30
0.0
 40
0.0100004377227142
 50
178.1223032529007071
 51
260.9990357635405758
  0
LINE
  5
117A1
  8
0
 10
426.242503659531792
 20
83.6903177028730738
 30
0.0
 11
426.2198055552864275
 21
83.6875307261003769
 31
0.0
  0
LINE
  5
117A2
  8
0
 10
426.2110246328863923
 20
83.6776925146003663
 30
0.0
 11
426.2105324831863982
 21
83.6212977548003664
 31
0.0
  0
LINE
  5
117A3
  8
0
 10
426.2191397887863786
 20
83.611241446200367
 30
0.0
 11
426.242480620967001
 21
83.6079611061991272
 31
0.0
  0
ARC
  5
117A4
  8
0
 10
426.2210242521367149
 20
83.6776052651232476
 30
0.0
 40
0.0099999998810547
 50
97.0000198039965795
 51
179.5000909709825123
  0
ARC
  5
117A5
  8
0
 10
426.2205317476031041
 20
83.6211445373895685
 30
0.0
 40
0.0100004382128397
 50
179.1221330224074109
 51
261.999034841997684
  0
LINE
  5
117A6
  8
0
 10
426.2425292585629109
 20
83.490642058223699
 30
0.0
 11
426.2194729993864257
 21
83.487606644100353
 31
0.0
  0
LINE
  5
117A7
  8
0
 10
426.2107782685864095
 20
83.4776921637003682
 30
0.0
 11
426.2107782685864095
 21
83.4212317584003671
 31
0.0
  0
LINE
  5
117A8
  8
0
 10
426.2194729993864257
 20
83.411317278000368
 30
0.0
 11
426.2424983928336815
 21
83.4082859274938642
 31
0.0
  0
ARC
  5
117A9
  8
0
 10
426.2207782686750761
 20
83.4776921963668741
 30
0.0
 40
0.010000000088821
 50
97.5000425044869559
 51
180.0001871652800105
  0
ARC
  5
117AA
  8
0
 10
426.2207782686751898
 20
83.4212317257338469
 30
0.0
 40
0.0100000000888266
 50
179.9998128347093882
 51
262.4999574954439936
  0
LINE
  5
117AB
  8
0
 10
426.2626825732863836
 20
84.6866023126003569
 30
0.0
 11
426.2906364724933042
 21
84.6875935728677405
 31
0.0
  0
LINE
  5
117AC
  8
0
 10
426.2553710814863734
 20
84.6106695664003752
 30
0.0
 11
426.2972985199285176
 21
84.6009660437611757
 31
0.0
  0
LINE
  5
117AD
  8
0
 10
426.2430700112864201
 20
84.5867046917003478
 30
0.0
 11
426.258818632936709
 21
84.5873944157549289
 31
0.0
  0
LINE
  5
117AE
  8
0
 10
426.2364210726864258
 20
84.510706975600371
 30
0.0
 11
426.2602336475255811
 21
84.5054244911307677
 31
0.0
  0
LINE
  5
117AF
  8
0
 10
426.2620322886863846
 20
84.4868101841003636
 30
0.0
 11
426.2915461470399805
 21
84.4883729436000834
 31
0.0
  0
LINE
  5
117B0
  8
0
 10
426.2560471208864215
 20
84.4107614162003728
 30
0.0
 11
426.2968331958954877
 21
84.4020690143467647
 31
0.0
  0
LINE
  5
117B1
  8
0
 10
426.2587983430635745
 20
84.3879119496259875
 30
0.0
 11
426.2424181607864284
 21
84.3869078750003609
 31
0.0
  0
LINE
  5
117B2
  8
0
 10
426.2600192493787858
 20
84.3061388043985005
 30
0.0
 11
426.2370965780863798
 21
84.3108056975003706
 31
0.0
  0
LINE
  5
117B3
  8
0
 10
426.2613785213864048
 20
84.2870066696003732
 30
0.0
 11
426.2916849134632002
 21
84.2891424079392664
 31
0.0
  0
LINE
  5
117B4
  8
0
 10
426.2567214999863836
 20
84.2108650420003642
 30
0.0
 11
426.2961607782963256
 21
84.2031766341449952
 31
0.0
  0
LINE
  5
117B5
  8
0
 10
426.2417628750864083
 20
84.1870996499003752
 30
0.0
 11
426.2586424102066189
 21
84.1884303960422216
 31
0.0
  0
LINE
  5
117B6
  8
0
 10
426.2377702691863988
 20
84.1109161916003671
 30
0.0
 11
426.2601189902425176
 21
84.1067709733417246
 31
0.0
  0
LINE
  5
117B7
  8
0
 10
426.2607214709864252
 20
84.0871917117003704
 30
0.0
 11
426.2937102009456112
 21
84.0900959043542855
 31
0.0
  0
LINE
  5
117B8
  8
0
 10
426.2573940138864259
 20
84.01098041470037
 30
0.0
 11
426.2955771690386086
 21
84.0042263119168666
 31
0.0
  0
LINE
  5
117B9
  8
0
 10
426.2411043539863726
 20
83.9872799585003804
 30
0.0
 11
426.2590161907954212
 21
83.9890071219267327
 31
0.0
  0
LINE
  5
117BA
  8
0
 10
426.2384419408863891
 20
83.9110384248003669
 30
0.0
 11
426.2598813893745273
 21
83.9074477050727126
 31
0.0
  0
LINE
  5
117BB
  8
0
 10
426.2600613377863965
 20
83.8873652566003614
 30
0.0
 11
426.2943730744980826
 21
83.8909904284007268
 31
0.0
  0
LINE
  5
117BC
  8
0
 10
426.2580644581864249
 20
83.8111075014003575
 30
0.0
 11
426.2950641262248723
 21
83.8052267059471347
 31
0.0
  0
LINE
  5
117BD
  8
0
 10
426.2404427979864181
 20
83.7874487466003757
 30
0.0
 11
426.2592907303863967
 21
83.7895987868003687
 31
0.0
  0
LINE
  5
117BE
  8
0
 10
426.239111388786398
 20
83.7111723606003721
 30
0.0
 11
426.259937761086519
 21
83.7080569506003656
 31
0.0
  0
LINE
  5
117BF
  8
0
 10
426.2593983231864172
 20
83.6875272537003667
 30
0.0
 11
426.2949062107722966
 21
83.6919066845811557
 31
0.0
  0
LINE
  5
117C0
  8
0
 10
426.2587326290864098
 20
83.6112462659003768
 30
0.0
 11
426.2945363674010082
 21
83.6061945134463969
 31
0.0
  0
LINE
  5
117C1
  8
0
 10
426.2399447606863987
 20
83.5875677467003726
 30
0.0
 11
426.2596583337621041
 21
83.5900783476917155
 31
0.0
  0
LINE
  5
117C2
  8
0
 10
426.2396118924863799
 20
83.5112804682003542
 30
0.0
 11
426.2595776015666047
 21
83.5085604956158249
 31
0.0
  0
LINE
  5
117C3
  8
0
 10
426.259065798386473
 20
83.4876039071003788
 30
0.0
 11
426.2943022690873249
 21
83.4922623818584384
 31
0.0
  0
LINE
  5
117C4
  8
0
 10
426.259065798386473
 20
83.4113200151003866
 30
0.0
 11
426.2945736304820912
 21
83.4066256646585202
 31
0.0
  0
ARC
  5
117C5
  8
0
 10
426.2607394993927983
 20
83.4767144733817474
 30
0.0
 40
0.0110173064662471
 50
98.7379562273318356
 51
169.4433300280049082
  0
ARC
  5
117C6
  8
0
 10
426.2608274332583846
 20
83.4223346602055642
 30
0.0
 40
0.0111546297211304
 50
188.9265725214087013
 51
260.9133157978026816
  0
ARC
  5
117C7
  8
0
 10
426.4590423964240244
 20
83.4493057703304544
 30
0.0
 40
0.2111939236929717
 50
171.9905077126859112
 51
187.8108584532749035
  0
ARC
  5
117C8
  8
0
 10
426.4432246408167089
 20
83.4494613066352571
 30
0.0
 40
0.194568305581567
 50
176.3680288196366917
 51
183.6288156909629947
  0
ARC
  5
117C9
  8
0
 10
426.0576983515512097
 20
83.4494626199748666
 30
0.0
 40
0.1945418443864962
 50
356.363145087792077
 51
3.633696230803622
  0
ARC
  5
117CA
  8
0
 10
426.2504460326179014
 20
83.4690178914425758
 30
0.0
 40
0.0002139758185496
 50
34.4801182621914606
 51
150.4359748010564886
  0
ARC
  5
117CB
  8
0
 10
426.2759258194420227
 20
83.4611121663710236
 30
0.0
 40
0.0268871633936774
 50
162.6648814443481115
 51
178.5624264440141076
  0
ARC
  5
117CC
  8
0
 10
426.2257489300720863
 20
83.4612101593237696
 30
0.0
 40
0.0261066531552984
 50
1.2774723395465519
 51
17.6806093183738007
  0
ARC
  5
117CD
  8
0
 10
426.2504441537387834
 20
83.4299470351033676
 30
0.0
 40
0.0002548282493582
 50
193.5080785644597086
 51
341.1939686837811223
  0
ARC
  5
117CE
  8
0
 10
426.2208282547501881
 20
83.4383715285687657
 30
0.0
 40
0.031045301710217
 50
344.0971317679778281
 51
357.6939490558714851
  0
ARC
  5
117CF
  8
0
 10
426.2785985589646884
 20
83.4381074156183757
 30
0.0
 40
0.0295677338598902
 50
181.8621731750610024
 51
196.1410237616040888
  0
ARC
  5
117D0
  8
0
 10
426.2853187850928975
 20
83.4930625665909218
 30
0.0
 40
0.007729945790429
 50
34.3833215978280933
 51
142.8190794625963917
  0
ARC
  5
117D1
  8
0
 10
426.3008797353704153
 20
83.4798975094816029
 30
0.0
 40
0.0281048812898169
 50
140.6065973852525133
 51
159.7022521296196089
  0
ARC
  5
117D2
  8
0
 10
426.2023649115770922
 20
83.4491522667679391
 30
0.0
 40
0.1015428960049128
 50
333.4760472956216972
 51
28.3867533986299989
  0
ARC
  5
117D3
  8
0
 10
426.2852284311110225
 20
83.4083784200302887
 30
0.0
 40
0.0092073151540987
 50
218.1149882652889005
 51
330.2246523843539876
  0
ARC
  5
117D4
  8
0
 10
426.3044373538455147
 20
83.4208221238694563
 30
0.0
 40
0.0320677934640802
 50
201.1017974206226029
 51
214.4207853675665092
  0
ARC
  5
117D5
  8
0
 10
425.6070125189850728
 20
84.4419121331769134
 30
0.0
 40
0.6368013971052549
 50
355.0347820893758239
 51
5.4304718861790811
  0
ARC
  5
117D6
  8
0
 10
426.2571602378868079
 20
84.5046029354050034
 30
0.0
 40
0.0163849266266506
 50
181.0886080210399882
 51
188.5123358819811017
  0
LINE
  5
117D7
  8
0
 10
426.2407782685863822
 20
84.5097403930003708
 30
0.0
 11
426.2407782685863822
 21
84.5042916439003733
 31
0.0
  0
ARC
  5
117D8
  8
0
 10
425.6070125189850728
 20
84.2422278715769153
 30
0.0
 40
0.6368013971052549
 50
355.030595087539723
 51
5.4304718861790811
  0
ARC
  5
117D9
  8
0
 10
426.2571602378868079
 20
84.3049186738050054
 30
0.0
 40
0.0163849266266506
 50
181.0886080210399882
 51
188.5123358819811017
  0
LINE
  5
117DA
  8
0
 10
426.2407782685863822
 20
84.3100561314003727
 30
0.0
 11
426.2407782685863822
 21
84.3046073823003752
 31
0.0
  0
ARC
  5
117DB
  8
0
 10
425.6070125189850728
 20
84.04253001107692
 30
0.0
 40
0.6368013971052549
 50
355.0253625968243227
 51
5.4304718861790811
  0
ARC
  5
117DC
  8
0
 10
426.2571602378868079
 20
84.1052208133050101
 30
0.0
 40
0.0163849266266506
 50
181.0886080210399882
 51
188.5123358819811017
  0
LINE
  5
117DD
  8
0
 10
426.2407782685863822
 20
84.1103582709003632
 30
0.0
 11
426.2407782685863822
 21
84.1049095218003941
 31
0.0
  0
ARC
  5
117DE
  8
0
 10
425.6075855464868027
 20
83.8474610440736683
 30
0.0
 40
0.6362214908971326
 50
354.5929687318972015
 51
5.2552031490358724
  0
ARC
  5
117DF
  8
0
 10
426.2783969725152815
 20
83.9108918494120815
 30
0.0
 40
0.0376194998877092
 50
180.3727152762820936
 51
187.8805956456114927
  0
ARC
  5
117E0
  8
0
 10
425.6016555988010168
 20
83.6493186731643732
 30
0.0
 40
0.6421582027658256
 50
354.4921448032915237
 51
5.281281892729802
  0
ARC
  5
117E1
  8
0
 10
426.3612170156862931
 20
83.7196794651077738
 30
0.0
 40
0.1206552106719714
 50
184.1691762793907969
 51
185.3515864774828117
  0
ARC
  5
117E2
  8
0
 10
425.6135700162500939
 20
83.4496997106996332
 30
0.0
 40
0.6302904126761476
 50
354.3646604376928053
 51
5.5913171697084447
  0
ARC
  5
117E3
  8
0
 10
426.2413892572338909
 20
83.5772412660536901
 30
0.0
 40
0.0104270212823249
 50
97.9630216987274025
 51
173.6179780560352128
  0
ARC
  5
117E4
  8
0
 10
426.2411455828341218
 20
83.5216205971490382
 30
0.0
 40
0.0104532517791228
 50
183.986621385195491
 51
261.5631662937316264
  0
ARC
  5
117E5
  8
0
 10
426.6242909358691122
 20
83.547531548657247
 30
0.0
 40
0.3944737231718966
 50
175.5118444475214972
 51
183.8719689394791885
  0
ARC
  5
117E6
  8
0
 10
426.4480749509879161
 20
83.5485152155450237
 30
0.0
 40
0.2178674038239193
 50
174.564970145332012
 51
184.9350267687148062
  0
ARC
  5
117E7
  8
0
 10
426.0150363931833226
 20
83.5504047263535767
 30
0.0
 40
0.2169620181087959
 50
354.5432733120578064
 51
4.9567236019886121
  0
ARC
  5
117E8
  8
0
 10
426.2417889290284734
 20
83.7770212827193745
 30
0.0
 40
0.0105139940922597
 50
97.3559022958273346
 51
175.716272574954786
  0
ARC
  5
117E9
  8
0
 10
426.2408325727624856
 20
83.7215702466740055
 30
0.0
 40
0.010539378970317
 50
181.6819576284516131
 51
260.6009380560133764
  0
ARC
  5
117EA
  8
0
 10
426.633297058798405
 20
83.7423689211819209
 30
0.0
 40
0.4035517362174374
 50
174.9621084654627055
 51
182.9982590707051031
  0
ARC
  5
117EB
  8
0
 10
426.4368214177966934
 20
83.7458711266807541
 30
0.0
 40
0.2066938818455348
 50
173.5274254703132044
 51
184.472573767518611
  0
ARC
  5
117EC
  8
0
 10
426.0152937189862996
 20
83.7532289228370246
 30
0.0
 40
0.2167384165090588
 50
353.7817675244359066
 51
4.2182317133955491
  0
ARC
  5
117ED
  8
0
 10
426.2568643857396182
 20
83.5958896745986237
 30
0.0
 40
0.0012002786173769
 50
18.6550874240266609
 51
166.3926773990712036
  0
ARC
  5
117EE
  8
0
 10
426.3036733593805252
 20
83.5828531996510122
 30
0.0
 40
0.0497900245213459
 50
164.484409635483587
 51
172.4468432034742875
  0
ARC
  5
117EF
  8
0
 10
426.059683904154781
 20
83.5493957722208052
 30
0.0
 40
0.2041974548903034
 50
351.2136661486381968
 51
9.5352924564242905
  0
ARC
  5
117F0
  8
0
 10
426.1502237086717173
 20
83.5641325986900654
 30
0.0
 40
0.1124683024675062
 50
9.772264581943606
 51
16.6053818319878204
  0
ARC
  5
117F1
  8
0
 10
426.256861465048587
 20
83.5020387590068225
 30
0.0
 40
0.0009135583125069
 50
188.7366913710135918
 51
352.5737043865365195
  0
ARC
  5
117F2
  8
0
 10
426.2997973630879187
 20
83.5153069678408428
 30
0.0
 40
0.0458431262759907
 50
187.5643063840049933
 51
197.0048875924804008
  0
ARC
  5
117F3
  8
0
 10
426.1449807120067135
 20
83.5362368633926451
 30
0.0
 40
0.1178915960963719
 50
343.077224192332892
 51
351.201705253058492
  0
ARC
  5
117F4
  8
0
 10
426.2569089871411165
 20
83.7926369776732258
 30
0.0
 40
0.0015678825702051
 50
31.7646699745053311
 51
167.200645550740802
  0
ARC
  5
117F5
  8
0
 10
426.3072790581558138
 20
83.7803281893407075
 30
0.0
 40
0.0534198778250173
 50
166.2952878948424029
 51
170.5911602130030076
  0
ARC
  5
117F6
  8
0
 10
426.0613069154579762
 20
83.7475866312063033
 30
0.0
 40
0.2025810368438727
 50
349.693287367065011
 51
9.2087150271592595
  0
ARC
  5
117F7
  8
0
 10
426.2569073937527833
 20
83.7035488486448855
 30
0.0
 40
0.0018594043604607
 50
197.3378785541717946
 51
348.1229091405292024
  0
ARC
  5
117F8
  8
0
 10
426.3248172018655282
 20
83.7179373948494572
 30
0.0
 40
0.0712688184236428
 50
187.2630896563993019
 51
192.1027894090408097
  0
ARC
  5
117F9
  8
0
 10
426.1441320823777801
 20
83.7339954928944792
 30
0.0
 40
0.1186694604739923
 50
344.9423008672628725
 51
348.9946139127141009
  0
ARC
  5
117FA
  8
0
 10
426.1460358042675125
 20
83.7610841685673932
 30
0.0
 40
0.1167843483996153
 50
9.3243508252152996
 51
16.0960073474361494
  0
ARC
  5
117FB
  8
0
 10
426.2610867451408012
 20
83.6764351485343951
 30
0.0
 40
0.0112198736940121
 50
98.6550302411582436
 51
172.0717724303327998
  0
ARC
  5
117FC
  8
0
 10
426.2604819581753759
 20
83.6221260542348546
 30
0.0
 40
0.0110195256914773
 50
188.642723199860086
 51
260.8657593567965023
  0
ARC
  5
117FD
  8
0
 10
426.4622259099375015
 20
83.6477985500531958
 30
0.0
 40
0.2143872882048413
 50
171.9062759721082898
 51
187.3235471712177116
  0
ARC
  5
117FE
  8
0
 10
426.1432404341426832
 20
83.6503974959804708
 30
0.0
 40
0.1090049403162303
 50
349.050195046484987
 51
9.9497987969116402
  0
ARC
  5
117FF
  8
0
 10
426.3595025272298926
 20
83.6485101936660556
 30
0.0
 40
0.1108506602040626
 50
169.2260952964772116
 51
189.7738985469206909
  0
ARC
  5
11800
  8
0
 10
426.2852991717649047
 20
83.6921945843274244
 30
0.0
 40
0.0082664441877551
 50
39.2774516747960689
 51
138.988640130415007
  0
ARC
  5
11801
  8
0
 10
426.3023329678283062
 20
83.6790607962374793
 30
0.0
 40
0.0297652908160158
 50
141.4287068440569897
 51
159.7169813846797126
  0
ARC
  5
11802
  8
0
 10
426.1922916770133156
 20
83.649653257289259
 30
0.0
 40
0.1116250285524873
 50
342.4690052971953946
 51
11.2573801562220499
  0
ARC
  5
11803
  8
0
 10
426.2852872898295118
 20
83.6064499927427249
 30
0.0
 40
0.0080962212656332
 50
226.7216663014845892
 51
323.9106080042038229
  0
ARC
  5
11804
  8
0
 10
426.2432073105525205
 20
83.6339053254708347
 30
0.0
 40
0.0583314767514682
 50
326.4657322801120927
 51
342.1543053485008272
  0
ARC
  5
11805
  8
0
 10
426.2981353054414058
 20
83.6174409346022003
 30
0.0
 40
0.0249721848278614
 50
199.7487012196461933
 51
222.5444760986601125
  0
ARC
  5
11806
  8
0
 10
426.2335419470094848
 20
83.6599437622933664
 30
0.0
 40
0.0691896037589529
 50
9.5679995068220975
 51
32.8034830108471027
  0
ARC
  5
11807
  8
0
 10
426.2614925215286803
 20
83.8763837315357961
 30
0.0
 40
0.0110743929697424
 50
97.4253076188758342
 51
168.3191517390690137
  0
ARC
  5
11808
  8
0
 10
426.2600486807558013
 20
83.8219948252607026
 30
0.0
 40
0.011066659841377
 50
188.0947587441100097
 51
259.6711660091791032
  0
ARC
  5
11809
  8
0
 10
426.457612402254199
 20
83.843978981597985
 30
0.0
 40
0.2098449130111488
 50
170.4965476548987056
 51
186.4415637407556972
  0
ARC
  5
1180A
  8
0
 10
426.3492792218548857
 20
83.8468740376939365
 30
0.0
 40
0.1008385835359392
 50
167.1897955481624933
 51
189.8102146875484948
  0
ARC
  5
1180B
  8
0
 10
426.1432767082013129
 20
83.8522683849460577
 30
0.0
 40
0.1090019307751118
 50
348.0467637512870169
 51
8.9532464844216086
  0
ARC
  5
1180C
  8
0
 10
426.2854693136317223
 20
83.8909281085164054
 30
0.0
 40
0.0079037892445825
 50
51.5292935722262726
 51
137.50828796474039
  0
ARC
  5
1180D
  8
0
 10
426.2989360737564084
 20
83.8791164054649414
 30
0.0
 40
0.0258153530919864
 50
138.3670676260321102
 51
157.6076272254254036
  0
ARC
  5
1180E
  8
0
 10
426.1933057468077095
 20
83.8474527698927545
 30
0.0
 40
0.1106057440359488
 50
343.4366051492712018
 51
16.7787824400641803
  0
ARC
  5
1180F
  8
0
 10
426.2467982741994206
 20
83.8643885174948736
 30
0.0
 40
0.0545070939172047
 50
15.9665682872849999
 51
36.9006757642227186
  0
ARC
  5
11810
  8
0
 10
426.2854237937331163
 20
83.8032277197669089
 30
0.0
 40
0.0073266941296107
 50
224.0199435665371084
 51
313.9241186064950284
  0
ARC
  5
11811
  8
0
 10
426.2992031614122084
 20
83.816342615828006
 30
0.0
 40
0.0263494611662254
 50
197.1552201109086866
 51
223.7057161253547122
  0
ARC
  5
11812
  8
0
 10
426.2457392936432825
 20
83.8310583362921449
 30
0.0
 40
0.0556795495265509
 50
323.5150139111801764
 51
344.2254785490949871
  0
ARC
  5
11813
  8
0
 10
426.2421472721658802
 20
83.9770709715703845
 30
0.0
 40
0.0102621192970015
 50
95.8329229766803365
 51
165.6671770843572915
  0
ARC
  5
11814
  8
0
 10
426.2401414804057254
 20
83.921044556876339
 30
0.0
 40
0.0101494390830143
 50
202.5629629235949949
 51
260.3603190649237717
  0
ARC
  5
11815
  8
0
 10
426.5107575369648885
 20
83.9419617522620456
 30
0.0
 40
0.2810858427715667
 50
172.3024623179076968
 51
185.0641040307259004
  0
ARC
  5
11816
  8
0
 10
426.4443496670812124
 20
83.942015236344119
 30
0.0
 40
0.2142884136966733
 50
172.7195521791273052
 51
183.2804481908241883
  0
ARC
  5
11817
  8
0
 10
426.0147664812274115
 20
83.9570166103662814
 30
0.0
 40
0.2173625178426938
 50
352.7944399001015086
 51
3.20556046985052
  0
ARC
  5
11818
  8
0
 10
426.2568580859086182
 20
83.9932049778325904
 30
0.0
 40
0.0011097760407934
 50
17.94499950766971
 51
169.4059136754310089
  0
ARC
  5
11819
  8
0
 10
426.2953459533396767
 20
83.9818592060768196
 30
0.0
 40
0.0412295230464164
 50
163.731779123408586
 51
170.6071792558215918
  0
ARC
  5
1181A
  8
0
 10
426.0730248305172267
 20
83.946249790913015
 30
0.0
 40
0.1908428029912712
 50
346.4589416030964912
 51
14.3493076046328891
  0
ARC
  5
1181B
  8
0
 10
426.2568996575909068
 20
83.9020840028198052
 30
0.0
 40
0.0017419711901126
 50
190.9887573358535064
 51
342.6817517886029805
  0
ARC
  5
1181C
  8
0
 10
426.3142851030814882
 20
83.9152233530489866
 30
0.0
 40
0.0606115003335888
 50
186.4416131784863921
 51
192.8416982919538043
  0
ARC
  5
1181D
  8
0
 10
426.2620448182370865
 20
84.0759956496953293
 30
0.0
 40
0.0112739989518606
 50
96.7409458143991259
 51
171.0284053393340002
  0
ARC
  5
1181E
  8
0
 10
426.2596141033021127
 20
84.0218976707268581
 30
0.0
 40
0.0111407035757148
 50
185.9330708571264097
 51
258.5052988487856283
  0
ARC
  5
1181F
  8
0
 10
426.4632982312983813
 20
84.0403495617941445
 30
0.0
 40
0.2156579873576695
 50
170.0119798626566876
 51
185.2154275010331048
  0
ARC
  5
11820
  8
0
 10
426.3550969747875001
 20
84.044892829566578
 30
0.0
 40
0.1066173741258096
 50
166.8036368692924896
 51
188.196353517991696
  0
ARC
  5
11821
  8
0
 10
426.1432382240557217
 20
84.0541428001929773
 30
0.0
 40
0.1091052882872281
 50
347.0503186570663843
 51
7.9496717302179274
  0
ARC
  5
11822
  8
0
 10
426.2855703567880141
 20
84.0893236384286098
 30
0.0
 40
0.007691344840989
 50
56.5417795054164429
 51
133.8128205390225105
  0
ARC
  5
11823
  8
0
 10
426.296184517773213
 20
84.0789871316400053
 30
0.0
 40
0.0225040834829663
 50
135.0941426845820956
 51
154.9401695392230067
  0
ARC
  5
11824
  8
0
 10
426.1873780366033202
 20
84.0455795307544662
 30
0.0
 40
0.1163341920329332
 50
344.2090556545892923
 51
14.90482335354368
  0
ARC
  5
11825
  8
0
 10
426.2853170794421089
 20
84.0015758312244856
 30
0.0
 40
0.0075427182469179
 50
234.522773837445186
 51
320.8701319960196088
  0
ARC
  5
11826
  8
0
 10
426.2996986391711971
 20
84.014991217257176
 30
0.0
 40
0.0271000714762666
 50
194.6549413345283028
 51
226.1939422403465016
  0
ARC
  5
11827
  8
0
 10
426.2448537835909974
 20
84.0293884389743653
 30
0.0
 40
0.0566215018286372
 50
324.881436233474119
 51
344.1476195514995879
  0
ARC
  5
11828
  8
0
 10
426.2471719256204779
 20
84.0621152535638032
 30
0.0
 40
0.0543021904613073
 50
14.2722242020026897
 51
38.2594385715797216
  0
ARC
  5
11829
  8
0
 10
426.2425949211192915
 20
84.1769476878986609
 30
0.0
 40
0.0101860018203916
 50
94.6854401349717136
 51
159.0280747180009939
  0
ARC
  5
1182A
  8
0
 10
426.2396351958789182
 20
84.1208828696713624
 30
0.0
 40
0.0101396559773585
 50
200.4862290381732066
 51
259.4015907895387159
  0
ARC
  5
1182B
  8
0
 10
426.5034156425767833
 20
84.1363019569033668
 30
0.0
 40
0.2739363025625582
 50
170.6952833186668954
 51
183.9704281707408882
  0
ARC
  5
1182C
  8
0
 10
426.4472247498499087
 20
84.1381354784323321
 30
0.0
 40
0.2173193007802501
 50
171.7892165539452094
 51
182.210783330733193
  0
ARC
  5
1182D
  8
0
 10
426.0149129932710821
 20
84.1607919779888221
 30
0.0
 40
0.2173816990343011
 50
351.7907164170924261
 51
2.2092834675855308
  0
ARC
  5
1182E
  8
0
 10
426.2568644386864207
 20
84.1919684634681431
 30
0.0
 40
0.0008778040309037
 50
25.2588034764385405
 51
160.1580441311228071
  0
ARC
  5
1182F
  8
0
 10
426.287734542031501
 20
84.1818130512788656
 30
0.0
 40
0.0333750829679916
 50
161.7472986562690949
 51
169.0714514758518874
  0
ARC
  5
11830
  8
0
 10
426.0747662791109178
 20
84.1442624542765145
 30
0.0
 40
0.1891064215369916
 50
345.9866978060431961
 51
14.7292324089992803
  0
ARC
  5
11831
  8
0
 10
426.2568754587795752
 20
84.0989840071329127
 30
0.0
 40
0.0014623332074762
 50
197.4116293861972906
 51
339.4575010434890032
  0
ARC
  5
11832
  8
0
 10
426.3188650957608843
 20
84.1142169737975394
 30
0.0
 40
0.0652933373454828
 50
185.5262942933395038
 51
193.8866725203178021
  0
ARC
  5
11833
  8
0
 10
426.2623889613374217
 20
84.2760432493740979
 30
0.0
 40
0.0110098851925148
 50
95.2657702187210447
 51
165.663208229200194
  0
ARC
  5
11834
  8
0
 10
426.2588855987581837
 20
84.2213712258513425
 30
0.0
 40
0.0107267526588674
 50
192.4368195258132062
 51
258.3608156243855092
  0
ARC
  5
11835
  8
0
 10
426.4447945221268128
 20
84.2381157804626355
 30
0.0
 40
0.1973062149713896
 50
168.1093828710496894
 51
185.5419342430097061
  0
ARC
  5
11836
  8
0
 10
426.3570998872272071
 20
84.2429389496563346
 30
0.0
 40
0.1086886635004039
 50
166.0002925415635957
 51
186.999708205890812
  0
ARC
  5
11837
  8
0
 10
426.1431571186441829
 20
84.2560242485444064
 30
0.0
 40
0.1092836233272326
 50
346.0580980496519032
 51
6.941902697803715
  0
ARC
  5
11838
  8
0
 10
426.285728134077317
 20
84.2868127350970155
 30
0.0
 40
0.007431545998948
 50
61.840747728853799
 51
125.7516169493474933
  0
ARC
  5
11839
  8
0
 10
426.2919804319246282
 20
84.2793870025682139
 30
0.0
 40
0.0171267988280948
 50
128.2127301114288969
 51
149.3224732115079973
  0
ARC
  5
1183A
  8
0
 10
426.2047310257718209
 20
84.2415156899754436
 30
0.0
 40
0.0991427397676976
 50
333.1945657587310166
 51
31.53189476851745
  0
ARC
  5
1183B
  8
0
 10
426.2850814879838026
 20
84.2016566994235376
 30
0.0
 40
0.0094745521143345
 50
229.753381377034998
 51
329.2052074605371104
  0
ARC
  5
1183C
  8
0
 10
426.3059749969277732
 20
84.2153028595452042
 30
0.0
 40
0.0341421030024064
 50
192.7728937829531048
 51
217.6978536286611927
  0
ARC
  5
1183D
  8
0
 10
426.243049741816094
 20
84.3767947542956449
 30
0.0
 40
0.0101328231498163
 50
93.5735746415519145
 51
151.9345117176123949
  0
ARC
  5
1183E
  8
0
 10
426.239123389945803
 20
84.3207127023815843
 30
0.0
 40
0.0101122060911679
 50
206.5169895454882862
 51
258.4377651137530734
  0
ARC
  5
1183F
  8
0
 10
426.4614835093144052
 20
84.3347247753336831
 30
0.0
 40
0.232148994244012
 50
168.3603809823613062
 51
184.5773943556193899
  0
ARC
  5
11840
  8
0
 10
426.4485268218123224
 20
84.3342582128026379
 30
0.0
 40
0.218851859516251
 50
170.8202803935614043
 51
181.1797228246437044
  0
ARC
  5
11841
  8
0
 10
426.0153238030737839
 20
84.3645507066017331
 30
0.0
 40
0.2172032084260906
 50
350.7808557415224868
 51
1.219147476681951
  0
ARC
  5
11842
  8
0
 10
426.256860699915876
 20
84.3912875462894903
 30
0.0
 40
0.0010860715576942
 50
22.7308330766420887
 51
168.1509882780970884
  0
ARC
  5
11843
  8
0
 10
426.2913029099378264
 20
84.3809048742089516
 30
0.0
 40
0.0370553014470072
 50
163.3686797265314112
 51
169.4787375864416106
  0
ARC
  5
11844
  8
0
 10
426.0735865669055897
 20
84.3442509755548855
 30
0.0
 40
0.1902884197327755
 50
346.3305759789838021
 51
14.4414814172512198
  0
ARC
  5
11845
  8
0
 10
426.2568896602671202
 20
84.2995485527430759
 30
0.0
 40
0.0016175765164487
 50
198.7405219436409141
 51
350.5182574181886821
  0
ARC
  5
11846
  8
0
 10
426.3187201383724982
 20
84.3140929254493159
 30
0.0
 40
0.0651283872953746
 50
185.919022516284997
 51
193.3735083723487094
  0
ARC
  5
11847
  8
0
 10
426.2627654055916082
 20
84.4760324121170925
 30
0.0
 40
0.010802676951588
 50
93.8913330668725195
 51
159.7629314755899088
  0
ARC
  5
11848
  8
0
 10
426.2583660947411204
 20
84.4211557393296914
 30
0.0
 40
0.0106498635228701
 50
195.6275378584807072
 51
257.4232730601345907
  0
ARC
  5
11849
  8
0
 10
426.4339570764287259
 20
84.4355321794365921
 30
0.0
 40
0.1866455624724883
 50
166.2898424500826025
 51
185.3014702463237029
  0
ARC
  5
1184A
  8
0
 10
426.3596955476605217
 20
84.4407250992128553
 30
0.0
 40
0.1114194542247366
 50
165.1759294778782134
 51
185.6715949676541015
  0
ARC
  5
1184B
  8
0
 10
426.1448593320873215
 20
84.4579207380892569
 30
0.0
 40
0.107720763501034
 50
344.8200579191802149
 51
6.0274665263576059
  0
ARC
  5
1184C
  8
0
 10
426.2856832342596931
 20
84.486270507570481
 30
0.0
 40
0.0062102694509037
 50
55.1130053259216197
 51
124.7673310869328986
  0
ARC
  5
1184D
  8
0
 10
426.2905120292742822
 20
84.478861052284941
 30
0.0
 40
0.0150527647773608
 50
123.7834419735362985
 51
144.1733991173603044
  0
ARC
  5
1184E
  8
0
 10
426.1922428842131012
 20
84.4402756340209066
 30
0.0
 40
0.1116620848841948
 50
346.8089574635059762
 51
17.7201116159307901
  0
ARC
  5
1184F
  8
0
 10
426.2503366428438198
 20
84.458930074762435
 30
0.0
 40
0.0506468731658813
 50
17.6210944074309488
 51
39.8221622512479101
  0
ARC
  5
11850
  8
0
 10
426.2854955288360088
 20
84.3947145179259905
 30
0.0
 40
0.0063055549202187
 50
219.7463735747728037
 51
328.9462989771030266
  0
ARC
  5
11851
  8
0
 10
426.304647597121118
 20
84.4132281097301416
 30
0.0
 40
0.0329287863677904
 50
190.3589296401320894
 51
223.2095419579312079
  0
ARC
  5
11852
  8
0
 10
426.2373796311080127
 20
84.4283749725272514
 30
0.0
 40
0.0650133048054314
 50
325.4045807984418843
 51
347.9428260950730873
  0
ARC
  5
11853
  8
0
 10
426.2435394961830184
 20
84.5765667324335624
 30
0.0
 40
0.0101488242749404
 50
92.6514506265120446
 51
149.552634184318805
  0
ARC
  5
11854
  8
0
 10
426.2409366769429084
 20
84.5225742616940039
 30
0.0
 40
0.0126973682717915
 50
175.1131933059226924
 51
249.1677502883300974
  0
ARC
  5
11855
  8
0
 10
426.5416410593945216
 20
84.5179364288642745
 30
0.0
 40
0.3134077878529088
 50
168.2592848583610987
 51
178.9543309591311129
  0
ARC
  5
11856
  8
0
 10
426.4493538698557131
 20
84.530367458529625
 30
0.0
 40
0.2199801278558162
 50
169.8398036938598921
 51
180.1601921997319948
  0
ARC
  5
11857
  8
0
 10
426.0147953922436841
 20
84.5683864146514281
 30
0.0
 40
0.2180294077261015
 50
349.7935082468026735
 51
0.2064876467875588
  0
ARC
  5
11858
  8
0
 10
426.2568698574237942
 20
84.5915924685430696
 30
0.0
 40
0.0006763287348605
 50
13.5690506736086007
 51
163.058918183412402
  0
ARC
  5
11859
  8
0
 10
426.2859975654213827
 20
84.5812458204173083
 30
0.0
 40
0.031586422539659
 50
160.5000811801575082
 51
169.0857020814856071
  0
ARC
  5
1185A
  8
0
 10
426.0612144838412974
 20
84.543541499698776
 30
0.0
 40
0.2026639113383683
 50
349.7105161696003961
 51
9.5663440605936891
  0
ARC
  5
1185B
  8
0
 10
426.2568573875772131
 20
84.4959050966833729
 30
0.0
 40
0.0008635640438889
 50
190.6016859169473037
 51
345.9749113469353006
  0
ARC
  5
1185C
  8
0
 10
426.3111853621728073
 20
84.512054913552717
 30
0.0
 40
0.0575365322225806
 50
185.2076737200700052
 51
196.4661841237405895
  0
ARC
  5
1185D
  8
0
 10
426.1567216071396729
 20
84.5272376941106245
 30
0.0
 40
0.1057854353352911
 50
342.6523708089721936
 51
349.1591181719259112
  0
ARC
  5
1185E
  8
0
 10
426.1575265011592819
 20
84.55974141101062
 30
0.0
 40
0.1049989744301824
 50
9.5834876767608801
 51
17.7495972429366589
  0
ARC
  5
1185F
  8
0
 10
426.2631201348908121
 20
84.6759925247751397
 30
0.0
 40
0.0106188067999218
 50
92.3616149968870985
 51
157.3410233961307085
  0
ARC
  5
11860
  8
0
 10
426.257823999147206
 20
84.6209428604620939
 30
0.0
 40
0.0105620725205398
 50
198.5337621757940951
 51
256.5711148633413927
  0
ARC
  5
11861
  8
0
 10
426.4242618541259162
 20
84.633517406774061
 30
0.0
 40
0.1771699237793279
 50
164.7618172682456077
 51
185.1592395883712925
  0
ARC
  5
11862
  8
0
 10
426.2858917640065783
 20
84.6860081450456477
 30
0.0
 40
0.0047376435924271
 50
45.1115036217775227
 51
118.5363666620899039
  0
ARC
  5
11863
  8
0
 10
426.2887876632840971
 20
84.6788921899096749
 30
0.0
 40
0.0124020582858034
 50
114.5817653851593008
 51
137.9331545989736014
  0
ARC
  5
11864
  8
0
 10
426.1921099028825211
 20
84.6385410906047468
 30
0.0
 40
0.1117774381462888
 50
343.567956278288591
 51
14.4975538267779598
  0
ARC
  5
11865
  8
0
 10
426.2859458050800185
 20
84.5901983980122338
 30
0.0
 40
0.004183092674456
 50
233.8963886915163926
 51
315.4197811437957171
  0
ARC
  5
11866
  8
0
 10
426.3015273496170039
 20
84.6106510269713965
 30
0.0
 40
0.0298940656641978
 50
187.3054210672829072
 51
232.8661544047716063
  0
ARC
  5
11867
  8
0
 10
426.2503666621606158
 20
84.6202321641549702
 30
0.0
 40
0.050732461684544
 50
319.4675984167690785
 51
344.7895359206768262
  0
ARC
  5
11868
  8
0
 10
426.2477480091083066
 20
84.6551020958234659
 30
0.0
 40
0.0538062856183915
 50
12.2551405880839308
 51
39.5518746155897389
  0
ARC
  5
11869
  8
0
 10
426.2440009182120093
 20
82.1225628324282155
 30
0.0
 40
0.0101330156323774
 50
210.7086308689335965
 51
268.4013585726588076
  0
LINE
  5
1186A
  8
0
 10
426.2437182242863969
 20
82.1124337609003589
 30
0.0
 11
426.2586836888202129
 21
82.1120398669054907
 31
0.0
  0
LINE
  5
1186B
  8
0
 10
426.2357439584865233
 20
82.1883038666003642
 30
0.0
 11
426.2612949006621079
 21
82.1944417313900146
 31
0.0
  0
ARC
  5
1186C
  8
0
 10
426.238202972871477
 20
82.1783581082740398
 30
0.0
 40
0.0102452359871114
 50
103.8874491205055932
 51
168.2394539744854001
  0
ARC
  5
1186D
  8
0
 10
426.6943360900385755
 20
82.1979638246416329
 30
0.0
 40
0.4670473897432456
 50
182.9549343224261975
 51
189.1042396490989859
  0
ARC
  5
1186E
  8
0
 10
426.2554118623500017
 20
82.1274415071197268
 30
0.0
 40
0.0224945986315134
 50
188.6396264613636049
 51
206.5463606119153042
  0
ARC
  5
1186F
  8
0
 10
426.2558646971041867
 20
82.1760506745356736
 30
0.0
 40
0.0280385896755011
 50
170.9804770654513959
 51
184.4251492187661086
  0
ARC
  5
11870
  8
0
 10
426.4486269663706821
 20
82.1723246605727127
 30
0.0
 40
0.2196112328783506
 50
180.8560799911230106
 51
191.1439213411989897
  0
ARC
  5
11871
  8
0
 10
426.0158216911532918
 20
82.1268349880143518
 30
0.0
 40
0.2173561805797188
 50
0.8025661365596864
 51
11.1974351957627203
  0
ARC
  5
11872
  8
0
 10
426.0565524684240017
 20
82.1596046283137866
 30
0.0
 40
0.2076850676132456
 50
348.5014905130491911
 51
10.46485087174133
  0
ARC
  5
11873
  8
0
 10
426.2500654816519159
 20
82.0990992181633743
 30
0.0
 40
0.0021373239519238
 50
217.5868634674544069
 51
304.5787687218224846
  0
ARC
  5
11874
  8
0
 10
426.282940877046201
 20
82.1152773122522888
 30
0.0
 40
0.038738012804
 50
184.2326064557146026
 51
206.8259916897117989
  0
ARC
  5
11875
  8
0
 10
426.2140429121777743
 20
82.1253118895870386
 30
0.0
 40
0.0465719392476302
 50
323.0850820885796111
 51
351.2213338137893857
  0
ARC
  5
11876
  8
0
 10
426.2503225146566024
 20
82.2189252571208442
 30
0.0
 40
0.0027605517634984
 50
28.7407626596950294
 51
163.4501289071907024
  0
ARC
  5
11877
  8
0
 10
426.1962195383762833
 20
82.1875572578453841
 30
0.0
 40
0.0652984583764867
 50
29.3861327508009396
 51
30.046794146610889
  0
ARC
  5
11878
  8
0
 10
426.1962195383762833
 20
82.1875572578453841
 30
0.0
 40
0.0652984583764867
 50
8.6046667194681987
 51
26.0374516221954408
  0
ARC
  5
11879
  8
0
 10
426.3566600493821284
 20
82.1874665567712839
 30
0.0
 40
0.1136538368527258
 50
163.5180809733952003
 51
178.6936820682851987
  0
LINE
  5
1187A
  8
0
 10
426.2421556549863908
 20
82.2116604185003865
 30
0.0
 11
426.2230889801863896
 21
82.2123262414003761
 31
0.0
  0
LINE
  5
1187B
  8
0
 10
426.2134840151863955
 20
82.2213617077003676
 30
0.0
 11
426.2080788363863917
 21
82.2774966358003752
 31
0.0
  0
LINE
  5
1187C
  8
0
 10
426.2157769683864217
 20
82.2882643874003747
 30
0.0
 11
426.2427296232592084
 21
82.2944868980360269
 31
0.0
  0
ARC
  5
1187D
  8
0
 10
426.2234379787988132
 20
82.2223201496741041
 30
0.0
 40
0.0100000001307614
 50
185.4999104123803022
 51
267.999979126623316
  0
ARC
  5
1187E
  8
0
 10
426.2180267381500016
 20
82.2785203030350942
 30
0.0
 40
0.0100004321960181
 50
103.0009525515788056
 51
185.8752184923015136
  0
ARC
  5
1187F
  8
0
 10
425.6070125189850728
 20
82.2573414718238212
 30
0.0
 40
0.6368013971052549
 50
354.5695281138209225
 51
4.9637654679658221
  0
ARC
  5
11880
  8
0
 10
426.2571602378868079
 20
82.1946506695957311
 30
0.0
 40
0.0163849266266506
 50
171.4876641180188983
 51
178.9113919789598981
  0
LINE
  5
11881
  8
0
 10
426.2407782685863822
 20
82.1895132120003638
 30
0.0
 11
426.2407782685863822
 21
82.1949619611003754
 31
0.0
  0
LINE
  5
11882
  8
0
 10
426.2421850390863938
 20
82.411082199700374
 30
0.0
 11
426.2224389974863925
 21
82.4121170458003576
 31
0.0
  0
LINE
  5
11883
  8
0
 10
426.2129931860864076
 20
82.4213187658003648
 30
0.0
 11
426.20856853238638
 21
82.4775393214003714
 31
0.0
  0
LINE
  5
11884
  8
0
 10
426.2164534027863851
 20
82.4881712382003656
 30
0.0
 11
426.2427526324755149
 21
82.4937613121099247
 31
0.0
  0
ARC
  5
11885
  8
0
 10
426.2229623605934989
 20
82.4221033408826429
 30
0.0
 40
0.0099999999206052
 50
184.4999087974755128
 51
266.9999796389997186
  0
ARC
  5
11886
  8
0
 10
426.2185327731510824
 20
82.4783893723496817
 30
0.0
 40
0.0100004340223182
 50
102.0009560243391036
 51
184.8761057017435121
  0
LINE
  5
11887
  8
0
 10
426.2421358080771938
 20
82.6104961911297835
 30
0.0
 11
426.2217854628863734
 21
82.6119192259003796
 31
0.0
  0
LINE
  5
11888
  8
0
 10
426.2125016821864278
 20
82.6212843965003714
 30
0.0
 11
426.2090588940864109
 21
82.6775734855003748
 31
0.0
  0
LINE
  5
11889
  8
0
 10
426.2171281083864756
 20
82.6880662979003773
 30
0.0
 11
426.242775283783601
 21
82.6930516037578656
 31
0.0
  0
ARC
  5
1188A
  8
0
 10
426.222483031126103
 20
82.621894866150555
 30
0.0
 40
0.0099999999924829
 50
183.4999096207754121
 51
265.9999798815862277
  0
ARC
  5
1188B
  8
0
 10
426.2190364460865908
 20
82.6782496302927115
 30
0.0
 40
0.0100004357753676
 50
101.0009606798331987
 51
183.8768130074211911
  0
LINE
  5
1188C
  8
0
 10
426.2421141188685851
 20
82.8098968446570041
 30
0.0
 11
426.2211285753863876
 21
82.8117328418003638
 31
0.0
  0
LINE
  5
1188D
  8
0
 10
426.2120096533813012
 20
82.8212586104134232
 30
0.0
 11
426.2095497737864207
 21
82.8775991176003686
 31
0.0
  0
LINE
  5
1188E
  8
0
 10
426.2178008798863971
 20
82.8879495982003647
 30
0.0
 11
426.2427975940539113
 21
82.8923571933390662
 31
0.0
  0
ARC
  5
1188F
  8
0
 10
426.2220001363314736
 20
82.8216947885196504
 30
0.0
 40
0.0100000000459374
 50
182.499909561656807
 51
264.9999797913272914
  0
ARC
  5
11890
  8
0
 10
426.2195376029773115
 20
82.8781011195943051
 30
0.0
 40
0.0100004368879007
 50
100.0009625387208985
 51
182.8773431723026022
  0
LINE
  5
11891
  8
0
 10
426.2424052479229886
 20
83.0092523088783025
 30
0.0
 11
426.2204685349864235
 21
83.0115579504003591
 31
0.0
  0
LINE
  5
11892
  8
0
 10
426.2115172495863931
 20
83.0212414153003806
 30
0.0
 11
426.2100410235864274
 21
83.0776162099003699
 31
0.0
  0
LINE
  5
11893
  8
0
 10
426.2184715121863974
 20
83.0878211749003839
 30
0.0
 11
426.2425376366904857
 21
83.0916328746076687
 31
0.0
  0
ARC
  5
11894
  8
0
 10
426.2215138229668128
 20
83.021503168710538
 30
0.0
 40
0.0099999997099759
 50
181.4999079210722073
 51
263.9999805380463727
  0
ARC
  5
11895
  8
0
 10
426.2200360915379065
 20
83.0779438854898586
 30
0.0
 40
0.0100004377227142
 50
99.0009642364594384
 51
181.8776967470992076
  0
LINE
  5
11896
  8
0
 10
426.242503659531792
 20
83.2086062192276756
 30
0.0
 11
426.2198055552864275
 21
83.2113931960003725
 31
0.0
  0
LINE
  5
11897
  8
0
 10
426.2110246328863923
 20
83.2212314075003547
 30
0.0
 11
426.2105324831863982
 21
83.2776261673003688
 31
0.0
  0
LINE
  5
11898
  8
0
 10
426.2191397887863786
 20
83.2876824759003682
 30
0.0
 11
426.242480620967001
 21
83.2909628159015938
 31
0.0
  0
ARC
  5
11899
  8
0
 10
426.2210242521367149
 20
83.2213186569774734
 30
0.0
 40
0.0099999998810547
 50
180.4999090290174877
 51
262.999980196003321
  0
ARC
  5
1189A
  8
0
 10
426.2205317476031041
 20
83.2777793847111809
 30
0.0
 40
0.0100004382128397
 50
98.0009651580022307
 51
180.8778669775925039
  0
LINE
  5
1189B
  8
0
 10
426.2626825732863836
 20
82.2123216095003642
 30
0.0
 11
426.2906364724933042
 21
82.211330349233009
 31
0.0
  0
LINE
  5
1189C
  8
0
 10
426.2553710814863734
 20
82.2882543557003743
 30
0.0
 11
426.2972985199285176
 21
82.297957878339588
 31
0.0
  0
LINE
  5
1189D
  8
0
 10
426.2430700112864201
 20
82.312219230400359
 30
0.0
 11
426.2588262990864223
 21
82.3115291706003802
 31
0.0
  0
LINE
  5
1189E
  8
0
 10
426.2364210726864258
 20
82.3882169465003642
 30
0.0
 11
426.2602336475255811
 21
82.3934994309699533
 31
0.0
  0
LINE
  5
1189F
  8
0
 10
426.2620322886863846
 20
82.4121137380003717
 30
0.0
 11
426.2915461470399805
 21
82.4105509785006234
 31
0.0
  0
LINE
  5
118A0
  8
0
 10
426.2560471208864215
 20
82.4881625059003767
 30
0.0
 11
426.2968331958954877
 21
82.496854907753999
 31
0.0
  0
LINE
  5
118A1
  8
0
 10
426.2587983430635745
 20
82.5110119724747477
 30
0.0
 11
426.2424181607864284
 21
82.5120160471003743
 31
0.0
  0
LINE
  5
118A2
  8
0
 10
426.2600192493787858
 20
82.5927851177022347
 30
0.0
 11
426.2370965780863798
 21
82.5881182246003647
 31
0.0
  0
LINE
  5
118A3
  8
0
 10
426.2613785213864048
 20
82.6119172525003762
 30
0.0
 11
426.2916849134632002
 21
82.6097815141614831
 31
0.0
  0
LINE
  5
118A4
  8
0
 10
426.2567214999863836
 20
82.6880588801003711
 30
0.0
 11
426.2961607782963256
 21
82.6957472879557542
 31
0.0
  0
LINE
  5
118A5
  8
0
 10
426.2417628750864083
 20
82.7118242722003743
 30
0.0
 11
426.2586424102066189
 21
82.7104935260585137
 31
0.0
  0
LINE
  5
118A6
  8
0
 10
426.2377702691863988
 20
82.7880077305003539
 30
0.0
 11
426.2601189902425176
 21
82.7921529487590249
 31
0.0
  0
LINE
  5
118A7
  8
0
 10
426.2607214709864252
 20
82.811732210400379
 30
0.0
 11
426.2937102009456112
 21
82.808828017746464
 31
0.0
  0
LINE
  5
118A8
  8
0
 10
426.2573940138864259
 20
82.8879435074003652
 30
0.0
 11
426.2955771690386086
 21
82.894697610183897
 31
0.0
  0
LINE
  5
118A9
  8
0
 10
426.2411043539863726
 20
82.9116439636003548
 30
0.0
 11
426.2590161907954212
 21
82.9099168001740168
 31
0.0
  0
LINE
  5
118AA
  8
0
 10
426.2384419408863891
 20
82.9878854973003683
 30
0.0
 11
426.2600164664863769
 21
82.991498840000375
 31
0.0
  0
LINE
  5
118AB
  8
0
 10
426.2600613377863965
 20
83.0115586655003739
 30
0.0
 11
426.2944263237864106
 21
83.0079278677003742
 31
0.0
  0
LINE
  5
118AC
  8
0
 10
426.2580644581864249
 20
83.0878164207003493
 30
0.0
 11
426.2950818996865223
 21
83.0937000411003623
 31
0.0
  0
LINE
  5
118AD
  8
0
 10
426.2404427979864181
 20
83.1114751755003738
 30
0.0
 11
426.2592907303863967
 21
83.1093251353003666
 31
0.0
  0
LINE
  5
118AE
  8
0
 10
426.239111388786398
 20
83.1877515615003631
 30
0.0
 11
426.259937761086519
 21
83.1908669715003697
 31
0.0
  0
LINE
  5
118AF
  8
0
 10
426.2593983231864172
 20
83.2113966684003685
 30
0.0
 11
426.2949726703864144
 21
83.2070090406003686
 31
0.0
  0
LINE
  5
118B0
  8
0
 10
426.2587326290864098
 20
83.2876776562003727
 30
0.0
 11
426.2945662176863948
 21
83.2927336204003694
 31
0.0
  0
LINE
  5
118B1
  8
0
 10
426.2399447606863987
 20
83.3113561754003626
 30
0.0
 11
426.2596583337621041
 21
83.3088455744090055
 31
0.0
  0
LINE
  5
118B2
  8
0
 10
426.2396118924863799
 20
83.3876434539003668
 30
0.0
 11
426.2595902315864009
 21
83.3903651471003542
 31
0.0
  0
ARC
  5
118B3
  8
0
 10
425.6070125189850728
 20
82.4570117889238219
 30
0.0
 40
0.6368013971052549
 50
354.5695281138209225
 51
4.9652179106242507
  0
ARC
  5
118B4
  8
0
 10
426.2571602378868079
 20
82.3943209866957176
 30
0.0
 40
0.0163849266266506
 50
171.4876641180188983
 51
178.9113919789598981
  0
LINE
  5
118B5
  8
0
 10
426.2407782685863822
 20
82.3891835291003645
 30
0.0
 11
426.2407782685863822
 21
82.3946322782003762
 31
0.0
  0
ARC
  5
118B6
  8
0
 10
425.6070125189850728
 20
82.6566960505238342
 30
0.0
 40
0.6368013971052549
 50
354.5695281138209225
 51
4.9694049124602744
  0
ARC
  5
118B7
  8
0
 10
426.2571602378868079
 20
82.5940052482957157
 30
0.0
 40
0.0163849266266506
 50
171.4876641180188983
 51
178.9113919789598981
  0
LINE
  5
118B8
  8
0
 10
426.2407782685863822
 20
82.5888677907003768
 30
0.0
 11
426.2407782685863822
 21
82.5943165398003742
 31
0.0
  0
ARC
  5
118B9
  8
0
 10
425.6070125189850728
 20
82.8563939110238437
 30
0.0
 40
0.6368013971052549
 50
354.5695281138209225
 51
4.9746374031748886
  0
ARC
  5
118BA
  8
0
 10
426.2571602378868079
 20
82.7937031087957394
 30
0.0
 40
0.0163849266266506
 50
171.4876641180188983
 51
178.9113919789598981
  0
LINE
  5
118BB
  8
0
 10
426.2407782685863822
 20
82.788565651200372
 30
0.0
 11
426.2407782685863822
 21
82.7940144003003695
 31
0.0
  0
ARC
  5
118BC
  8
0
 10
425.6075855464868027
 20
83.0514628780270385
 30
0.0
 40
0.6362214908971326
 50
354.7447968509641214
 51
5.4070312681027524
  0
ARC
  5
118BD
  8
0
 10
426.2783969725152815
 20
82.9880320726886538
 30
0.0
 40
0.0376194998877092
 50
172.1194043543883936
 51
179.6272847237177928
  0
ARC
  5
118BE
  8
0
 10
425.6016555988010168
 20
83.249605248936362
 30
0.0
 40
0.6421582027658256
 50
354.7187181072700923
 51
5.5078551967085794
  0
ARC
  5
118BF
  8
0
 10
426.3612170156862931
 20
83.1792444569929899
 30
0.0
 40
0.1206552106719714
 50
174.6484135225171883
 51
175.8308237206090894
  0
ARC
  5
118C0
  8
0
 10
426.2413892572338909
 20
83.3216826560470452
 30
0.0
 40
0.0104270212823249
 50
186.3820219439647019
 51
262.0369783012725975
  0
ARC
  5
118C1
  8
0
 10
426.2411455828341218
 20
83.377303324951697
 30
0.0
 40
0.0104532517791228
 50
98.4368337062683736
 51
176.013378614804509
  0
ARC
  5
118C2
  8
0
 10
426.6242909358691122
 20
83.3513923734435025
 30
0.0
 40
0.3944737231718966
 50
176.1280310605208115
 51
184.4881555524785028
  0
ARC
  5
118C3
  8
0
 10
426.4480749509879161
 20
83.3504087065557115
 30
0.0
 40
0.2178674038239193
 50
175.0649732312849096
 51
185.4350298546679028
  0
ARC
  5
118C4
  8
0
 10
426.0150363931833226
 20
83.3485191957471443
 30
0.0
 40
0.2169620181087959
 50
355.0432763980114146
 51
5.4567266879421767
  0
ARC
  5
118C5
  8
0
 10
426.2417889290284734
 20
83.1219026393813749
 30
0.0
 40
0.0105139940922597
 50
184.283727425045214
 51
262.6440977041726796
  0
ARC
  5
118C6
  8
0
 10
426.2408325727624856
 20
83.1773536754267155
 30
0.0
 40
0.010539378970317
 50
99.3990619439866663
 51
178.3180423715483016
  0
ARC
  5
118C7
  8
0
 10
426.633297058798405
 20
83.1565550009188286
 30
0.0
 40
0.4035517362174374
 50
177.0017409292948969
 51
185.0378915345372093
  0
ARC
  5
118C8
  8
0
 10
426.4368214177966934
 20
83.1530527954199954
 30
0.0
 40
0.2066938818455348
 50
175.5274262324813037
 51
186.4725745296867103
  0
ARC
  5
118C9
  8
0
 10
426.0152937189862996
 20
83.1456949992637107
 30
0.0
 40
0.2167384165090588
 50
355.7817682866045175
 51
6.2182324755641423
  0
ARC
  5
118CA
  8
0
 10
426.2568643857396182
 20
83.3030342475020973
 30
0.0
 40
0.0012002786173769
 50
193.6073226009287112
 51
341.3449125759734102
  0
ARC
  5
118CB
  8
0
 10
426.3036733593805252
 20
83.316070722449723
 30
0.0
 40
0.0497900245213459
 50
187.5531567965273041
 51
195.5155903645162994
  0
ARC
  5
118CC
  8
0
 10
426.059683904154781
 20
83.3495281498799443
 30
0.0
 40
0.2041974548903034
 50
350.4647075435756847
 51
8.7863338513618814
  0
ARC
  5
118CD
  8
0
 10
426.1502237086717173
 20
83.3347913234106841
 30
0.0
 40
0.1124683024675062
 50
343.3946181680113909
 51
350.2277354180563975
  0
ARC
  5
118CE
  8
0
 10
426.256861465048587
 20
83.396885163093927
 30
0.0
 40
0.0009135583125069
 50
7.426295613463556
 51
171.2633086289862945
  0
ARC
  5
118CF
  8
0
 10
426.2997973630879187
 20
83.3836169542599066
 30
0.0
 40
0.0458431262759907
 50
162.9951124075188034
 51
172.4356936159940972
  0
ARC
  5
118D0
  8
0
 10
426.1449807120067135
 20
83.3626870587080901
 30
0.0
 40
0.1178915960963719
 50
8.7982947469414494
 51
16.9227758076670192
  0
ARC
  5
118D1
  8
0
 10
426.2569089871411165
 20
83.1062869444275094
 30
0.0
 40
0.0015678825702051
 50
192.799354449259198
 51
328.2353300254947044
  0
ARC
  5
118D2
  8
0
 10
426.3072790581558138
 20
83.1185957327600136
 30
0.0
 40
0.0534198778250173
 50
189.4088397869969072
 51
193.7047121051575971
  0
ARC
  5
118D3
  8
0
 10
426.0613069154579762
 20
83.1513372908944461
 30
0.0
 40
0.2025810368438728
 50
350.7912849728406854
 51
10.3067126329350192
  0
ARC
  5
118D4
  8
0
 10
426.2569073937527833
 20
83.1953750734558355
 30
0.0
 40
0.0018594043604607
 50
11.8770908594707905
 51
162.6621214458282054
  0
ARC
  5
118D5
  8
0
 10
426.3248172018655282
 20
83.1809865272512781
 30
0.0
 40
0.0712688184236428
 50
167.897210590959105
 51
172.7369103436014086
  0
ARC
  5
118D6
  8
0
 10
426.1441320823777801
 20
83.1649284292062703
 30
0.0
 40
0.1186694604739923
 50
11.0053860872859008
 51
15.0576991327371008
  0
ARC
  5
118D7
  8
0
 10
426.1460358042675125
 20
83.1378397535333562
 30
0.0
 40
0.1167843483996153
 50
343.9039926525638862
 51
350.6756491747847235
  0
ARC
  5
118D8
  8
0
 10
426.2610867451408012
 20
83.2224887735663685
 30
0.0
 40
0.0112198736940121
 50
187.9282275696672002
 51
261.3449697588417848
  0
ARC
  5
118D9
  8
0
 10
426.2604819581753759
 20
83.2767978678658665
 30
0.0
 40
0.0110195256914773
 50
99.1342406432034693
 51
171.3572768001390045
  0
ARC
  5
118DA
  8
0
 10
426.4622259099375015
 20
83.2511253720475395
 30
0.0
 40
0.2143872882048413
 50
172.6764528287822031
 51
188.0937240278915965
  0
ARC
  5
118DB
  8
0
 10
426.1432404341426832
 20
83.2485264261202644
 30
0.0
 40
0.1090049403162303
 50
350.0502012030884202
 51
10.9498049535150006
  0
ARC
  5
118DC
  8
0
 10
426.3595025272298926
 20
83.2504137284346797
 30
0.0
 40
0.1108506602040626
 50
170.2261014530783996
 51
190.7739047035227884
  0
ARC
  5
118DD
  8
0
 10
426.2852991717649047
 20
83.2067293377733108
 30
0.0
 40
0.0082664441877551
 50
221.011359869584993
 51
320.7225483252038885
  0
ARC
  5
118DE
  8
0
 10
426.3023329678283062
 20
83.219863125863256
 30
0.0
 40
0.0297652908160158
 50
200.2830186153202021
 51
218.5712931559430103
  0
ARC
  5
118DF
  8
0
 10
426.1922916770133156
 20
83.2492706648115046
 30
0.0
 40
0.1116250285524873
 50
348.7426198437771063
 51
17.5309947028046089
  0
ARC
  5
118E0
  8
0
 10
426.2852872898295118
 20
83.2924739293580103
 30
0.0
 40
0.0080962212656332
 50
36.0893919957962623
 51
133.2783336985154108
  0
ARC
  5
118E1
  8
0
 10
426.2432073105525205
 20
83.2650185966298864
 30
0.0
 40
0.0583314767514682
 50
17.8456946514992687
 51
33.5342677198878931
  0
ARC
  5
118E2
  8
0
 10
426.2981353054414058
 20
83.281482987498535
 30
0.0
 40
0.0249721848278614
 50
137.4555239013398023
 51
160.25129878036131
  0
ARC
  5
118E3
  8
0
 10
426.2335419470094848
 20
83.2389801598073547
 30
0.0
 40
0.0691896037589529
 50
327.1965169891528831
 51
350.4320004931778954
  0
ARC
  5
118E4
  8
0
 10
426.2614925215286803
 20
83.0225401905649392
 30
0.0
 40
0.0110743929697424
 50
191.6808482609309863
 51
262.57469238112418
  0
ARC
  5
118E5
  8
0
 10
426.2600486807558013
 20
83.0769290968400327
 30
0.0
 40
0.011066659841377
 50
100.3288339908208968
 51
171.9052412558899903
  0
ARC
  5
118E6
  8
0
 10
426.457612402254199
 20
83.0549449405027502
 30
0.0
 40
0.2098449130111488
 50
173.5584362592441892
 51
189.5034523451012092
  0
ARC
  5
118E7
  8
0
 10
426.3492792218548857
 20
83.0520498844068129
 30
0.0
 40
0.1008385835359392
 50
170.1897853124513915
 51
192.810204451837393
  0
ARC
  5
118E8
  8
0
 10
426.1432767082013129
 20
83.0466555371546917
 30
0.0
 40
0.1090019307751118
 50
351.0467535155784162
 51
11.95323624871296
  0
ARC
  5
118E9
  8
0
 10
426.2854693136317223
 20
83.0079958135843157
 30
0.0
 40
0.0079037892445825
 50
222.4917120352594964
 51
308.4707064277736777
  0
ARC
  5
118EA
  8
0
 10
426.2989360737564084
 20
83.019807516635808
 30
0.0
 40
0.0258153530919864
 50
202.3923727745803092
 51
221.6329323739678898
  0
ARC
  5
118EB
  8
0
 10
426.1933057468077095
 20
83.0514711522079665
 30
0.0
 40
0.1106057440359488
 50
343.2212175599357806
 51
16.5633948507287805
  0
ARC
  5
118EC
  8
0
 10
426.2467982741994206
 20
83.0345354046058759
 30
0.0
 40
0.0545070939172047
 50
323.099324235777317
 51
344.0334317127150143
  0
ARC
  5
118ED
  8
0
 10
426.2854237937331163
 20
83.0956962023338406
 30
0.0
 40
0.0073266941296107
 50
46.0758813935050497
 51
135.9800564334628916
  0
ARC
  5
118EE
  8
0
 10
426.2992031614122084
 20
83.082581306272715
 30
0.0
 40
0.0263494611662254
 50
136.2942838746452878
 51
162.8447798890904892
  0
ARC
  5
118EF
  8
0
 10
426.2457392936432825
 20
83.0678655858085762
 30
0.0
 40
0.0556795495265509
 50
15.7745214509050093
 51
36.4849860888198023
  0
ARC
  5
118F0
  8
0
 10
426.2421472721658802
 20
82.921852950530365
 30
0.0
 40
0.0102621192970015
 50
194.3328229156427085
 51
264.1670770233196208
  0
ARC
  5
118F1
  8
0
 10
426.2401414804057254
 20
82.9778793652243678
 30
0.0
 40
0.0101494390830143
 50
99.6396809350762425
 51
157.4370370764050051
  0
ARC
  5
118F2
  8
0
 10
426.5107575369648885
 20
82.9569621698386754
 30
0.0
 40
0.2810858427715667
 50
174.9358959692740996
 51
187.6975376820921895
  0
ARC
  5
118F3
  8
0
 10
426.4443496670812124
 20
82.9569086857566163
 30
0.0
 40
0.2142884136966733
 50
176.7195518091756981
 51
187.2804478208726096
  0
ARC
  5
118F4
  8
0
 10
426.0147664812274115
 20
82.9419073117344681
 30
0.0
 40
0.2173625178426938
 50
356.7944395301486793
 51
7.2055600998984692
  0
ARC
  5
118F5
  8
0
 10
426.2568580859086182
 20
82.905718944268159
 30
0.0
 40
0.0011097760407934
 50
190.5940863245689059
 51
342.0550004923302936
  0
ARC
  5
118F6
  8
0
 10
426.2953459533396767
 20
82.917064716023944
 30
0.0
 40
0.0412295230464164
 50
189.3928207441861105
 51
196.2682208765913003
  0
ARC
  5
118F7
  8
0
 10
426.0730248305172267
 20
82.9526741311877061
 30
0.0
 40
0.1908428029912712
 50
345.6506923953670025
 51
13.5410583969034892
  0
ARC
  5
118F8
  8
0
 10
426.2568996575909068
 20
82.9968399192809301
 30
0.0
 40
0.0017419711901126
 50
17.3182482113969911
 51
169.0112426641456125
  0
ARC
  5
118F9
  8
0
 10
426.3142851030814882
 20
82.9837005690517486
 30
0.0
 40
0.0606115003335888
 50
167.1583017080461104
 51
173.5583868215136079
  0
ARC
  5
118FA
  8
0
 10
426.2620448182370865
 20
82.8229282724054201
 30
0.0
 40
0.0112739989518606
 50
188.9715946606650903
 51
263.2590541856008031
  0
ARC
  5
118FB
  8
0
 10
426.2596141033021127
 20
82.8770262513738771
 30
0.0
 40
0.0111407035757148
 50
101.4947011512144002
 51
174.066929142873505
  0
ARC
  5
118FC
  8
0
 10
426.4632982312983813
 20
82.8585743603065765
 30
0.0
 40
0.2156579873576695
 50
174.7845724989668099
 51
189.9880201373433124
  0
ARC
  5
118FD
  8
0
 10
426.3550969747875001
 20
82.854031092534143
 30
0.0
 40
0.1066173741258096
 50
171.803646482008304
 51
193.1963631307073967
  0
ARC
  5
118FE
  8
0
 10
426.1432382240557217
 20
82.8447811219077437
 30
0.0
 40
0.1091052882872281
 50
352.050328269782085
 51
12.9496813429336104
  0
ARC
  5
118FF
  8
0
 10
426.2855703567880141
 20
82.8096002836721254
 30
0.0
 40
0.007691344840989
 50
226.1871794609774895
 51
303.458220494583486
  0
ARC
  5
11900
  8
0
 10
426.296184517773213
 20
82.8199367904607158
 30
0.0
 40
0.0225040834829663
 50
205.0598304607769933
 51
224.9058573154179044
  0
ARC
  5
11901
  8
0
 10
426.1873780366033202
 20
82.853344391346269
 30
0.0
 40
0.1163341920329332
 50
345.0951766464563093
 51
15.7909443454107006
  0
ARC
  5
11902
  8
0
 10
426.2853170794421089
 20
82.8973480908762355
 30
0.0
 40
0.0075427182469179
 50
39.1298680039803628
 51
125.4772261625547998
  0
ARC
  5
11903
  8
0
 10
426.2996986391711971
 20
82.883932704843545
 30
0.0
 40
0.0271000714762666
 50
133.8060577596534131
 51
165.3450586654676897
  0
ARC
  5
11904
  8
0
 10
426.2448537835909974
 20
82.8695354831263558
 30
0.0
 40
0.0566215018286372
 50
15.8523804485004405
 51
35.1185637665259094
  0
ARC
  5
11905
  8
0
 10
426.2471719256204779
 20
82.8368086685369462
 30
0.0
 40
0.0543021904613073
 50
321.7405614284202784
 51
345.7277757979973103
  0
ARC
  5
11906
  8
0
 10
426.2425949211192915
 20
82.7219762342020886
 30
0.0
 40
0.0101860018203916
 50
200.9719252819988924
 51
265.3145598650282864
  0
ARC
  5
11907
  8
0
 10
426.2396351958789182
 20
82.778041052429387
 30
0.0
 40
0.0101396559773585
 50
100.5984092104612984
 51
159.5137709618267934
  0
ARC
  5
11908
  8
0
 10
426.5034156425767833
 20
82.7626219651973827
 30
0.0
 40
0.2739363025625582
 50
176.0295718292591118
 51
189.3047166813331046
  0
ARC
  5
11909
  8
0
 10
426.4472247498499087
 20
82.7607884436684031
 30
0.0
 40
0.2173193007802501
 50
177.789216669266807
 51
188.2107834460547906
  0
ARC
  5
1190A
  8
0
 10
426.0149129932710821
 20
82.7381319441119132
 30
0.0
 40
0.2173816990343011
 50
357.7907165324144785
 51
8.2092835829075792
  0
ARC
  5
1190B
  8
0
 10
426.2568644386864207
 20
82.7069554586326063
 30
0.0
 40
0.0008778040309037
 50
199.8419558688771929
 51
334.7411965235614844
  0
ARC
  5
1190C
  8
0
 10
426.287734542031501
 20
82.7171108708218981
 30
0.0
 40
0.0333750829679916
 50
190.9285485241481126
 51
198.2527013437309051
  0
ARC
  5
1190D
  8
0
 10
426.0747662791109178
 20
82.7546614678242349
 30
0.0
 40
0.1891064215369916
 50
345.2707675909999239
 51
14.0133021939568199
  0
ARC
  5
1190E
  8
0
 10
426.2568754587795752
 20
82.7999399149678368
 30
0.0
 40
0.0014623332074762
 50
20.5424989565110216
 51
162.5883706138027094
  0
ARC
  5
1190F
  8
0
 10
426.3188650957608843
 20
82.7847069483032101
 30
0.0
 40
0.0652933373454828
 50
166.1133274796821127
 51
174.4737057066589045
  0
ARC
  5
11910
  8
0
 10
426.2623889613374217
 20
82.6228806727266232
 30
0.0
 40
0.0110098851925148
 50
194.3367917707996924
 51
264.734229781278998
  0
ARC
  5
11911
  8
0
 10
426.2588855987581837
 20
82.6775526962494069
 30
0.0
 40
0.0107267526588674
 50
101.6391843756144056
 51
167.5631804741867086
  0
ARC
  5
11912
  8
0
 10
426.4447945221268128
 20
82.660808141638114
 30
0.0
 40
0.1973062149713896
 50
174.4580657569902087
 51
191.8906171289494864
  0
ARC
  5
11913
  8
0
 10
426.3570998872272071
 20
82.6559849724444007
 30
0.0
 40
0.1086886635004039
 50
173.0002917941091027
 51
193.9997074584362906
  0
ARC
  5
11914
  8
0
 10
426.1431571186441829
 20
82.642899673556343
 30
0.0
 40
0.1092836233272326
 50
353.0580973021963018
 51
13.9419019503481092
  0
ARC
  5
11915
  8
0
 10
426.285728134077317
 20
82.6121111870037055
 30
0.0
 40
0.007431545998948
 50
234.2483830506525067
 51
298.1592522711462152
  0
ARC
  5
11916
  8
0
 10
426.2919804319246282
 20
82.6195369195325213
 30
0.0
 40
0.0171267988280948
 50
210.6775267884839025
 51
231.7872698885709895
  0
ARC
  5
11917
  8
0
 10
426.2047310257718209
 20
82.6574082321253059
 30
0.0
 40
0.0991427397676976
 50
328.4681052314825251
 51
26.805434241268209
  0
ARC
  5
11918
  8
0
 10
426.2850814879838026
 20
82.6972672226771692
 30
0.0
 40
0.0094745521143345
 50
30.7947925394628683
 51
130.2466186229625009
  0
ARC
  5
11919
  8
0
 10
426.3059749969277732
 20
82.6836210625555452
 30
0.0
 40
0.0341421030024064
 50
142.3021463713388073
 51
167.2271062170468952
  0
ARC
  5
1191A
  8
0
 10
426.243049741816094
 20
82.5221291678051045
 30
0.0
 40
0.0101328231498163
 50
208.0654882823874914
 51
266.4264253584481139
  0
ARC
  5
1191B
  8
0
 10
426.239123389945803
 20
82.5782112197191509
 30
0.0
 40
0.0101122060911679
 50
101.5622348862467987
 51
153.4830104545117138
  0
ARC
  5
1191C
  8
0
 10
426.4614835093144052
 20
82.5641991467670664
 30
0.0
 40
0.232148994244012
 50
175.4226056443806101
 51
191.6396190176386085
  0
ARC
  5
1191D
  8
0
 10
426.4485268218123224
 20
82.5646657092980689
 30
0.0
 40
0.218851859516251
 50
178.8202771753562104
 51
189.1797196064376863
  0
ARC
  5
1191E
  8
0
 10
426.0153238030737839
 20
82.5343732154990164
 30
0.0
 40
0.2172032084260906
 50
358.7808525233181172
 51
9.2191442584774155
  0
ARC
  5
1191F
  8
0
 10
426.256860699915876
 20
82.507636375811245
 30
0.0
 40
0.0010860715576942
 50
191.8490117219029116
 51
337.2691669233578864
  0
ARC
  5
11920
  8
0
 10
426.2913029099378264
 20
82.5180190478917837
 30
0.0
 40
0.0370553014470072
 50
190.5212624135575936
 51
196.6313202734685888
  0
ARC
  5
11921
  8
0
 10
426.0735865669055897
 20
82.5546729465458355
 30
0.0
 40
0.1902884197327755
 50
345.5585185827487749
 51
13.6694240210162405
  0
ARC
  5
11922
  8
0
 10
426.2568896602671202
 20
82.5993753693576451
 30
0.0
 40
0.0016175765164487
 50
9.4817425818112877
 51
161.2594780563582901
  0
ARC
  5
11923
  8
0
 10
426.3187201383724982
 20
82.5848309966514051
 30
0.0
 40
0.0651283872953746
 50
166.6264916276512906
 51
174.0809774837142072
  0
ARC
  5
11924
  8
0
 10
426.2627654055916082
 20
82.422891509983657
 30
0.0
 40
0.010802676951588
 50
200.2370685244092954
 51
266.1086669331274948
  0
ARC
  5
11925
  8
0
 10
426.2583660947411204
 20
82.477768182771058
 30
0.0
 40
0.0106498635228701
 50
102.5767269398653951
 51
164.3724621415192075
  0
ARC
  5
11926
  8
0
 10
426.4339570764287259
 20
82.4633917426641432
 30
0.0
 40
0.1866455624724883
 50
174.6985297536762118
 51
193.7101575499164881
  0
ARC
  5
11927
  8
0
 10
426.3596955476605217
 20
82.4581988228878799
 30
0.0
 40
0.1114194542247366
 50
174.328405032344989
 51
194.8240705221217866
  0
ARC
  5
11928
  8
0
 10
426.1448593320873215
 20
82.4410031840114783
 30
0.0
 40
0.107720763501034
 50
353.9725334736423861
 51
15.1799420808197691
  0
ARC
  5
11929
  8
0
 10
426.2856832342596931
 20
82.4126534145302543
 30
0.0
 40
0.0062102694509037
 50
235.2326689130671014
 51
304.8869946740779255
  0
ARC
  5
1192A
  8
0
 10
426.2905120292742822
 20
82.4200628698158084
 30
0.0
 40
0.0150527647773608
 50
215.8266008826396956
 51
236.2165580264635878
  0
ARC
  5
1192B
  8
0
 10
426.1922428842131012
 20
82.4586482880798286
 30
0.0
 40
0.1116620848841948
 50
342.2798883840691815
 51
13.1910425364940096
  0
ARC
  5
1192C
  8
0
 10
426.2503366428438198
 20
82.4399938473383145
 30
0.0
 40
0.0506468731658813
 50
320.177837748752097
 51
342.3789055925690263
  0
ARC
  5
1192D
  8
0
 10
426.2854955288360088
 20
82.5042094041747447
 30
0.0
 40
0.0063055549202187
 50
31.0537010228969486
 51
140.253626425227111
  0
ARC
  5
1192E
  8
0
 10
426.304647597121118
 20
82.4856958123706079
 30
0.0
 40
0.0329287863677904
 50
136.7904580420687921
 51
169.6410703598608052
  0
ARC
  5
1192F
  8
0
 10
426.2373796311080127
 20
82.4705489495734838
 30
0.0
 40
0.0650133048054314
 50
12.05717390492687
 51
34.5954192015581796
  0
ARC
  5
11930
  8
0
 10
426.2435394961830184
 20
82.3223571896671871
 30
0.0
 40
0.0101488242749404
 50
210.447365815681195
 51
267.3485493734879128
  0
ARC
  5
11931
  8
0
 10
426.2409366769429084
 20
82.3763496604067456
 30
0.0
 40
0.0126973682717915
 50
110.8322497116699026
 51
184.8868066940773076
  0
ARC
  5
11932
  8
0
 10
426.5416410593945216
 20
82.3809874932364465
 30
0.0
 40
0.3134077878529088
 50
181.0456690408688871
 51
191.7407151416389013
  0
ARC
  5
11933
  8
0
 10
426.4493538698557131
 20
82.3685564635711245
 30
0.0
 40
0.2199801278558162
 50
179.8398078002680052
 51
190.1601963061401079
  0
ARC
  5
11934
  8
0
 10
426.0147953922436841
 20
82.3305375074493213
 30
0.0
 40
0.2180294077261015
 50
359.7935123532125203
 51
10.2064917531973407
  0
ARC
  5
11935
  8
0
 10
426.2568698574237942
 20
82.3073314535576657
 30
0.0
 40
0.0006763287348605
 50
196.941081816587598
 51
346.4309493263913851
  0
ARC
  5
11936
  8
0
 10
426.2859975654213827
 20
82.3176781016834411
 30
0.0
 40
0.031586422539659
 50
190.9142979185151034
 51
199.4999188198424918
  0
ARC
  5
11937
  8
0
 10
426.0612144838412974
 20
82.3553824224019451
 30
0.0
 40
0.2026639113383683
 50
350.4336559394063215
 51
10.2894838303996305
  0
ARC
  5
11938
  8
0
 10
426.2568573875772131
 20
82.4030188254173339
 30
0.0
 40
0.0008635640438889
 50
14.0250886530646
 51
169.3983140830526963
  0
ARC
  5
11939
  8
0
 10
426.3111853621728073
 20
82.3868690085480324
 30
0.0
 40
0.0575365322225806
 50
163.5338158762594105
 51
174.7923262799332065
  0
ARC
  5
1193A
  8
0
 10
426.1567216071396729
 20
82.3716862279901108
 30
0.0
 40
0.1057854353352911
 50
10.8408818280741102
 51
17.347629191027
  0
ARC
  5
1193B
  8
0
 10
426.1575265011592819
 20
82.3391825110901152
 30
0.0
 40
0.1049989744301824
 50
342.2504027570632843
 51
350.4165123232390897
  0
ARC
  5
1193C
  8
0
 10
426.2631201348908121
 20
82.2229313973256239
 30
0.0
 40
0.0106188067999218
 50
202.6589766038692062
 51
267.6383850031128873
  0
ARC
  5
1193D
  8
0
 10
426.257823999147206
 20
82.2779810616386555
 30
0.0
 40
0.0105620725205398
 50
103.4288851366553956
 51
161.4662378242059049
  0
ARC
  5
1193E
  8
0
 10
426.4242618541259162
 20
82.2654065153266885
 30
0.0
 40
0.1771699237793279
 50
174.8407604116287075
 51
195.2381827317543923
  0
ARC
  5
1193F
  8
0
 10
426.2858917640065783
 20
82.2129157770551018
 30
0.0
 40
0.0047376435924271
 50
241.4636333379100961
 51
314.8884963782223849
  0
ARC
  5
11940
  8
0
 10
426.2887876632840971
 20
82.2200317321910461
 30
0.0
 40
0.0124020582858034
 50
222.0668453959031012
 51
245.4182346148407134
  0
ARC
  5
11941
  8
0
 10
426.1921099028825211
 20
82.2603828314960026
 30
0.0
 40
0.1117774381462888
 50
345.5024461732219834
 51
16.4320437217113806
  0
ARC
  5
11942
  8
0
 10
426.2859458050800185
 20
82.3087255240885156
 30
0.0
 40
0.004183092674456
 50
44.5802188562042971
 51
126.1036113084835932
  0
ARC
  5
11943
  8
0
 10
426.3015273496170039
 20
82.2882728951293529
 30
0.0
 40
0.0298940656641978
 50
127.1338455952283937
 51
172.6945789327218961
  0
ARC
  5
11944
  8
0
 10
426.2503666621606158
 20
82.2786917579457651
 30
0.0
 40
0.050732461684544
 50
15.21046407932322
 51
40.5324015832309286
  0
ARC
  5
11945
  8
0
 10
426.2477480091083066
 20
82.2438218262772835
 30
0.0
 40
0.0538062856183915
 50
320.4481253844102184
 51
347.7448594119152858
  0
LINE
  5
11947
  8
0
 10
426.2507782685863162
 20
81.5529619611003653
 30
0.0
 11
427.170778268586389
 21
81.5529619611003653
 31
0.0
  0
LINE
  5
11948
  8
0
 10
427.067902998586419
 20
81.5469619611003651
 30
0.0
 11
427.067902998586419
 21
81.5529619611003653
 31
0.0
  0
LINE
  5
11949
  8
0
 10
426.3536535385863999
 20
81.5469619611003651
 30
0.0
 11
426.3536535385863999
 21
81.5529619611003653
 31
0.0
  0
ENDSEC
  0
EOF
