  0
SECTION
  2
HEADER
  9
$ACADVER
  1
AC1009
  9
$INSBASE
 10
3060.0542340223692008
 20
125.6277077739884049
 30
0.0
  9
$EXTMIN
 10
3033.2029798136750287
 20
118.2624991418308014
 30
0.0
  9
$EXTMAX
 10
3074.2284588106790579
 20
132.2675401684604992
 30
0.0
  9
$LIMMIN
 10
0.0
 20
0.0
  9
$LIMMAX
 10
11.6929133858000007
 20
8.2677165353999982
  9
$ORTHOMODE
 70
     0
  9
$REGENMODE
 70
     1
  9
$FILLMODE
 70
     1
  9
$QTEXTMODE
 70
     0
  9
$MIRRTEXT
 70
     0
  9
$DRAGMODE
 70
     2
  9
$LTSCALE
 40
0.6431102362
  9
$OSMODE
 70
  4095
  9
$ATTMODE
 70
     1
  9
$TEXTSIZE
 40
0.2
  9
$TRACEWID
 40
0.05
  9
$TEXTSTYLE
  7
STANDARD
  9
$CLAYER
  8
0
  9
$CELTYPE
  6
BYLAYER
  9
$CECOLOR
 62
   256
  9
$DIMSCALE
 40
1.0
  9
$DIMASZ
 40
0.1875
  9
$DIMEXO
 40
0.0625
  9
$DIMDLI
 40
0.4443307087
  9
$DIMRND
 40
0.0
  9
$DIMDLE
 40
0.0
  9
$DIMEXE
 40
0.125
  9
$DIMTP
 40
0.01
  9
$DIMTM
 40
0.01
  9
$DIMTXT
 40
2.0
  9
$DIMCEN
 40
0.1052362205
  9
$DIMTSZ
 40
0.0
  9
$DIMTOL
 70
     1
  9
$DIMLIM
 70
     0
  9
$DIMTIH
 70
     1
  9
$DIMTOH
 70
     1
  9
$DIMSE1
 70
     0
  9
$DIMSE2
 70
     0
  9
$DIMTAD
 70
     0
  9
$DIMZIN
 70
     0
  9
$DIMBLK
  1

  9
$DIMASO
 70
     1
  9
$DIMSHO
 70
     1
  9
$DIMPOST
  1
\X
  9
$DIMAPOST
  1

  9
$DIMALT
 70
     1
  9
$DIMALTD
 70
     2
  9
$DIMALTF
 40
25.3999999999999986
  9
$DIMLFAC
 40
1.0
  9
$DIMTOFL
 70
     0
  9
$DIMTVP
 40
0.0
  9
$DIMTIX
 70
     0
  9
$DIMSOXD
 70
     0
  9
$DIMSAH
 70
     0
  9
$DIMBLK1
  1

  9
$DIMBLK2
  1

  9
$DIMSTYLE
  2
STANDARD
  9
$DIMCLRD
 70
     0
  9
$DIMCLRE
 70
     0
  9
$DIMCLRT
 70
     0
  9
$DIMTFAC
 40
1.0
  9
$DIMGAP
 40
0.09
  9
$LUNITS
 70
     2
  9
$LUPREC
 70
     4
  9
$SKETCHINC
 40
0.1
  9
$FILLETRAD
 40
0.0
  9
$AUNITS
 70
     0
  9
$AUPREC
 70
     0
  9
$MENU
  1
.
  9
$ELEVATION
 40
0.0
  9
$PELEVATION
 40
0.0
  9
$THICKNESS
 40
0.0
  9
$LIMCHECK
 70
     0
  9
$BLIPMODE
 70
     0
  9
$CHAMFERA
 40
0.0
  9
$CHAMFERB
 40
0.0
  9
$SKPOLY
 70
     0
  9
$TDCREATE
 40
2458060.468368056230247
  9
$TDUPDATE
 40
2459293.6087731481529772
  9
$TDINDWG
 40
0.6296945602
  9
$TDUSRTIMER
 40
0.6296945602
  9
$USRTIMER
 70
     1
  9
$ANGBASE
 50
0.0
  9
$ANGDIR
 70
     0
  9
$PDMODE
 70
     0
  9
$PDSIZE
 40
0.3125
  9
$PLINEWID
 40
0.0
  9
$COORDS
 70
     1
  9
$SPLFRAME
 70
     0
  9
$SPLINETYPE
 70
     6
  9
$SPLINESEGS
 70
     8
  9
$ATTDIA
 70
     1
  9
$ATTREQ
 70
     1
  9
$HANDLING
 70
     1
  9
$HANDSEED
  5
2C4E3
  9
$SURFTAB1
 70
     6
  9
$SURFTAB2
 70
     6
  9
$SURFTYPE
 70
     6
  9
$SURFU
 70
     6
  9
$SURFV
 70
     6
  9
$UCSNAME
  2

  9
$UCSORG
 10
0.0
 20
0.0
 30
0.0
  9
$UCSXDIR
 10
1.0
 20
0.0
 30
0.0
  9
$UCSYDIR
 10
0.0
 20
1.0
 30
0.0
  9
$PUCSNAME
  2

  9
$PUCSORG
 10
0.0
 20
0.0
 30
0.0
  9
$PUCSXDIR
 10
1.0
 20
0.0
 30
0.0
  9
$PUCSYDIR
 10
0.0
 20
1.0
 30
0.0
  9
$USERI1
 70
     0
  9
$USERI2
 70
     0
  9
$USERI3
 70
     0
  9
$USERI4
 70
     0
  9
$USERI5
 70
     0
  9
$USERR1
 40
0.0
  9
$USERR2
 40
0.0
  9
$USERR3
 40
0.0
  9
$USERR4
 40
0.0
  9
$USERR5
 40
0.0
  9
$WORLDVIEW
 70
     1
  9
$SHADEDGE
 70
     3
  9
$SHADEDIF
 70
    70
  9
$TILEMODE
 70
     1
  9
$MAXACTVP
 70
    64
  9
$PLIMCHECK
 70
     0
  9
$PEXTMIN
 10
1.0000000000000000E+20
 20
1.0000000000000000E+20
 30
1.0000000000000000E+20
  9
$PEXTMAX
 10
-1.0000000000000000E+20
 20
-1.0000000000000000E+20
 30
-1.0000000000000000E+20
  9
$PLIMMIN
 10
0.0
 20
0.0
  9
$PLIMMAX
 10
12.0
 20
9.0
  9
$UNITMODE
 70
     0
  9
$VISRETAIN
 70
     1
  9
$PLINEGEN
 70
     0
  9
$PSLTSCALE
 70
     1
  0
ENDSEC
  0
SECTION
  2
TABLES
  0
TABLE
  2
VPORT
 70
     1
  0
VPORT
  2
*ACTIVE
 70
     0
 10
0.0
 20
0.0
 11
1.0
 21
1.0
 12
-229.0296880276692946
 22
-72.5165314854487519
 13
0.0
 23
0.0
 14
1.0
 24
1.0
 15
0.0
 25
0.0
 16
0.0
 26
0.0
 36
96.5995694866707311
 17
3303.693115234375
 27
195.2615115758877096
 37
0.0
 40
75.7497759141145792
 41
2.0416666666666661
 42
50.0
 43
0.0
 44
0.0
 50
0.0
 51
0.0
 71
     0
 72
   100
 73
     1
 74
     1
 75
     0
 76
     0
 77
     0
 78
     0
  0
ENDTAB
  0
TABLE
  2
LTYPE
 70
     2
  0
LTYPE
  2
CONTINUOUS
 70
     0
  3
Solid line
 72
    65
 73
     0
 40
0.0
  0
LTYPE
  2
PHANTOM2
 70
     0
  3
___ _ _ ___ _ _ ___ _ _ ___ _ _
 72
    65
 73
     6
 40
1.25
 49
0.625
 49
-0.125
 49
0.125
 49
-0.125
 49
0.125
 49
-0.125
  0
ENDTAB
  0
TABLE
  2
LAYER
 70
     2
  0
LAYER
  2
0
 70
     0
 62
   255
  6
CONTINUOUS
  0
LAYER
  2
DEFPOINTS
 70
     0
 62
     7
  6
CONTINUOUS
  0
ENDTAB
  0
TABLE
  2
STYLE
 70
     1
  0
STYLE
  2
STANDARD
 70
     0
 40
0.0
 41
0.8
 50
0.0
 71
     0
 42
0.2
  3
txt
  4

  0
ENDTAB
  0
TABLE
  2
VIEW
 70
     0
  0
ENDTAB
  0
TABLE
  2
UCS
 70
     0
  0
ENDTAB
  0
TABLE
  2
APPID
 70
     9
  0
APPID
  2
ACAD
 70
     0
  0
APPID
  2
ACAD_MLEADERVER
 70
     0
  0
APPID
  2
ACAD_EXEMPT_FROM_CAD_STANDARDS
 70
     0
  0
APPID
  2
ACAD_NAV_VCDISPLAY
 70
     0
  0
APPID
  2
ACAECLAYERSTANDARD
 70
     0
  0
APPID
  2
ACCMTRANSPARENCY
 70
     0
  0
APPID
  2
ACAD_DSTYLE_DIMJAG
 70
     0
  0
APPID
  2
ACAD_DSTYLE_DIMTALN
 70
     0
  0
APPID
  2
ACDBATTR
 70
     0
  0
ENDTAB
  0
TABLE
  2
DIMSTYLE
 70
     1
  0
DIMSTYLE
  2
STANDARD
 70
     0
  3

  4

  5

  6

  7

 40
1.0
 41
0.1875
 42
0.0625
 43
0.38
 44
0.125
 45
0.0
 46
0.0
 47
0.01
 48
0.01
140
0.15625
141
0.09
142
0.0
143
25.3999999999999986
144
1.0
145
0.0
146
1.0
147
0.09
 71
     1
 72
     0
 73
     1
 74
     1
 75
     0
 76
     0
 77
     0
 78
     4
170
     0
171
     2
172
     0
173
     0
174
     0
175
     0
176
     0
177
     0
178
     0
  0
ENDTAB
  0
ENDSEC
  0
SECTION
  2
BLOCKS
  0
BLOCK
  8
0
  2
$MODEL_SPACE
 70
     0
 10
0.0
 20
0.0
 30
0.0
  3
$MODEL_SPACE
  1

  0
ENDBLK
  5
21
  8
0
  0
BLOCK
 67
     1
  8
0
  2
$PAPER_SPACE
 70
     0
 10
0.0
 20
0.0
 30
0.0
  3
$PAPER_SPACE
  1

  0
ENDBLK
  5
1D
 67
     1
  8
0
  0
BLOCK
  8
0
  2
_FILLED
 70
     0
 10
0.0
 20
0.0
 30
0.0
  3
_FILLED
  1

  0
SOLID
  5
2ABDA
  8
0
  6
BYBLOCK
 62
     0
 10
0.0
 20
0.0
 30
0.0
 11
-1.0
 21
0.1666666667
 31
0.0
 12
-1.0
 22
-0.1666666667
 32
0.0
 13
-1.0
 23
-0.1666666667
 33
0.0
  0
ENDBLK
  5
2ABDB
  8
0
  6
BYBLOCK
 62
     0
  0
ENDSEC
  0
SECTION
  2
ENTITIES
  0
ATTDEF
  5
2BFA6
  8
DEFPOINTS
 10
3060.0558278037569835
 20
125.631492954108495
 30
0.0
 40
0.001
  1
K-14800T
  3

  2
MODELNUMBER
 70
     0
1001
ACDBATTR
1070
     0
1070
     1
  0
ATTDEF
  5
2BFA7
  8
DEFPOINTS
 10
3060.0558278037569835
 20
125.6298262874418015
 30
0.0
 40
0.001
  1
CHALICE
  3

  2
TRADENAME
 70
     0
1001
ACDBATTR
1070
     0
1070
     1
  0
ATTDEF
  5
2BFA8
  8
DEFPOINTS
 10
3060.0558278037569835
 20
125.6281596207751932
 30
0.0
 40
0.001
  1
BATHROOM SINK
  3

  2
PRODUCT
 70
     0
1001
ACDBATTR
1070
     0
1070
     1
  0
LINE
  5
2C3BB
  8
0
 10
3051.9637074290781129
 20
125.6277077739884049
 30
0.0
 11
3068.1448097912771118
 21
125.6277077739884049
 31
0.0
  0
LINE
  5
2C3BC
  8
0
 10
3051.9032500088769666
 20
125.6867628920883959
 30
0.0
 11
3068.2052672114768939
 21
125.6867628920883959
 31
0.0
  0
ARC
  5
2C3BD
  8
0
 10
3051.9608530896689444
 20
130.8033342842263096
 30
0.0
 40
0.1549897374713396
 50
94.2517760581507531
 51
103.1066755366100978
  0
ARC
  5
2C3BE
  8
0
 10
3051.9712245394848651
 20
130.8020315467128967
 30
0.0
 40
0.1589132447714567
 50
106.6443995124977988
 51
158.5056461635338962
  0
ARC
  5
2C3BF
  8
0
 10
3052.5429651032977745
 20
130.6270480813535073
 30
0.0
 40
0.7564484648728521
 50
162.0433701394103139
 51
181.9217000971478058
  0
LINE
  5
2C3C0
  8
0
 10
3051.7869420747770164
 20
130.6016815609883963
 30
0.0
 11
3051.9033206264780347
 21
125.6867628920883959
 31
0.0
  0
LINE
  5
2C3C1
  8
0
 10
3051.9493622430641153
 20
130.9578974724884119
 30
0.0
 11
3068.1603963161678621
 21
130.9578974724884119
 31
0.0
  0
ARC
  5
2C3C2
  8
0
 10
3068.0851365337171046
 20
130.3897818169313894
 30
0.0
 40
0.5730789063850354
 50
80.4724374438286532
 51
82.4538146257868334
  0
ARC
  5
2C3C3
  8
0
 10
3068.1522938358612009
 20
130.8288026265261124
 30
0.0
 40
0.1291583838042499
 50
48.0423181933672581
 51
77.6158859665496266
  0
ARC
  5
2C3C4
  8
0
 10
3068.056818471879069
 20
130.7418386398005055
 30
0.0
 40
0.2579818069499467
 50
2.782733001135266
 51
45.1857667160840677
  0
ARC
  5
2C3C5
  8
0
 10
3067.2193870516089191
 20
130.6263617992628099
 30
0.0
 40
1.1025643547049671
 50
358.71736139422012
 51
6.6667518838291757
  0
LINE
  5
2C3C6
  8
0
 10
3068.3216751455770464
 20
130.6016815609883963
 30
0.0
 11
3068.2051965937771456
 21
125.6867628920883959
 31
0.0
  0
LINE
  5
2C3C7
  8
0
 10
3068.1448097912771118
 20
125.6277077739884049
 30
0.0
 11
3068.1448097912771118
 21
125.6867628920883959
 31
0.0
  0
ARC
  5
2C3C8
  8
0
 10
3060.0323196169379116
 20
132.0539335671369088
 30
0.0
 40
7.6588152931951203
 50
281.9313046207130924
 51
302.9587311159322098
  0
ARC
  5
2C3C9
  8
0
 10
3061.6646445639771628
 20
124.3289171209607957
 30
0.0
 40
0.2367761239450693
 50
101.9313046207132061
 51
176.0160107218150927
  0
LINE
  5
2C3CA
  8
0
 10
3061.4284406085771479
 20
124.3453677842883991
 30
0.0
 11
3061.3437422700772004
 21
123.0973604632883962
 31
0.0
  0
ARC
  5
2C3CB
  8
0
 10
3061.1866403890480797
 20
123.1080044650883991
 30
0.0
 40
0.1574620458132863
 50
269.9963854676615824
 51
356.1247206308613045
  0
LINE
  5
2C3CC
  8
0
 10
3061.1866304554769158
 20
122.9505424195884018
 30
0.0
 11
3058.9218867693830362
 21
122.9506852920539046
 31
0.0
  0
ARC
  5
2C3CD
  8
0
 10
3058.92189670543803
 20
123.1081867108426025
 30
0.0
 40
0.1575014191021176
 50
183.9414743635850016
 51
269.9963854676615824
  0
LINE
  5
2C3CE
  8
0
 10
3058.7647678112721223
 20
123.0973604632344944
 30
0.0
 11
3058.7577106755397836
 21
123.1997856038514954
 31
0.0
  0
ARC
  5
2C3CF
  8
0
 10
3058.6396926168640675
 20
123.1916541094358024
 30
0.0
 40
0.1182978587085147
 50
3.9414743635833651
 51
80.3206231074533292
  0
ARC
  5
2C3D0
  8
0
 10
3060.1467826152838825
 20
132.0276425227858965
 30
0.0
 40
8.8452958125929122
 50
230.2437788251419022
 51
260.3206231074532866
  0
ARC
  5
2C3D1
  8
0
 10
3053.9825391590197796
 20
124.6175820879007006
 30
0.0
 40
0.7935263683971313
 50
50.2437788251418667
 51
81.4756539269501019
  0
ARC
  5
2C3D2
  8
0
 10
3001.8195185026502259
 20
-223.4016853681686996
 30
0.0
 40
352.7003197734916853
 50
81.4756539269501019
 51
81.7262964296087375
  0
LINE
  5
2C3D3
  8
0
 10
3051.9637074290781129
 20
125.6277077739884049
 30
0.0
 11
3051.9637074290781129
 21
125.6867628920883959
 31
0.0
  0
LINE
  5
2C3D4
  8
0
 10
3058.6595825570148008
 20
123.3082678893068049
 30
0.0
 11
3058.8938204799319465
 21
123.3082678859883998
 31
0.0
  0
ARC
  5
2C3D5
  8
0
 10
3058.8938204833780219
 20
123.5515580089710994
 30
0.0
 40
0.2432901229826774
 50
269.9999991883053099
 51
304.2340793431122279
  0
ARC
  5
2C3D6
  8
0
 10
3058.2130070839439213
 20
123.5589157376827956
 30
0.0
 40
0.8438456325953954
 50
345.6952433224075776
 51
356.3673742721745725
  0
LINE
  5
2C3D7
  8
0
 10
3059.0551572720628428
 20
123.5054506808417045
 30
0.0
 11
3059.0616506877768188
 21
124.4007327229883941
 31
0.0
  0
ARC
  5
2C3D8
  8
0
 10
3058.9938428831419515
 20
124.299441317292704
 30
0.0
 40
0.1218944064018279
 50
56.2005347621113529
 51
82.0589209368560262
  0
ARC
  5
2C3D9
  8
0
 10
3060.1578940342078567
 20
131.9101545732926013
 30
0.0
 40
7.5773352216618051
 50
236.0074541156832026
 51
261.2919149548733913
  0
ARC
  5
2C3DA
  8
0
 10
3058.872562774484777
 20
123.5700982147828029
 30
0.0
 40
0.8518849248432413
 50
65.5125983394225955
 51
77.1755767826938808
  0
LINE
  5
2C3DB
  8
0
 10
3059.2256632387770878
 20
124.3453581629884042
 30
0.0
 11
3061.4284408254629852
 21
124.3453709803175968
 31
0.0
  0
ENDSEC
  0
EOF
