  0
SECTION
  2
HEADER
  9
$ACADVER
  1
AC1009
  9
$INSBASE
 10
4493.6789660412187004
 20
450.1987781877978136
 30
0.0
  9
$EXTMIN
 10
4485.2550363729433229
 20
447.4492536464442765
 30
-0.0015258207003583
  9
$EXTMAX
 10
4502.085127487542195
 20
455.4769005537581847
 30
0.0000000349246037
  9
$LIMMIN
 10
0.0
 20
0.0
  9
$LIMMAX
 10
11.6929133858000007
 20
8.2677165353999982
  9
$ORTHOMODE
 70
     1
  9
$REGENMODE
 70
     1
  9
$FILLMODE
 70
     1
  9
$QTEXTMODE
 70
     0
  9
$MIRRTEXT
 70
     0
  9
$DRAGMODE
 70
     2
  9
$LTSCALE
 40
0.6431102362
  9
$OSMODE
 70
  4095
  9
$ATTMODE
 70
     1
  9
$TEXTSIZE
 40
0.2
  9
$TRACEWID
 40
0.05
  9
$TEXTSTYLE
  7
STANDARD
  9
$CLAYER
  8
0
  9
$CELTYPE
  6
BYLAYER
  9
$CECOLOR
 62
   256
  9
$DIMSCALE
 40
1.0
  9
$DIMASZ
 40
0.1875
  9
$DIMEXO
 40
0.0625
  9
$DIMDLI
 40
0.4443307087
  9
$DIMRND
 40
0.0
  9
$DIMDLE
 40
0.0
  9
$DIMEXE
 40
0.125
  9
$DIMTP
 40
0.01
  9
$DIMTM
 40
0.01
  9
$DIMTXT
 40
2.0
  9
$DIMCEN
 40
0.1052362205
  9
$DIMTSZ
 40
0.0
  9
$DIMTOL
 70
     1
  9
$DIMLIM
 70
     0
  9
$DIMTIH
 70
     1
  9
$DIMTOH
 70
     1
  9
$DIMSE1
 70
     0
  9
$DIMSE2
 70
     0
  9
$DIMTAD
 70
     0
  9
$DIMZIN
 70
     0
  9
$DIMBLK
  1

  9
$DIMASO
 70
     1
  9
$DIMSHO
 70
     1
  9
$DIMPOST
  1
\X
  9
$DIMAPOST
  1

  9
$DIMALT
 70
     1
  9
$DIMALTD
 70
     2
  9
$DIMALTF
 40
25.3999999999999986
  9
$DIMLFAC
 40
1.0
  9
$DIMTOFL
 70
     0
  9
$DIMTVP
 40
0.0
  9
$DIMTIX
 70
     0
  9
$DIMSOXD
 70
     0
  9
$DIMSAH
 70
     0
  9
$DIMBLK1
  1

  9
$DIMBLK2
  1

  9
$DIMSTYLE
  2
STANDARD
  9
$DIMCLRD
 70
     0
  9
$DIMCLRE
 70
     0
  9
$DIMCLRT
 70
     0
  9
$DIMTFAC
 40
1.0
  9
$DIMGAP
 40
0.09
  9
$LUNITS
 70
     2
  9
$LUPREC
 70
     4
  9
$SKETCHINC
 40
0.1
  9
$FILLETRAD
 40
0.0
  9
$AUNITS
 70
     0
  9
$AUPREC
 70
     0
  9
$MENU
  1
.
  9
$ELEVATION
 40
0.0
  9
$PELEVATION
 40
0.0
  9
$THICKNESS
 40
0.0
  9
$LIMCHECK
 70
     0
  9
$BLIPMODE
 70
     0
  9
$CHAMFERA
 40
0.0
  9
$CHAMFERB
 40
0.0
  9
$SKPOLY
 70
     0
  9
$TDCREATE
 40
2458060.468368056230247
  9
$TDUPDATE
 40
2460536.6236805561929941
  9
$TDINDWG
 40
1.2294052083
  9
$TDUSRTIMER
 40
1.2294052083
  9
$USRTIMER
 70
     1
  9
$ANGBASE
 50
0.0
  9
$ANGDIR
 70
     0
  9
$PDMODE
 70
     0
  9
$PDSIZE
 40
0.3125
  9
$PLINEWID
 40
0.0
  9
$COORDS
 70
     1
  9
$SPLFRAME
 70
     0
  9
$SPLINETYPE
 70
     6
  9
$SPLINESEGS
 70
     8
  9
$ATTDIA
 70
     1
  9
$ATTREQ
 70
     1
  9
$HANDLING
 70
     1
  9
$HANDSEED
  5
17D34
  9
$SURFTAB1
 70
     6
  9
$SURFTAB2
 70
     6
  9
$SURFTYPE
 70
     6
  9
$SURFU
 70
     6
  9
$SURFV
 70
     6
  9
$UCSNAME
  2

  9
$UCSORG
 10
0.0
 20
0.0
 30
0.0
  9
$UCSXDIR
 10
1.0
 20
0.0
 30
0.0
  9
$UCSYDIR
 10
0.0
 20
1.0
 30
0.0
  9
$PUCSNAME
  2

  9
$PUCSORG
 10
0.0
 20
0.0
 30
0.0
  9
$PUCSXDIR
 10
1.0
 20
0.0
 30
0.0
  9
$PUCSYDIR
 10
0.0
 20
1.0
 30
0.0
  9
$USERI1
 70
     0
  9
$USERI2
 70
     0
  9
$USERI3
 70
     0
  9
$USERI4
 70
     0
  9
$USERI5
 70
     0
  9
$USERR1
 40
0.0
  9
$USERR2
 40
0.0
  9
$USERR3
 40
0.0
  9
$USERR4
 40
0.0
  9
$USERR5
 40
0.0
  9
$WORLDVIEW
 70
     1
  9
$SHADEDGE
 70
     3
  9
$SHADEDIF
 70
    70
  9
$TILEMODE
 70
     1
  9
$MAXACTVP
 70
    64
  9
$PLIMCHECK
 70
     0
  9
$PEXTMIN
 10
1.0000000000000000E+20
 20
1.0000000000000000E+20
 30
1.0000000000000000E+20
  9
$PEXTMAX
 10
-1.0000000000000000E+20
 20
-1.0000000000000000E+20
 30
-1.0000000000000000E+20
  9
$PLIMMIN
 10
0.0
 20
0.0
  9
$PLIMMAX
 10
12.0
 20
9.0
  9
$UNITMODE
 70
     0
  9
$VISRETAIN
 70
     1
  9
$PLINEGEN
 70
     0
  9
$PSLTSCALE
 70
     1
  0
ENDSEC
  0
SECTION
  2
TABLES
  0
TABLE
  2
VPORT
 70
     1
  0
VPORT
  2
*ACTIVE
 70
     0
 10
0.0
 20
0.0
 11
1.0
 21
1.0
 12
582.3047254849296905
 22
318.8834719975621965
 13
0.0
 23
0.0
 14
1.0
 24
1.0
 15
0.0
 25
0.0
 16
0.0
 26
0.0
 36
60.4960186965801583
 17
3911.3653564453120453
 27
132.5796051025390057
 37
0.0
 40
8.0829464267673075
 41
2.1827586206896541
 42
50.0
 43
0.0
 44
0.0
 50
0.0
 51
0.0
 71
     0
 72
   100
 73
     1
 74
     1
 75
     0
 76
     0
 77
     0
 78
     0
  0
ENDTAB
  0
TABLE
  2
LTYPE
 70
     2
  0
LTYPE
  2
CONTINUOUS
 70
     0
  3
Solid line
 72
    65
 73
     0
 40
0.0
  0
LTYPE
  2
PHANTOM2
 70
     0
  3
___ _ _ ___ _ _ ___ _ _ ___ _ _
 72
    65
 73
     6
 40
1.25
 49
0.625
 49
-0.125
 49
0.125
 49
-0.125
 49
0.125
 49
-0.125
  0
ENDTAB
  0
TABLE
  2
LAYER
 70
     2
  0
LAYER
  2
0
 70
     0
 62
   255
  6
CONTINUOUS
  0
LAYER
  2
DEFPOINTS
 70
     0
 62
     7
  6
CONTINUOUS
  0
ENDTAB
  0
TABLE
  2
STYLE
 70
     1
  0
STYLE
  2
STANDARD
 70
     0
 40
0.0
 41
0.8
 50
0.0
 71
     0
 42
0.2
  3
txt
  4

  0
ENDTAB
  0
TABLE
  2
VIEW
 70
     0
  0
ENDTAB
  0
TABLE
  2
UCS
 70
     0
  0
ENDTAB
  0
TABLE
  2
APPID
 70
    11
  0
APPID
  2
ACAD
 70
     0
  0
APPID
  2
ACAD_MLEADERVER
 70
     0
  0
APPID
  2
ACAD_EXEMPT_FROM_CAD_STANDARDS
 70
     0
  0
APPID
  2
ACAD_NAV_VCDISPLAY
 70
     0
  0
APPID
  2
ACAECLAYERSTANDARD
 70
     0
  0
APPID
  2
ACCMTRANSPARENCY
 70
     0
  0
APPID
  2
ACAD_DSTYLE_DIMJAG
 70
     0
  0
APPID
  2
ACAD_DSTYLE_DIMTALN
 70
     0
  0
APPID
  2
ACDBATTR
 70
     0
  0
APPID
  2
ACADANNOTATIVE
 70
     0
  0
APPID
  2
DCO15
 70
     0
  0
ENDTAB
  0
TABLE
  2
DIMSTYLE
 70
     1
  0
DIMSTYLE
  2
STANDARD
 70
     0
  3

  4

  5

  6

  7

 40
1.0
 41
0.1875
 42
0.0625
 43
0.38
 44
0.125
 45
0.0
 46
0.0
 47
0.01
 48
0.01
140
0.15625
141
0.09
142
0.0
143
25.3999999999999986
144
1.0
145
0.0
146
1.0
147
0.09
 71
     1
 72
     0
 73
     1
 74
     1
 75
     0
 76
     0
 77
     0
 78
     4
170
     0
171
     2
172
     0
173
     0
174
     0
175
     0
176
     0
177
     0
178
     0
  0
ENDTAB
  0
ENDSEC
  0
SECTION
  2
BLOCKS
  0
BLOCK
  8
0
  2
$MODEL_SPACE
 70
     0
 10
0.0
 20
0.0
 30
0.0
  3
$MODEL_SPACE
  1

  0
ENDBLK
  5
21
  8
0
  0
BLOCK
 67
     1
  8
0
  2
$PAPER_SPACE
 70
     0
 10
0.0
 20
0.0
 30
0.0
  3
$PAPER_SPACE
  1

  0
ENDBLK
  5
1D
 67
     1
  8
0
  0
ENDSEC
  0
SECTION
  2
ENTITIES
  0
ATTDEF
  5
159BF
  8
DEFPOINTS
 10
4493.6789739063142406
 20
450.2021136738130735
 30
0.0
 40
0.001
  1
K-14800X
  3

  2
MODELNUMBER
 70
     0
1001
ACDBATTR
1070
     0
1070
     1
  0
ATTDEF
  5
159C0
  8
DEFPOINTS
 10
4493.6789739063142406
 20
450.2004468334338867
 30
0.0
 40
0.001
  1
VOX
  3

  2
TRADENAME
 70
     0
1001
ACDBATTR
1070
     0
1070
     1
  0
ATTDEF
  5
159C1
  8
DEFPOINTS
 10
4493.6789739063142406
 20
450.1987803404798001
 30
0.0
 40
0.001
  1
BATHROOM SINK
  3

  2
PRODUCT
 70
     0
1001
ACDBATTR
1070
     0
1070
     1
  0
LINE
  5
17B34
  8
0
 10
4501.7777589908682785
 20
455.4699127681976734
 30
0.0
 11
4485.5801730915691223
 21
455.4699127681976734
 31
0.0
  0
LINE
  5
17B35
  8
0
 10
4485.5279574398691693
 20
450.1987781877978136
 30
0.0
 11
4501.829974642569141
 21
450.1987781877978136
 31
0.0
  0
LINE
  5
17B36
  8
0
 10
4492.5465941957827454
 20
447.4625577153976792
 30
0.0
 11
4494.8113378866555649
 21
447.4625577153976792
 31
0.0
  0
ARC
  5
17B37
  8
0
 10
4485.5873373958720549
 20
455.3214829411256233
 30
0.0
 40
0.1486026272338546
 50
92.7633669050456007
 51
159.959941199997786
  0
ARC
  5
17B38
  8
0
 10
4486.1730494806633942
 20
455.1260145088476179
 30
0.0
 40
0.7660246684523675
 50
161.23731538125989
 51
171.7305660231737079
  0
ARC
  5
17B39
  8
0
 10
4487.3478924532419114
 20
455.115872003759705
 30
0.0
 40
1.9366441689844871
 50
176.4380725262267902
 51
180.0643519210547936
  0
LINE
  5
17B3A
  8
0
 10
4485.4112495057679553
 20
455.1136968566976861
 30
0.0
 11
4485.5279574398691693
 21
450.1987781877978136
 31
0.0
  0
ARC
  5
17B3B
  8
0
 10
4501.7705946865680744
 20
455.3214829411256233
 30
0.0
 40
0.1486026272338546
 50
20.0400588000021891
 51
87.2366330949543993
  0
ARC
  5
17B3C
  8
0
 10
4500.5689097225931619
 20
454.9779498913753741
 30
0.0
 40
1.3980896656948829
 50
10.6442041350366701
 51
16.3879144606203511
  0
ARC
  5
17B3D
  8
0
 10
4500.0100396291963989
 20
455.115872003759705
 30
0.0
 40
1.9366441689844871
 50
359.9356480789451211
 51
3.5619274737731512
  0
LINE
  5
17B3E
  8
0
 10
4501.9466825766694456
 20
455.1136968566976861
 30
0.0
 11
4501.829974642569141
 21
450.1987781877978136
 31
0.0
  0
LINE
  5
17B3F
  8
0
 10
4485.5884148601689958
 20
450.139723069697709
 30
0.0
 11
4501.7695172223702684
 21
450.139723069697709
 31
0.0
  0
LINE
  5
17B40
  8
0
 10
4485.5884148601689958
 20
450.1987781877978136
 30
0.0
 11
4485.5884148601689958
 21
450.139723069697709
 31
0.0
  0
LINE
  5
17B41
  8
0
 10
4501.7695172223702684
 20
450.1987781877978136
 30
0.0
 11
4501.7695172223702684
 21
450.139723069697709
 31
0.0
  0
ARC
  5
17B42
  8
0
 10
4493.6825677440438085
 20
456.520543342638689
 30
0.0
 40
7.6106044839246421
 50
236.9727831002288099
 51
258.1330938426174839
  0
ARC
  5
17B43
  8
0
 10
4492.0691056123869203
 20
448.8413896730921238
 30
0.0
 40
0.2362204724661531
 50
3.882204844423204
 51
78.1704797563722877
  0
LINE
  5
17B44
  8
0
 10
4492.3047840427689152
 20
448.8573830799977031
 30
0.0
 11
4492.3894752423693717
 21
447.6093757589977145
 31
0.0
  0
ARC
  5
17B45
  8
0
 10
4492.5465941957827454
 20
447.6200380301951895
 30
0.0
 40
0.1574803147974765
 50
183.8822048222573073
 51
270.0000000680038283
  0
ARC
  5
17B46
  8
0
 10
4493.2189924163867545
 20
450.337257037583413
 30
0.0
 40
1.0283056996151121
 50
191.0751612766779033
 51
193.8068364044000873
  0
ARC
  5
17B47
  8
0
 10
4491.966069678119311
 20
450.0367894806219056
 30
0.0
 40
0.2602215088681984
 50
11.0172934613186602
 51
12.2161823891720402
  0
ARC
  5
17B48
  8
0
 10
4487.964098997768815
 20
449.3604641306063741
 30
0.0
 40
4.318863073530359
 50
7.0510522292050508
 51
9.6780963789568482
  0
ARC
  5
17B49
  8
0
 10
4508.0689993259338735
 20
451.9112214989982022
 30
0.0
 40
15.9472286298667392
 50
187.2792549194354024
 51
191.1391291187580066
  0
ARC
  5
17B4A
  8
0
 10
4497.740867925062048
 20
449.9071170166362208
 30
0.0
 40
5.4265695423564573
 50
191.4449444685396884
 51
196.7562080440054899
  0
ARC
  5
17B4B
  8
0
 10
4494.2053976219021934
 20
448.8123115615425149
 30
0.0
 40
1.725826826423013
 50
195.7919299399530928
 51
209.5888978965743945
  0
ARC
  5
17B4C
  8
0
 10
4493.1491071232858303
 20
448.2212679696713735
 30
0.0
 40
0.5155009810918845
 50
210.4338769303963943
 51
224.1139633149738017
  0
ARC
  5
17B4D
  8
0
 10
4492.8946030866618457
 20
447.9988209311787273
 30
0.0
 40
0.1787890303223537
 50
229.7149495615664989
 51
266.9619300926477194
  0
LINE
  5
17B4E
  8
0
 10
4492.8851273611562647
 20
447.8202831816976754
 30
0.0
 11
4494.4728047212820456
 21
447.8202831816976754
 31
0.0
  0
LINE
  5
17B4F
  8
0
 10
4492.3047840427689152
 20
448.8573830799977031
 30
0.0
 11
4492.4169013233058649
 21
448.8573830799977031
 31
0.0
  0
LINE
  5
17B50
  8
0
 10
4494.9410307591333549
 20
448.8573830799977031
 30
0.0
 11
4495.0531480396693951
 21
448.8573830799977031
 31
0.0
  0
ARC
  5
17B51
  8
0
 10
4493.6753643383954113
 20
456.520543342638689
 30
0.0
 40
7.6106044839246421
 50
281.8669061573825161
 51
303.0272168997711901
  0
ARC
  5
17B52
  8
0
 10
4495.2888264700522996
 20
448.8413896730921238
 30
0.0
 40
0.2362204724661531
 50
101.8295202436276981
 51
176.1177951555768004
  0
LINE
  5
17B53
  8
0
 10
4495.0531480396693951
 20
448.8573830799977031
 30
0.0
 11
4494.9684568400680291
 21
447.6093757589977145
 31
0.0
  0
ARC
  5
17B54
  8
0
 10
4494.8113378866555649
 20
447.6200380301951895
 30
0.0
 40
0.1574803147974765
 50
269.9999999319961717
 51
356.1177951777426074
  0
ARC
  5
17B55
  8
0
 10
4494.1389396660497368
 20
450.337257037583413
 30
0.0
 40
1.0283056996151121
 50
346.1931635955999127
 51
348.9248387233220114
  0
ARC
  5
17B56
  8
0
 10
4495.3918624043189993
 20
450.0367894806219056
 30
0.0
 40
0.2602215088681984
 50
167.7838176108280095
 51
168.982706538681299
  0
ARC
  5
17B57
  8
0
 10
4499.3938330846685858
 20
449.3604641306063741
 30
0.0
 40
4.318863073530359
 50
170.3219036210431057
 51
172.9489477707948879
  0
ARC
  5
17B58
  8
0
 10
4479.2889327565044368
 20
451.9112214989982022
 30
0.0
 40
15.9472286298667392
 50
348.8608708812420218
 51
352.7207450805645976
  0
ARC
  5
17B59
  8
0
 10
4489.6170641573753528
 20
449.9071170166362208
 30
0.0
 40
5.4265695423564573
 50
343.2437919559944248
 51
348.5550555314603116
  0
ARC
  5
17B5A
  8
0
 10
4493.152534460536117
 20
448.8123115615425149
 30
0.0
 40
1.725826826423013
 50
330.4111021034254918
 51
344.2080700600469072
  0
ARC
  5
17B5B
  8
0
 10
4494.208824959150661
 20
448.2212679696713735
 30
0.0
 40
0.5155009810918845
 50
315.8860366850262267
 51
329.5661230696035773
  0
ARC
  5
17B5C
  8
0
 10
4494.4633289957755551
 20
447.9988209311787273
 30
0.0
 40
0.1787890303223496
 50
273.0380699073522806
 51
310.2850504384334727
  0
ENDSEC
  0
EOF
