  0
SECTION
  2
HEADER
  9
$ACADVER
  1
AC1009
  9
$INSBASE
 10
4670.5049610707956163
 20
284.580568027271795
 30
0.0
  9
$EXTMIN
 10
4654.5289363493184283
 20
280.4609259601176063
 30
-0.0000000349181948
  9
$EXTMAX
 10
4686.4539708172706014
 20
287.1403395386241755
 30
0.0000000814935746
  9
$LIMMIN
 10
0.0
 20
0.0
  9
$LIMMAX
 10
11.6929133858000007
 20
8.2677165353999982
  9
$ORTHOMODE
 70
     0
  9
$REGENMODE
 70
     1
  9
$FILLMODE
 70
     1
  9
$QTEXTMODE
 70
     0
  9
$MIRRTEXT
 70
     0
  9
$DRAGMODE
 70
     2
  9
$LTSCALE
 40
0.6431102362
  9
$OSMODE
 70
  4095
  9
$ATTMODE
 70
     1
  9
$TEXTSIZE
 40
0.2
  9
$TRACEWID
 40
0.05
  9
$TEXTSTYLE
  7
STANDARD
  9
$CLAYER
  8
0
  9
$CELTYPE
  6
BYLAYER
  9
$CECOLOR
 62
   256
  9
$DIMSCALE
 40
1.0
  9
$DIMASZ
 40
0.1875
  9
$DIMEXO
 40
0.0625
  9
$DIMDLI
 40
0.4443307087
  9
$DIMRND
 40
0.0
  9
$DIMDLE
 40
0.0
  9
$DIMEXE
 40
0.125
  9
$DIMTP
 40
0.01
  9
$DIMTM
 40
0.01
  9
$DIMTXT
 40
2.0
  9
$DIMCEN
 40
0.1052362205
  9
$DIMTSZ
 40
0.0
  9
$DIMTOL
 70
     1
  9
$DIMLIM
 70
     0
  9
$DIMTIH
 70
     1
  9
$DIMTOH
 70
     1
  9
$DIMSE1
 70
     0
  9
$DIMSE2
 70
     0
  9
$DIMTAD
 70
     0
  9
$DIMZIN
 70
     0
  9
$DIMBLK
  1

  9
$DIMASO
 70
     1
  9
$DIMSHO
 70
     1
  9
$DIMPOST
  1
\X
  9
$DIMAPOST
  1

  9
$DIMALT
 70
     1
  9
$DIMALTD
 70
     2
  9
$DIMALTF
 40
25.3999999999999986
  9
$DIMLFAC
 40
1.0
  9
$DIMTOFL
 70
     0
  9
$DIMTVP
 40
0.0
  9
$DIMTIX
 70
     0
  9
$DIMSOXD
 70
     0
  9
$DIMSAH
 70
     0
  9
$DIMBLK1
  1

  9
$DIMBLK2
  1

  9
$DIMSTYLE
  2
STANDARD
  9
$DIMCLRD
 70
     0
  9
$DIMCLRE
 70
     0
  9
$DIMCLRT
 70
     0
  9
$DIMTFAC
 40
1.0
  9
$DIMGAP
 40
0.09
  9
$LUNITS
 70
     2
  9
$LUPREC
 70
     4
  9
$SKETCHINC
 40
0.1
  9
$FILLETRAD
 40
0.0
  9
$AUNITS
 70
     0
  9
$AUPREC
 70
     0
  9
$MENU
  1
.
  9
$ELEVATION
 40
0.0
  9
$PELEVATION
 40
0.0
  9
$THICKNESS
 40
0.0
  9
$LIMCHECK
 70
     0
  9
$BLIPMODE
 70
     0
  9
$CHAMFERA
 40
0.0
  9
$CHAMFERB
 40
0.0
  9
$SKPOLY
 70
     0
  9
$TDCREATE
 40
2458060.468368056230247
  9
$TDUPDATE
 40
2459434.6473726858384907
  9
$TDINDWG
 40
0.5522292824
  9
$TDUSRTIMER
 40
0.5522292824
  9
$USRTIMER
 70
     1
  9
$ANGBASE
 50
0.0
  9
$ANGDIR
 70
     0
  9
$PDMODE
 70
     0
  9
$PDSIZE
 40
0.3125
  9
$PLINEWID
 40
0.0
  9
$COORDS
 70
     1
  9
$SPLFRAME
 70
     0
  9
$SPLINETYPE
 70
     6
  9
$SPLINESEGS
 70
     8
  9
$ATTDIA
 70
     1
  9
$ATTREQ
 70
     1
  9
$HANDLING
 70
     1
  9
$HANDSEED
  5
211AA
  9
$SURFTAB1
 70
     6
  9
$SURFTAB2
 70
     6
  9
$SURFTYPE
 70
     6
  9
$SURFU
 70
     6
  9
$SURFV
 70
     6
  9
$UCSNAME
  2

  9
$UCSORG
 10
0.0
 20
0.0
 30
0.0
  9
$UCSXDIR
 10
1.0
 20
0.0
 30
0.0
  9
$UCSYDIR
 10
0.0
 20
1.0
 30
0.0
  9
$PUCSNAME
  2

  9
$PUCSORG
 10
0.0
 20
0.0
 30
0.0
  9
$PUCSXDIR
 10
1.0
 20
0.0
 30
0.0
  9
$PUCSYDIR
 10
0.0
 20
1.0
 30
0.0
  9
$USERI1
 70
     0
  9
$USERI2
 70
     0
  9
$USERI3
 70
     0
  9
$USERI4
 70
     0
  9
$USERI5
 70
     0
  9
$USERR1
 40
0.0
  9
$USERR2
 40
0.0
  9
$USERR3
 40
0.0
  9
$USERR4
 40
0.0
  9
$USERR5
 40
0.0
  9
$WORLDVIEW
 70
     1
  9
$SHADEDGE
 70
     3
  9
$SHADEDIF
 70
    70
  9
$TILEMODE
 70
     1
  9
$MAXACTVP
 70
    64
  9
$PLIMCHECK
 70
     0
  9
$PEXTMIN
 10
1.0000000000000000E+20
 20
1.0000000000000000E+20
 30
1.0000000000000000E+20
  9
$PEXTMAX
 10
-1.0000000000000000E+20
 20
-1.0000000000000000E+20
 30
-1.0000000000000000E+20
  9
$PLIMMIN
 10
0.0
 20
0.0
  9
$PLIMMAX
 10
12.0
 20
9.0
  9
$UNITMODE
 70
     0
  9
$VISRETAIN
 70
     1
  9
$PLINEGEN
 70
     0
  9
$PSLTSCALE
 70
     1
  0
ENDSEC
  0
SECTION
  2
TABLES
  0
TABLE
  2
VPORT
 70
     1
  0
VPORT
  2
*ACTIVE
 70
     0
 10
0.0
 20
0.0
 11
1.0
 21
1.0
 12
759.1260971379814464
 22
151.2210276468318
 13
0.0
 23
0.0
 14
1.0
 24
1.0
 15
0.0
 25
0.0
 16
0.0
 26
0.0
 36
60.4960186965801583
 17
3911.3653564453120453
 27
132.5796051025390057
 37
0.0
 40
15.7056876358918807
 41
2.0410052910052912
 42
50.0
 43
0.0
 44
0.0
 50
0.0
 51
0.0
 71
     0
 72
   100
 73
     1
 74
     1
 75
     0
 76
     0
 77
     0
 78
     0
  0
ENDTAB
  0
TABLE
  2
LTYPE
 70
     2
  0
LTYPE
  2
CONTINUOUS
 70
     0
  3
Solid line
 72
    65
 73
     0
 40
0.0
  0
LTYPE
  2
PHANTOM2
 70
     0
  3
___ _ _ ___ _ _ ___ _ _ ___ _ _
 72
    65
 73
     6
 40
1.25
 49
0.625
 49
-0.125
 49
0.125
 49
-0.125
 49
0.125
 49
-0.125
  0
ENDTAB
  0
TABLE
  2
LAYER
 70
     2
  0
LAYER
  2
0
 70
     0
 62
   255
  6
CONTINUOUS
  0
LAYER
  2
DEFPOINTS
 70
     0
 62
     7
  6
CONTINUOUS
  0
ENDTAB
  0
TABLE
  2
STYLE
 70
     1
  0
STYLE
  2
STANDARD
 70
     0
 40
0.0
 41
0.8
 50
0.0
 71
     0
 42
0.2
  3
txt
  4

  0
ENDTAB
  0
TABLE
  2
VIEW
 70
     0
  0
ENDTAB
  0
TABLE
  2
UCS
 70
     0
  0
ENDTAB
  0
TABLE
  2
APPID
 70
    11
  0
APPID
  2
ACAD
 70
     0
  0
APPID
  2
ACAD_MLEADERVER
 70
     0
  0
APPID
  2
ACAD_EXEMPT_FROM_CAD_STANDARDS
 70
     0
  0
APPID
  2
ACAD_NAV_VCDISPLAY
 70
     0
  0
APPID
  2
ACAECLAYERSTANDARD
 70
     0
  0
APPID
  2
ACCMTRANSPARENCY
 70
     0
  0
APPID
  2
ACAD_DSTYLE_DIMJAG
 70
     0
  0
APPID
  2
ACAD_DSTYLE_DIMTALN
 70
     0
  0
APPID
  2
ACDBATTR
 70
     0
  0
APPID
  2
ACADANNOTATIVE
 70
     0
  0
APPID
  2
DCO15
 70
     0
  0
ENDTAB
  0
TABLE
  2
DIMSTYLE
 70
     1
  0
DIMSTYLE
  2
STANDARD
 70
     0
  3

  4

  5

  6

  7

 40
1.0
 41
0.1875
 42
0.0625
 43
0.38
 44
0.125
 45
0.0
 46
0.0
 47
0.01
 48
0.01
140
0.15625
141
0.09
142
0.0
143
25.3999999999999986
144
1.0
145
0.0
146
1.0
147
0.09
 71
     1
 72
     0
 73
     1
 74
     1
 75
     0
 76
     0
 77
     0
 78
     4
170
     0
171
     2
172
     0
173
     0
174
     0
175
     0
176
     0
177
     0
178
     0
  0
ENDTAB
  0
ENDSEC
  0
SECTION
  2
BLOCKS
  0
BLOCK
  8
0
  2
$MODEL_SPACE
 70
     0
 10
0.0
 20
0.0
 30
0.0
  3
$MODEL_SPACE
  1

  0
ENDBLK
  5
21
  8
0
  0
BLOCK
 67
     1
  8
0
  2
$PAPER_SPACE
 70
     0
 10
0.0
 20
0.0
 30
0.0
  3
$PAPER_SPACE
  1

  0
ENDBLK
  5
1D
 67
     1
  8
0
  0
ENDSEC
  0
SECTION
  2
ENTITIES
  0
ATTDEF
  5
20106
  8
DEFPOINTS
 10
4670.501172315113763
 20
284.5855240839204043
 30
0.0
 40
0.001
  1
K-15095T-1
  3

  2
MODELNUMBER
 70
     0
1001
ACDBATTR
1070
     0
1070
     1
  0
ATTDEF
  5
20107
  8
DEFPOINTS
 10
4670.5010465054574524
 20
284.5838572435412743
 30
0.0
 40
0.001
  1
URBANITY
  3

  2
TRADENAME
 70
     0
1001
ACDBATTR
1070
     0
1070
     1
  0
ATTDEF
  5
20108
  8
DEFPOINTS
 10
4670.501172315113763
 20
284.582190750587074
 30
0.0
 40
0.001
  1
BATHROOM SINK
  3

  2
PRODUCT
 70
     0
1001
ACDBATTR
1070
     0
1070
     1
  0
LINE
  5
210FF
  8
0
 10
4654.9311008191571091
 20
287.139671835758918
 30
0.0
 11
4686.0788213224359424
 21
287.139671835758918
 31
0.0
  0
LINE
  5
21100
  8
0
 10
4669.3875285424674075
 20
280.469337561858822
 30
0.0
 11
4671.6223935991247345
 21
280.469337561858822
 31
0.0
  0
ARC
  5
21101
  8
0
 10
4668.7018095702178471
 20
281.7062413496307158
 30
0.0
 40
0.3553495462076414
 50
7.6188224459678446
 51
62.5083719834376765
  0
ARC
  5
21102
  8
0
 10
4723.5490237874846571
 20
285.9837550379029949
 30
0.0
 40
54.6589562540605911
 50
184.4389202878774938
 51
185.5631425921818902
  0
ARC
  5
21103
  8
0
 10
4669.3851815645693932
 20
280.708119322394225
 30
0.0
 40
0.2387932944402447
 50
185.5631425921818902
 51
270.5631401568065826
  0
ARC
  5
21104
  8
0
 10
4676.1429625626806228
 20
282.6495199754309056
 30
0.0
 40
7.2096628501721156
 50
185.6359701508706053
 51
192.8314134514739067
  0
LINE
  5
21105
  8
0
 10
4656.9433545105457597
 20
282.2453754434018265
 30
0.0
 11
4656.769438502947196
 21
285.5646748172587763
 31
0.0
  0
ARC
  5
21106
  8
0
 10
4657.1819016592853586
 20
282.4685613190176809
 30
0.0
 40
0.2503007937741891
 50
186.2490961160293921
 51
268.8137484241748894
  0
ARC
  5
21107
  8
0
 10
4655.1224193031548566
 20
285.7149384710874074
 30
0.0
 40
0.150263688008499
 50
186.1676522879801894
 51
272.8970748120999019
  0
LINE
  5
21108
  8
0
 10
4654.9730253745492519
 20
285.6987944310034209
 30
0.0
 11
4654.7827603638252185
 21
286.9672287695379964
 31
0.0
  0
ARC
  5
21109
  8
0
 10
4654.931393232703158
 20
286.9893954099521807
 30
0.0
 40
0.1502767103010154
 50
90.1114881519337843
 51
188.4823938517513966
  0
ARC
  5
2110A
  8
0
 10
4657.5994413937023637
 20
279.8729473417457143
 30
0.0
 40
5.6938804033314696
 50
58.4952206536312787
 51
91.503749165929591
  0
ARC
  5
2110B
  8
0
 10
4665.3565421904140749
 20
292.1186824516103115
 30
0.0
 40
8.8030291066665161
 50
237.0994495487358051
 51
264.6614934657134768
  0
ARC
  5
2110C
  8
0
 10
4674.8170537015603259
 20
571.5515554468236132
 30
0.0
 40
288.3809870423506823
 50
267.9572188656194953
 51
269.1432378439885724
  0
ARC
  5
2110D
  8
0
 10
4683.4104807478915973
 20
279.8729473417457143
 30
0.0
 40
5.6938804033314696
 50
91.503749165929591
 51
121.5047793463686929
  0
ARC
  5
2110E
  8
0
 10
4675.6533799511798861
 20
292.1186824516103115
 30
0.0
 40
8.8030291066665161
 50
275.3385065342865232
 51
302.9005504512642233
  0
ARC
  5
2110F
  8
0
 10
4668.4542383676871395
 20
482.2000358481706144
 30
0.0
 40
199.0077931495090979
 50
270.5904283121283243
 51
272.3091149782399043
  0
LINE
  5
21111
  8
0
 10
4657.1767198029356223
 20
282.2183141697257724
 30
0.0
 11
4683.8332023386583387
 21
282.2183141697257724
 31
0.0
  0
ARC
  5
21112
  8
0
 10
4672.2969655438637346
 20
281.7110637463704279
 30
0.0
 40
0.3436774234098229
 50
115.4215523034393982
 51
172.9316633336738107
  0
ARC
  5
21113
  8
0
 10
4617.4608983541083944
 20
285.9837550379029949
 30
0.0
 40
54.6589562540605911
 50
354.4368574078180814
 51
355.5610797121225914
  0
ARC
  5
21114
  8
0
 10
4671.6247405770245678
 20
280.708119322394225
 30
0.0
 40
0.2387932944402447
 50
269.4368598431934174
 51
354.4368574078180814
  0
ARC
  5
21115
  8
0
 10
4664.8669595789124287
 20
282.6495199754309056
 30
0.0
 40
7.2096628501721156
 50
347.1685865485260933
 51
354.3620829025256853
  0
ARC
  5
21116
  8
0
 10
4657.1793300497438395
 20
282.257663167537487
 30
0.0
 40
0.2362952459617994
 50
182.9808150427961095
 51
271.6358057800562165
  0
ARC
  5
21117
  8
0
 10
4659.621255907345585
 20
287.9268795416588773
 30
0.0
 40
5.905511811000089
 50
269.672473543935098
 51
284.8320221283241835
  0
ARC
  5
21118
  8
0
 10
4669.5867822037444057
 20
292.2736981147651818
 30
0.0
 40
10.2775507461850193
 50
258.0677151200096091
 51
265.9775853109322838
  0
ARC
  5
21119
  8
0
 10
4671.3204473809246338
 20
292.9839951956196273
 30
0.0
 40
10.9938302390177807
 50
274.324473664158802
 51
281.6905457037012184
  0
LINE
  5
2111A
  8
0
 10
4657.1860754090557748
 20
282.0214642187847858
 30
0.0
 11
4659.587497734633871
 21
282.0214642187847858
 31
0.0
  0
LINE
  5
2111B
  8
0
 10
4681.4224244069591805
 20
282.0214642187847858
 30
0.0
 11
4683.8238467325345482
 21
282.0214642187847858
 31
0.0
  0
LINE
  5
2111C
  8
0
 10
4657.7488622594119079
 20
285.5648668292587899
 30
0.0
 11
4655.1300139231461799
 21
285.5648668292587899
 31
0.0
  0
LINE
  5
2111D
  8
0
 10
4684.0665676310482013
 20
282.2453754434018265
 30
0.0
 11
4684.240483638646765
 21
285.5646748172587763
 31
0.0
  0
ARC
  5
2111E
  8
0
 10
4683.8276401829716633
 20
282.4689768001454127
 30
0.0
 40
0.250724334408901
 50
271.2711737474293159
 51
353.6659817128058876
  0
ARC
  5
2111F
  8
0
 10
4683.8305920918501215
 20
282.257663167537487
 30
0.0
 40
0.2362952459617994
 50
268.3641942194224725
 51
357.0191849572037768
  0
ARC
  5
21120
  8
0
 10
4681.388666234246557
 20
287.9268795416588773
 30
0.0
 40
5.905511811000089
 50
255.167977871675788
 51
270.327526456064902
  0
ARC
  5
21121
  8
0
 10
4685.8875028384381949
 20
285.7149384710874074
 30
0.0
 40
0.150263688008499
 50
267.1029251864392791
 51
353.8323477120197253
  0
LINE
  5
21122
  8
0
 10
4686.0368967670447091
 20
285.6987944310034209
 30
0.0
 11
4686.227161777769652
 21
286.9672287695379964
 31
0.0
  0
ARC
  5
21123
  8
0
 10
4686.078528908888984
 20
286.9893954099521807
 30
0.0
 40
0.1502767103010132
 50
351.5176061482486034
 51
89.8885118480662015
  0
LINE
  5
21124
  8
0
 10
4683.2610598821820531
 20
285.5648668292587899
 30
0.0
 11
4685.8799082184432336
 21
285.5648668292587899
 31
0.0
  0
LINE
  5
21125
  8
0
 10
4672.1494334521466953
 20
282.0214642187847858
 30
0.0
 11
4668.8658456721959737
 21
282.0214642187847858
 31
0.0
  0
ENDSEC
  0
EOF
