  0
SECTION
  2
HEADER
  9
$ACADVER
  1
AC1009
  9
$INSBASE
 10
4412.3503596502323489
 20
138.8979658764127976
 30
0.0
  9
$EXTMIN
 10
4404.8609339652757626
 20
138.8892973874789902
 30
-0.0000000000112498
  9
$EXTMAX
 10
4419.9362023859075634
 20
169.3909008040396884
 30
0.0000000000002956
  9
$LIMMIN
 10
0.0
 20
0.0
  9
$LIMMAX
 10
11.6929133858000007
 20
8.2677165353999982
  9
$ORTHOMODE
 70
     0
  9
$REGENMODE
 70
     1
  9
$FILLMODE
 70
     1
  9
$QTEXTMODE
 70
     0
  9
$MIRRTEXT
 70
     0
  9
$DRAGMODE
 70
     2
  9
$LTSCALE
 40
0.6431102362
  9
$OSMODE
 70
  4095
  9
$ATTMODE
 70
     1
  9
$TEXTSIZE
 40
0.2
  9
$TRACEWID
 40
0.05
  9
$TEXTSTYLE
  7
STANDARD
  9
$CLAYER
  8
0
  9
$CELTYPE
  6
BYLAYER
  9
$CECOLOR
 62
   256
  9
$DIMSCALE
 40
1.0
  9
$DIMASZ
 40
0.1875
  9
$DIMEXO
 40
0.0625
  9
$DIMDLI
 40
0.4443307087
  9
$DIMRND
 40
0.0
  9
$DIMDLE
 40
0.0
  9
$DIMEXE
 40
0.125
  9
$DIMTP
 40
0.01
  9
$DIMTM
 40
0.01
  9
$DIMTXT
 40
2.0
  9
$DIMCEN
 40
0.1052362205
  9
$DIMTSZ
 40
0.0
  9
$DIMTOL
 70
     1
  9
$DIMLIM
 70
     0
  9
$DIMTIH
 70
     1
  9
$DIMTOH
 70
     1
  9
$DIMSE1
 70
     0
  9
$DIMSE2
 70
     0
  9
$DIMTAD
 70
     0
  9
$DIMZIN
 70
     0
  9
$DIMBLK
  1

  9
$DIMASO
 70
     1
  9
$DIMSHO
 70
     1
  9
$DIMPOST
  1
\X
  9
$DIMAPOST
  1

  9
$DIMALT
 70
     1
  9
$DIMALTD
 70
     2
  9
$DIMALTF
 40
25.3999999999999986
  9
$DIMLFAC
 40
1.0
  9
$DIMTOFL
 70
     0
  9
$DIMTVP
 40
0.0
  9
$DIMTIX
 70
     0
  9
$DIMSOXD
 70
     0
  9
$DIMSAH
 70
     0
  9
$DIMBLK1
  1

  9
$DIMBLK2
  1

  9
$DIMSTYLE
  2
STANDARD
  9
$DIMCLRD
 70
     0
  9
$DIMCLRE
 70
     0
  9
$DIMCLRT
 70
     0
  9
$DIMTFAC
 40
1.0
  9
$DIMGAP
 40
0.09
  9
$LUNITS
 70
     2
  9
$LUPREC
 70
     4
  9
$SKETCHINC
 40
0.1
  9
$FILLETRAD
 40
0.0
  9
$AUNITS
 70
     0
  9
$AUPREC
 70
     0
  9
$MENU
  1
.
  9
$ELEVATION
 40
0.0
  9
$PELEVATION
 40
0.0
  9
$THICKNESS
 40
0.0
  9
$LIMCHECK
 70
     0
  9
$BLIPMODE
 70
     0
  9
$CHAMFERA
 40
0.0
  9
$CHAMFERB
 40
0.0
  9
$SKPOLY
 70
     0
  9
$TDCREATE
 40
2458060.468368056230247
  9
$TDUPDATE
 40
2459385.9915509261190891
  9
$TDINDWG
 40
0.383884375
  9
$TDUSRTIMER
 40
0.383884375
  9
$USRTIMER
 70
     1
  9
$ANGBASE
 50
0.0
  9
$ANGDIR
 70
     0
  9
$PDMODE
 70
     0
  9
$PDSIZE
 40
0.3125
  9
$PLINEWID
 40
0.0
  9
$COORDS
 70
     1
  9
$SPLFRAME
 70
     0
  9
$SPLINETYPE
 70
     6
  9
$SPLINESEGS
 70
     8
  9
$ATTDIA
 70
     1
  9
$ATTREQ
 70
     1
  9
$HANDLING
 70
     1
  9
$HANDSEED
  5
A5F8
  9
$SURFTAB1
 70
     6
  9
$SURFTAB2
 70
     6
  9
$SURFTYPE
 70
     6
  9
$SURFU
 70
     6
  9
$SURFV
 70
     6
  9
$UCSNAME
  2

  9
$UCSORG
 10
0.0
 20
0.0
 30
0.0
  9
$UCSXDIR
 10
1.0
 20
0.0
 30
0.0
  9
$UCSYDIR
 10
0.0
 20
1.0
 30
0.0
  9
$PUCSNAME
  2

  9
$PUCSORG
 10
0.0
 20
0.0
 30
0.0
  9
$PUCSXDIR
 10
1.0
 20
0.0
 30
0.0
  9
$PUCSYDIR
 10
0.0
 20
1.0
 30
0.0
  9
$USERI1
 70
     0
  9
$USERI2
 70
     0
  9
$USERI3
 70
     0
  9
$USERI4
 70
     0
  9
$USERI5
 70
     0
  9
$USERR1
 40
0.0
  9
$USERR2
 40
0.0
  9
$USERR3
 40
0.0
  9
$USERR4
 40
0.0
  9
$USERR5
 40
0.0
  9
$WORLDVIEW
 70
     1
  9
$SHADEDGE
 70
     3
  9
$SHADEDIF
 70
    70
  9
$TILEMODE
 70
     1
  9
$MAXACTVP
 70
    64
  9
$PLIMCHECK
 70
     0
  9
$PEXTMIN
 10
1.0000000000000000E+20
 20
1.0000000000000000E+20
 30
1.0000000000000000E+20
  9
$PEXTMAX
 10
-1.0000000000000000E+20
 20
-1.0000000000000000E+20
 30
-1.0000000000000000E+20
  9
$PLIMMIN
 10
0.0
 20
0.0
  9
$PLIMMAX
 10
12.0
 20
9.0
  9
$UNITMODE
 70
     0
  9
$VISRETAIN
 70
     1
  9
$PLINEGEN
 70
     0
  9
$PSLTSCALE
 70
     1
  0
ENDSEC
  0
SECTION
  2
TABLES
  0
TABLE
  2
VPORT
 70
     1
  0
VPORT
  2
*ACTIVE
 70
     0
 10
0.0
 20
0.0
 11
1.0
 21
1.0
 12
383.6117029412171178
 22
18.2657399648999785
 13
0.0
 23
0.0
 14
1.0
 24
1.0
 15
0.0
 25
0.0
 16
0.0
 26
0.0
 36
47.0568789906323275
 17
4028.786865234375
 27
135.8743591308592897
 37
0.0
 40
30.7433598505096306
 41
1.67063492063492
 42
50.0
 43
0.0
 44
0.0
 50
0.0
 51
0.0
 71
     0
 72
   100
 73
     1
 74
     1
 75
     0
 76
     0
 77
     0
 78
     0
  0
ENDTAB
  0
TABLE
  2
LTYPE
 70
     2
  0
LTYPE
  2
CONTINUOUS
 70
     0
  3
Solid line
 72
    65
 73
     0
 40
0.0
  0
LTYPE
  2
PHANTOM2
 70
     0
  3
___ _ _ ___ _ _ ___ _ _ ___ _ _
 72
    65
 73
     6
 40
1.25
 49
0.625
 49
-0.125
 49
0.125
 49
-0.125
 49
0.125
 49
-0.125
  0
ENDTAB
  0
TABLE
  2
LAYER
 70
     2
  0
LAYER
  2
0
 70
     0
 62
   255
  6
CONTINUOUS
  0
LAYER
  2
DEFPOINTS
 70
     0
 62
     7
  6
CONTINUOUS
  0
ENDTAB
  0
TABLE
  2
STYLE
 70
     1
  0
STYLE
  2
STANDARD
 70
     0
 40
0.0
 41
0.8
 50
0.0
 71
     0
 42
0.2
  3
txt
  4

  0
ENDTAB
  0
TABLE
  2
VIEW
 70
     1
  0
ENDTAB
  0
TABLE
  2
UCS
 70
     0
  0
ENDTAB
  0
TABLE
  2
APPID
 70
     9
  0
APPID
  2
ACAD
 70
     0
  0
APPID
  2
ACAD_MLEADERVER
 70
     0
  0
APPID
  2
ACAD_EXEMPT_FROM_CAD_STANDARDS
 70
     0
  0
APPID
  2
ACAD_NAV_VCDISPLAY
 70
     0
  0
APPID
  2
ACAECLAYERSTANDARD
 70
     0
  0
APPID
  2
ACCMTRANSPARENCY
 70
     0
  0
APPID
  2
ACAD_DSTYLE_DIMJAG
 70
     0
  0
APPID
  2
ACAD_DSTYLE_DIMTALN
 70
     0
  0
APPID
  2
ACDBATTR
 70
     0
  0
ENDTAB
  0
TABLE
  2
DIMSTYLE
 70
     1
  0
DIMSTYLE
  2
STANDARD
 70
     0
  3

  4

  5

  6

  7

 40
1.0
 41
0.1875
 42
0.0625
 43
0.38
 44
0.125
 45
0.0
 46
0.0
 47
0.01
 48
0.01
140
0.15625
141
0.09
142
0.0
143
25.3999999999999986
144
1.0
145
0.0
146
1.0
147
0.09
 71
     1
 72
     0
 73
     1
 74
     1
 75
     0
 76
     0
 77
     0
 78
     4
170
     0
171
     2
172
     0
173
     0
174
     0
175
     0
176
     0
177
     0
178
     0
  0
ENDTAB
  0
ENDSEC
  0
SECTION
  2
BLOCKS
  0
BLOCK
  8
0
  2
$MODEL_SPACE
 70
     0
 10
0.0
 20
0.0
 30
0.0
  3
$MODEL_SPACE
  1

  0
ENDBLK
  5
21
  8
0
  0
BLOCK
 67
     1
  8
0
  2
$PAPER_SPACE
 70
     0
 10
0.0
 20
0.0
 30
0.0
  3
$PAPER_SPACE
  1

  0
ENDBLK
  5
1D
 67
     1
  8
0
  0
BLOCK
  8
0
  2
A$CC496C78B
 70
     2
 10
0.0
 20
0.0
 30
0.0
  3
A$CC496C78B
  1

  0
ATTDEF
  5
A153
  8
DEFPOINTS
 10
-0.0000000134750735
 20
-0.0000000035004177
 30
0.0
 40
0.001
  1
BATHROOM SINK FAUCET
  3

  2
PRODUCT
 70
     0
1001
ACDBATTR
1070
     0
1070
     1
  0
ATTDEF
  5
A154
  8
DEFPOINTS
 10
-0.0000000134750735
 20
0.0016666631662474
 30
0.0
 40
0.001
  1
FAIRFAX
  3

  2
TRADENAME
 70
     0
1001
ACDBATTR
1070
     0
1070
     1
  0
ATTDEF
  5
A155
  8
DEFPOINTS
 10
-0.0000000134750735
 20
0.0033333298329126
 30
0.0
 40
0.001
  1
K-11549IN-4
  3

  2
MODELNUMBER
 70
     0
1001
ACDBATTR
1070
     0
1070
     1
  0
ENDBLK
  5
A159
  8
0
  0
ENDSEC
  0
SECTION
  2
ENTITIES
  0
ATTDEF
  5
7608
  8
DEFPOINTS
 10
4412.342672377443705
 20
138.894681279001702
 30
0.0
 40
0.001
  1
K-15246X-SP
  3

  2
MODELNUMBER
 70
     0
1001
ACDBATTR
1070
     0
1070
     1
  0
ATTDEF
  5
7609
  8
DEFPOINTS
 10
4412.342672377443705
 20
138.8930146123350085
 30
0.0
 40
0.001
  1
PANACHE
  3

  2
TRADENAME
 70
     0
1001
ACDBATTR
1070
     0
1070
     1
  0
ATTDEF
  5
760A
  8
DEFPOINTS
 10
4412.342672377443705
 20
138.8913479456682865
 30
0.0
 40
0.001
  1
TOILET
  3

  2
PRODUCT
 70
     0
1001
ACDBATTR
1070
     0
1070
     1
  0
INSERT
  5
A15A
  8
0
 66
     1
  2
A$CC496C78B
 10
4340.9125275624146525
 20
141.4091978713580033
 30
0.0
  0
SEQEND
  5
A15B
  8
0
  0
INSERT
  5
A15C
  8
0
 66
     1
  2
A$CC496C78B
 10
4336.918191327526074
 20
141.5075808773540871
 30
0.0
  0
SEQEND
  5
A15D
  8
0
  0
ARC
  5
A518
  8
0
 10
4407.1852032035521916
 20
139.0555208341608022
 30
0.0
 40
0.1577300813386175
 50
172.0641387418245074
 51
272.7001810409474842
  0
LINE
  5
A519
  8
0
 10
4407.0289836648589699
 20
139.0772977551910969
 30
0.0
 11
4407.0611416823394393
 21
139.2942254750996938
 31
0.0
  0
LINE
  5
A51A
  8
0
 10
4407.0611416823394393
 20
139.2942254750996938
 30
0.0
 11
4407.6558395693382408
 21
143.1962378457083958
 31
0.0
  0
ARC
  5
A51B
  8
0
 10
4349.069366288567835
 20
151.9319782258477005
 30
0.0
 40
59.234179419213163
 50
351.5191968446961255
 51
354.1478691137430133
  0
ARC
  5
A51C
  8
0
 10
4405.5212531179658981
 20
146.2857525547204034
 30
0.0
 40
2.504669139784081
 50
350.9638499827609053
 51
36.7187820471738675
  0
ARC
  5
A51D
  8
0
 10
4405.7217937537470789
 20
146.4608451403861977
 30
0.0
 40
2.2393274694280452
 50
36.195542180461608
 51
41.3932761908464926
  0
ARC
  5
A51E
  8
0
 10
4411.9115805944929889
 20
153.0029594676672957
 30
0.0
 40
6.779149248801839
 50
212.1481038081865904
 51
228.2980429740231898
  0
ARC
  5
A51F
  8
0
 10
4411.4011506541919516
 20
152.4794555049884934
 30
0.0
 40
6.070845915956232
 50
178.1306145787727075
 51
210.5280373790718897
  0
ARC
  5
A520
  8
0
 10
3625.6753913165312042
 20
156.8998377538399041
 30
0.0
 40
779.6695776482532665
 50
359.6897099762459789
 51
359.8171685927384829
  0
ARC
  5
A521
  8
0
 10
4405.04118503592872
 20
155.0941236521389897
 30
0.0
 40
0.0819980876765671
 50
177.2945817028137014
 51
271.0413366799429014
  0
ARC
  5
A522
  8
0
 10
4405.4281339240833404
 20
155.0813667062996046
 30
0.0
 40
0.4691503223289015
 50
170.4965600596582078
 51
177.9689336958653882
  0
ARC
  5
A523
  8
0
 10
4773.668135611006619
 20
90.9334649282726133
 30
0.0
 40
374.2547098424602154
 50
169.9574347345393051
 51
170.1186349369883999
  0
ARC
  5
A524
  8
0
 10
4405.7283393338875612
 20
156.0752414769370944
 30
0.0
 40
0.5931644462619072
 50
96.0969201929704155
 51
168.2626141184385915
  0
ARC
  5
A525
  8
0
 10
4405.3856858724502672
 20
154.9530090293096976
 30
0.0
 40
0.0707913014416994
 50
173.4509436172905907
 51
270.105185912944421
  0
LINE
  5
A526
  8
0
 10
4405.3211360879286076
 20
155.0121391069623087
 30
0.0
 11
4405.3153565148722919
 21
154.9610830507639889
 31
0.0
  0
ARC
  5
A527
  8
0
 10
4410.194317458797741
 20
154.2029634005874925
 30
0.0
 40
4.8467588038375817
 50
174.5339670165020891
 51
176.566050925655901
  0
ARC
  5
A528
  8
0
 10
4405.583490390510633
 20
154.6260749281177027
 30
0.0
 40
0.2173424143103594
 50
137.0693397893529948
 51
169.7781679701861037
  0
ARC
  5
A529
  8
0
 10
4405.0868652564604417
 20
154.8126878081870927
 30
0.0
 40
0.3396894380140871
 50
353.4789066002127242
 51
11.81118096466483
  0
ARC
  5
A52A
  8
0
 10
4405.9104160738279461
 20
154.7641076109622986
 30
0.0
 40
0.0393700787000001
 50
184.9999999738851955
 51
270.0
  0
LINE
  5
A52B
  8
0
 10
4405.9104160738279461
 20
154.72473753226231
 30
0.0
 11
4407.3677897867282809
 21
154.72473753226231
 31
0.0
  0
LINE
  5
A52C
  8
0
 10
4405.8711958101239361
 20
154.7606762825257931
 30
0.0
 11
4405.860562307229884
 21
154.8822177774156046
 31
0.0
  0
ARC
  5
A52D
  8
0
 10
4407.3677897867282809
 20
154.7641076109622986
 30
0.0
 40
0.0393700787
 50
270.0
 51
355.000000022027109
  0
LINE
  5
A52E
  8
0
 10
4407.4070100504222864
 20
154.7606762825238036
 30
0.0
 11
4407.417643553326343
 21
154.8822177774156046
 31
0.0
  0
LINE
  5
A52F
  8
0
 10
4407.820239971504634
 20
154.6819361252260023
 30
0.0
 11
4407.8027175974302736
 21
154.8822177774156046
 31
0.0
  0
LINE
  5
A530
  8
0
 10
4409.1063259957463742
 20
154.6819361251554028
 30
0.0
 11
4409.1238483698261916
 21
154.8822177774156046
 31
0.0
  0
ARC
  5
A531
  8
0
 10
4409.0671057276449574
 20
154.6853674556851956
 30
0.0
 40
0.0393700833004352
 50
270.0000063795922074
 51
354.9999975490463839
  0
ARC
  5
A532
  8
0
 10
4407.8594602396960909
 20
154.6853674557268903
 30
0.0
 40
0.0393700833881114
 50
185.000002397429995
 51
270.0000000878056881
  0
LINE
  5
A533
  8
0
 10
4410.1174493057278596
 20
154.882217847162309
 30
0.0
 11
4410.1174493080861794
 21
154.6459973723808901
 31
0.0
  0
LINE
  5
A534
  8
0
 10
4405.1822720183463389
 20
167.4853083462618883
 30
0.0
 11
4405.6053169751157839
 21
156.6555082772551941
 31
0.0
  0
ARC
  5
A535
  8
0
 10
4405.2649022231571507
 20
167.488553794788686
 30
0.0
 40
0.0826939156362529
 50
93.365568845327175
 51
182.2492376998430927
  0
ARC
  5
A536
  8
0
 10
4405.1535346373220818
 20
167.7977221826232039
 30
0.0
 40
0.0808676826081382
 50
173.5996689404543929
 51
270.8303849017422067
  0
ARC
  5
A537
  8
0
 10
4405.2595626128286312
 20
167.7563529764524901
 30
0.0
 40
0.185248524030769
 50
270.1499883631187231
 51
347.6918024935799281
  0
LINE
  5
A538
  8
0
 10
4405.0731709807359948
 20
167.8067368812012035
 30
0.0
 11
4405.2112128382068477
 21
168.774232642469201
 31
0.0
  0
ARC
  5
A539
  8
0
 10
4405.6011540246636287
 20
168.7199389230297868
 30
0.0
 40
0.3937028535138852
 50
93.6117203653117542
 51
172.0733455690076994
  0
LINE
  5
A53A
  8
0
 10
4411.4481432921993473
 20
169.3795149477622886
 30
0.0
 11
4413.2591669141284001
 21
169.3795149477622886
 31
0.0
  0
ARC
  5
A53B
  8
0
 10
4411.4481432921993473
 20
169.3401448688915991
 30
0.0
 40
0.0393700788707072
 50
90.0000002484093358
 51
179.9999998970895945
  0
LINE
  5
A53C
  8
0
 10
4411.4087732133275495
 20
169.3401448688915991
 30
0.0
 11
4411.4087732133275495
 21
169.2929007745624119
 31
0.0
  0
LINE
  5
A53D
  8
0
 10
4411.4087732133275495
 20
169.2929007745624119
 30
0.0
 11
4412.3536565311260347
 21
169.2929007745624119
 31
0.0
  0
ARC
  5
A53E
  8
0
 10
4410.0354836377118772
 20
140.020686303140792
 30
0.0
 40
2.5005808399204161
 50
162.6800325290533067
 51
185.213278413170201
  0
ARC
  5
A53F
  8
0
 10
4407.7651009473520389
 20
140.7331869648311908
 30
0.0
 40
0.121102800303709
 50
145.255794154369994
 51
164.7071296337904016
  0
ARC
  5
A540
  8
0
 10
4407.6822725152369458
 20
140.7906346863437079
 30
0.0
 40
0.0203020568858594
 50
114.2374002943520992
 51
145.255794154369994
  0
ARC
  5
A541
  8
0
 10
4407.7199761035026313
 20
140.6981001765246901
 30
0.0
 40
0.1202120078189415
 50
103.9577444741237002
 51
112.5179600131381932
  0
ARC
  5
A542
  8
0
 10
4407.0066743265933837
 20
140.7089355985698091
 30
0.0
 40
0.6992865935772641
 50
359.0427271766038189
 51
6.7531396506979577
  0
ARC
  5
A543
  8
0
 10
4407.5659220976440338
 20
140.7655412313818033
 30
0.0
 40
0.1375943383367433
 50
10.7330869380295102
 51
18.3960122290319816
  0
ARC
  5
A544
  8
0
 10
4407.6875463614005639
 20
140.8059908374015095
 30
0.0
 40
0.0094201125277268
 50
18.3960122290319816
 51
68.6217163511533954
  0
LINE
  5
A545
  8
0
 10
4407.56759178174525
 20
139.7379959034730916
 30
0.0
 11
4407.5763117307724315
 21
139.7332068694182112
 31
0.0
  0
ARC
  5
A546
  8
0
 10
4407.5813535082288581
 20
139.7651509385721909
 30
0.0
 40
0.0304430788035157
 50
197.9251766625253026
 51
243.1248558938283111
  0
ARC
  5
A547
  8
0
 10
4407.6899647088939673
 20
139.8013696567074078
 30
0.0
 40
0.1449330974680882
 50
183.1224721066097914
 51
198.3334927568795081
  0
ARC
  5
A548
  8
0
 10
4407.577366936125145
 20
139.7386805605069924
 30
0.0
 40
0.0055744732909593
 50
259.0885084310389743
 51
328.4320202741218964
  0
ARC
  5
A549
  8
0
 10
4407.5471964614098397
 20
139.7642864518030024
 30
0.0
 40
0.0450892213392745
 50
320.7565761052434823
 51
336.9013195797841718
  0
ARC
  5
A54A
  8
0
 10
4407.0476003922822201
 20
139.9519893553637928
 30
0.0
 40
0.5787427951409434
 50
339.2130754898396958
 51
350.4503026344563068
  0
ARC
  5
A54B
  8
0
 10
4402.214029869263868
 20
140.8435186049671017
 30
0.0
 40
5.493780881025172
 50
349.6444059822284771
 51
358.474382994571215
  0
ARC
  5
A54C
  8
0
 10
4417.5223662118942229
 20
139.0554451205206021
 30
0.0
 40
0.1574803149999996
 50
269.7887009046688149
 51
7.9759381152695292
  0
LINE
  5
A54D
  8
0
 10
4417.6783231297958991
 20
139.07729665069931
 30
0.0
 11
4417.6461651573135896
 21
139.2942243772783968
 31
0.0
  0
LINE
  5
A54E
  8
0
 10
4417.6461651573135896
 20
139.2942243772783968
 30
0.0
 11
4417.0514680797041365
 21
143.1962368712447926
 31
0.0
  0
ARC
  5
A54F
  8
0
 10
4475.6379431725208633
 20
151.931965098840891
 30
0.0
 40
59.234179419213163
 50
185.8521190014382114
 51
188.4807912704843034
  0
ARC
  5
A550
  8
0
 10
4419.1860551719300929
 20
146.2857511374810997
 30
0.0
 40
2.504669139784081
 50
143.2812060680342938
 51
189.0361381324171077
  0
ARC
  5
A551
  8
0
 10
4418.9855145724695831
 20
146.460843764744908
 30
0.0
 40
2.2393274694280452
 50
138.6067119243672892
 51
143.8044459347410111
  0
ARC
  5
A552
  8
0
 10
4412.7957290887507042
 20
153.0029593759682029
 30
0.0
 40
6.779149248801839
 50
311.7019451411297837
 51
327.8518843070164053
  0
ARC
  5
A553
  8
0
 10
4413.3061589204608026
 20
152.4794553074113992
 30
0.0
 40
6.070845915956232
 50
329.4719507361082833
 51
1.869373536413512
  0
ARC
  5
A554
  8
0
 10
5199.0319191750222672
 20
156.8996745738276104
 30
0.0
 40
779.6695776482532665
 50
180.1830633408044946
 51
180.3102781389382017
  0
ARC
  5
A555
  8
0
 10
4419.6661250810811907
 20
155.094122135319509
 30
0.0
 40
0.0819980876765671
 50
268.9018919216658219
 51
15.7503774136521795
  0
ARC
  5
A556
  8
0
 10
4358.2959423384500042
 20
145.1236599860336014
 30
0.0
 40
62.2562977165471523
 50
9.2364641689387437
 51
10.2445184180946498
  0
ARC
  5
A557
  8
0
 10
4418.9789709866354315
 20
156.075240102653396
 30
0.0
 40
0.5931644462619072
 50
11.7373739967513409
 51
83.596039545786283
  0
LINE
  5
A558
  8
0
 10
4419.5250406689583542
 20
167.4853068587075882
 30
0.0
 11
4419.1019934657715567
 21
156.6555068774530923
 31
0.0
  0
ARC
  5
A559
  8
0
 10
4419.442410464819659
 20
167.4885523243744103
 30
0.0
 40
0.0826939156362529
 50
357.7507504153412015
 51
86.6344192698791176
  0
ARC
  5
A55A
  8
0
 10
4419.5561926585860419
 20
167.7956021800355018
 30
0.0
 40
0.0787401575892091
 50
269.7155481341923746
 51
8.1283758161553727
  0
ARC
  5
A55B
  8
0
 10
4419.4477501306992053
 20
167.756351504930592
 30
0.0
 40
0.185248524030769
 50
192.3081856216030019
 51
269.8499997520654006
  0
LINE
  5
A55C
  8
0
 10
4419.6341417732428454
 20
167.8067353710162024
 30
0.0
 11
4419.4961001164565459
 21
168.7742311609181058
 31
0.0
  0
ARC
  5
A55D
  8
0
 10
4419.1061589187402205
 20
168.7199375223638924
 30
0.0
 40
0.3937028535138852
 50
7.9266425461787291
 51
86.388267749862095
  0
ARC
  5
A55E
  8
0
 10
4413.2591694595557783
 20
169.3401445483902137
 30
0.0
 40
0.0393703991686127
 50
0.0001812952629299
 51
89.9995217173478039
  0
LINE
  5
A55F
  8
0
 10
4413.2985398587243253
 20
169.3401446728952919
 30
0.0
 11
4413.2985398489227009
 21
169.2929005785659911
 31
0.0
  0
LINE
  5
A560
  8
0
 10
4413.2985398489227009
 20
169.2929005785659911
 30
0.0
 11
4412.3536565311260347
 21
169.2929007745624119
 31
0.0
  0
ARC
  5
A561
  8
0
 10
4414.6718233526280528
 20
140.0206858222848041
 30
0.0
 40
2.5005808399204161
 50
354.7867097020147753
 51
17.3199555861364196
  0
ARC
  5
A562
  8
0
 10
4416.9422061907816897
 20
140.7331860130315135
 30
0.0
 40
0.121102800303709
 50
15.2928584813990103
 51
34.744193960803571
  0
ARC
  5
A563
  8
0
 10
4417.0250346348129824
 20
140.7906337173629936
 30
0.0
 40
0.0203020568858594
 50
34.744193960803571
 51
65.7625878208252459
  0
ARC
  5
A564
  8
0
 10
4416.9873310273542302
 20
140.6980992153648913
 30
0.0
 40
0.1202120078189415
 50
67.4820281020244011
 51
76.04224364104671
  0
ARC
  5
A565
  8
0
 10
4417.7006328065108391
 20
140.7089344894503995
 30
0.0
 40
0.6992865935772641
 50
173.2468484644882096
 51
180.9572609385803901
  0
ARC
  5
A566
  8
0
 10
4417.1413850472017657
 20
140.7655402382665955
 30
0.0
 40
0.1375943383367433
 50
161.603975886157798
 51
169.2669011771604914
  0
ARC
  5
A567
  8
0
 10
4417.0197607918344147
 20
140.8059898695148036
 30
0.0
 40
0.0094201125277268
 50
111.3782717640386011
 51
161.603975886157798
  0
LINE
  5
A568
  8
0
 10
4417.1397151499568281
 20
139.7379949107044013
 30
0.0
 11
4417.130995199937388
 21
139.7332058784581932
 31
0.0
  0
ARC
  5
A569
  8
0
 10
4417.1259534291057207
 20
139.7651499486580065
 30
0.0
 40
0.0304430788035157
 50
296.8751322213424828
 51
342.074811452666097
  0
ARC
  5
A56A
  8
0
 10
4417.0173422359539472
 20
139.8013686893222882
 30
0.0
 40
0.1449330974680882
 50
341.6664953583065198
 51
356.8775160085745028
  0
ARC
  5
A56B
  8
0
 10
4417.1299399957197238
 20
139.7386795697659068
 30
0.0
 40
0.0055744732909593
 50
211.5679678410425026
 51
280.911479684167773
  0
ARC
  5
A56C
  8
0
 10
4417.1601104757473877
 20
139.7642854548035984
 30
0.0
 40
0.0450892213392745
 50
203.0986685353958023
 51
219.2434120099509869
  0
ARC
  5
A56D
  8
0
 10
4417.6597065838086564
 20
139.951988254733692
 30
0.0
 40
0.5787427951409434
 50
189.5496854807250031
 51
200.7869126253416141
  0
ARC
  5
A56E
  8
0
 10
4422.4932772917563852
 20
140.8435165017135091
 30
0.0
 40
5.493780881025172
 50
181.5256051206129939
 51
190.3555821329584887
  0
ARC
  5
A56F
  8
0
 10
4412.3536457428581343
 20
95.4631546723304609
 30
0.0
 40
61.5662694558636687
 50
83.7603373800596813
 51
90.0030581557122957
  0
ARC
  5
A570
  8
0
 10
4412.3536457428581343
 20
95.4631546723348237
 30
0.0
 40
61.5662694558593415
 50
90.0030581557122957
 51
96.2366868595499909
  0
ARC
  5
A571
  8
0
 10
4412.3536432006931136
 20
40.7629222522773631
 30
0.0
 40
128.5287444134856969
 50
86.9773933943297237
 51
93.0225947208279962
  0
LINE
  5
A572
  8
0
 10
4405.2675423100599801
 20
167.5712055559579881
 30
0.0
 11
4419.4415862654659577
 21
167.5712055559579881
 31
0.0
  0
ARC
  5
A573
  8
0
 10
4411.5859385676276361
 20
169.2732157351624096
 30
0.0
 40
0.0196850393999171
 50
55.5066831584169691
 51
90.0
  0
ARC
  5
A574
  8
0
 10
4413.1213745125905916
 20
169.2732157351624096
 30
0.0
 40
0.0196850393999171
 50
90.0
 51
124.4933168415829954
  0
LINE
  5
A575
  8
0
 10
4410.1174493080861794
 20
154.6459973723808901
 30
0.0
 11
4407.859460239757027
 21
154.6459973723387122
 31
0.0
  0
ARC
  5
A576
  8
0
 10
4419.3215408293763176
 20
154.9530097220003881
 30
0.0
 40
0.0707933899284733
 50
269.9999937707978006
 51
6.5482980295256432
  0
LINE
  5
A577
  8
0
 10
4419.3860927956202431
 20
155.0121391069623087
 30
0.0
 11
4419.3918723686756493
 21
154.9610830507639889
 31
0.0
  0
ARC
  5
A578
  8
0
 10
4414.5129114247502002
 20
154.2029634005874925
 30
0.0
 40
4.8467588038375817
 50
3.4369721211500139
 51
5.466032983497878
  0
ARC
  5
A579
  8
0
 10
4419.1237384930373082
 20
154.6260749281177027
 30
0.0
 40
0.2173424143103594
 50
10.22183202981393
 51
42.9306602106469128
  0
ARC
  5
A57A
  8
0
 10
4419.6203636270893185
 20
154.8126878081870927
 30
0.0
 40
0.3396894380140871
 50
168.3963315281615962
 51
186.5210933997873042
  0
ARC
  5
A57B
  8
0
 10
4419.0599303148010222
 20
154.8883594707336044
 30
0.0
 40
0.2505114703831702
 50
284.6544766177013912
 51
332.8664347945704094
  0
ARC
  5
A57C
  8
0
 10
4418.9685963337969952
 20
154.8542444482696112
 30
0.0
 40
0.2091109746749285
 50
218.0419324166132071
 51
264.790089433215428
  0
ARC
  5
A57D
  8
0
 10
4418.7968128097199951
 20
154.7641076109622986
 30
0.0
 40
0.0393700787000001
 50
270.0
 51
355.0000000261147761
  0
LINE
  5
A57E
  8
0
 10
4418.7968128097199951
 20
154.72473753226231
 30
0.0
 11
4417.3394390968196603
 21
154.72473753226231
 31
0.0
  0
LINE
  5
A57F
  8
0
 10
4418.8360330734230956
 20
154.7606762825257931
 30
0.0
 11
4418.8466665763171477
 21
154.8822177774156046
 31
0.0
  0
ARC
  5
A580
  8
0
 10
4417.3394390968196603
 20
154.7641076109622986
 30
0.0
 40
0.0393700787
 50
184.999999977972891
 51
270.0
  0
LINE
  5
A581
  8
0
 10
4417.3002188331247453
 20
154.7606762825238036
 30
0.0
 11
4417.2895853302215983
 21
154.8822177774156046
 31
0.0
  0
LINE
  5
A582
  8
0
 10
4416.8869889120433072
 20
154.6819361252260023
 30
0.0
 11
4416.9045112861176676
 21
154.8822177774156046
 31
0.0
  0
LINE
  5
A583
  8
0
 10
4415.600902887803386
 20
154.6819361251554028
 30
0.0
 11
4415.5833805137217496
 21
154.8822177774156046
 31
0.0
  0
ARC
  5
A584
  8
0
 10
4415.6401231559029839
 20
154.6853674556851956
 30
0.0
 40
0.0393700833004407
 50
185.0000024509583909
 51
269.9999936204077926
  0
ARC
  5
A585
  8
0
 10
4416.8477686438518504
 20
154.6853674557268903
 30
0.0
 40
0.0393700833881141
 50
269.9999999121943119
 51
354.9999976025650881
  0
LINE
  5
A586
  8
0
 10
4414.5897795778200816
 20
154.882217847162309
 30
0.0
 11
4414.5897795754617619
 21
154.6459973723808901
 31
0.0
  0
LINE
  5
A587
  8
0
 10
4414.5897795754617619
 20
154.6459973723808901
 30
0.0
 11
4416.8477686437909142
 21
154.6459973723387122
 31
0.0
  0
ARC
  5
A588
  8
0
 10
4405.4937984855441755
 20
156.1867912879257858
 30
0.0
 40
0.3647076091510915
 50
190.0558415708721043
 51
231.0085729426340038
  0
ARC
  5
A589
  8
0
 10
4411.3460170254766126
 20
255.4064018294467076
 30
0.0
 40
99.8978657214987464
 50
267.7695857877087064
 51
269.8605031574040822
  0
ARC
  5
A58A
  8
0
 10
4412.4336899380286923
 20
428.6013740236247145
 30
0.0
 40
273.0957848071608964
 50
269.720776384902706
 51
269.9964237664759139
  0
ARC
  5
A58B
  8
0
 10
4406.3960511629202301
 20
158.4007529819936906
 30
0.0
 40
2.7418881693597008
 50
245.6219790687239026
 51
267.8612093401716834
  0
ARC
  5
A58C
  8
0
 10
4408.1816344706194286
 20
175.4824945292236862
 30
0.0
 40
19.9114232768196295
 50
264.5592998814478278
 51
267.9177425484990067
  0
ARC
  5
A58D
  8
0
 10
4419.2134303980046752
 20
156.1867912879257858
 30
0.0
 40
0.3647076091510915
 50
308.9914270573660247
 51
350.082664355205111
  0
ARC
  5
A58E
  8
0
 10
4413.3612118580722381
 20
255.4064018294467076
 30
0.0
 40
99.8978657214987464
 50
270.1394968425959178
 51
272.2304142122911799
  0
ARC
  5
A58F
  8
0
 10
4412.2403826102090534
 20
437.6341996637261218
 30
0.0
 40
282.1286649754799214
 50
270.0357958677557804
 51
270.277017271666125
  0
ARC
  5
A590
  8
0
 10
4418.3111777206277111
 20
158.4007529819936906
 30
0.0
 40
2.7418881693597008
 50
272.1387906598283166
 51
294.3780209312761258
  0
ARC
  5
A591
  8
0
 10
4416.5255944129276031
 20
175.4824945292236862
 30
0.0
 40
19.9114232768196295
 50
272.0822574515009933
 51
275.4407001185521722
  0
LINE
  5
A592
  8
0
 10
4405.0731709807359948
 20
167.8067368812012035
 30
0.0
 11
4405.2112128382068477
 21
168.774232642469201
 31
0.0
  0
ARC
  5
A593
  8
0
 10
4405.6011540246636287
 20
168.7199389230297868
 30
0.0
 40
0.3937028535138852
 50
93.6117203653117542
 51
172.0733455690076994
  0
ARC
  5
A594
  8
0
 10
4411.4481432921993473
 20
169.3401448688915991
 30
0.0
 40
0.0393700788707072
 50
90.0000002484093358
 51
179.9999998970895945
  0
LINE
  5
A595
  8
0
 10
4411.4087732133275495
 20
169.3401448688915991
 30
0.0
 11
4411.4087732133275495
 21
169.2929007745624119
 31
0.0
  0
LINE
  5
A596
  8
0
 10
4411.4087732133275495
 20
169.2929007745624119
 30
0.0
 11
4412.3536565311260347
 21
169.2929007745624119
 31
0.0
  0
ARC
  5
A597
  8
0
 10
4413.2591694590673796
 20
169.3401445481881922
 30
0.0
 40
0.0393703996564684
 50
0.0001815893509593
 51
90.0037036526752132
  0
LINE
  5
A598
  8
0
 10
4413.2985398587243253
 20
169.3401446728952919
 30
0.0
 11
4413.2985398489227009
 21
169.2929005785659911
 31
0.0
  0
LINE
  5
A599
  8
0
 10
4413.2985398489227009
 20
169.2929005785659911
 30
0.0
 11
4412.3536565311260347
 21
169.2929007745624119
 31
0.0
  0
ARC
  5
A59A
  8
0
 10
4412.3536432006931136
 20
40.7629222522773631
 30
0.0
 40
128.5287444134856969
 50
86.9773933943297237
 51
93.0225947208279962
  0
ARC
  5
A59B
  8
0
 10
4411.5859385676276361
 20
169.2732157351624096
 30
0.0
 40
0.0196850393999171
 50
55.5066831584169691
 51
90.0
  0
ARC
  5
A59C
  8
0
 10
4413.1213745125905916
 20
169.2732157351624096
 30
0.0
 40
0.0196850393999171
 50
90.0
 51
124.4933168415829954
  0
LINE
  5
A59E
  8
0
 10
4417.1445784061479571
 20
147.736867988239112
 30
0.0
 11
4407.5761479729580969
 21
147.7178051496759963
 31
0.0
  0
LINE
  5
A59F
  8
0
 10
4418.9496080454118783
 20
154.6459973723387122
 30
0.0
 11
4419.1233070459811643
 21
154.6459973723387122
 31
0.0
  0
ARC
  5
A5A0
  8
0
 10
4405.5784121005426641
 20
154.4094915133840118
 30
0.0
 40
0.2374249457863262
 50
159.336488571650392
 51
179.4167111093661049
  0
ARC
  5
A5A1
  8
0
 10
4419.1289092353881642
 20
154.4094936145866086
 30
0.0
 40
0.2374135982672685
 50
359.7817492071022798
 51
20.7298564076803089
  0
LINE
  5
A5A2
  8
0
 10
4405.3858158338725843
 20
154.8822178471621953
 30
0.0
 11
4419.3215408216792639
 21
154.8822163320728862
 31
0.0
  0
LINE
  5
A5A3
  8
0
 10
4405.0426752489311184
 20
155.0121391069623087
 30
0.0
 11
4419.6645536346168228
 21
155.0121391069623087
 31
0.0
  0
LINE
  5
A5A4
  8
0
 10
4419.5558017451030537
 20
167.7168629928173118
 30
0.0
 11
4405.1547066076209376
 21
167.7168629928173118
 31
0.0
  0
LINE
  5
A5A5
  8
0
 10
4417.521785447081129
 20
138.8979658764127976
 30
0.0
 11
4407.1926338056900931
 21
138.8979658764127976
 31
0.0
  0
ENDSEC
  0
EOF
