  0
SECTION
  2
HEADER
  9
$ACADVER
  1
AC1009
  9
$INSBASE
 10
4459.2627591431100882
 20
228.4990731676504083
 30
0.0
  9
$EXTMIN
 10
4456.8676687980823772
 20
228.0856873408503986
 30
0.0
  9
$EXTMAX
 10
4461.6580701152543043
 20
237.6916597996913936
 30
0.0
  9
$LIMMIN
 10
0.0
 20
0.0
  9
$LIMMAX
 10
11.6929133858000007
 20
8.2677165353999982
  9
$ORTHOMODE
 70
     0
  9
$REGENMODE
 70
     1
  9
$FILLMODE
 70
     1
  9
$QTEXTMODE
 70
     0
  9
$MIRRTEXT
 70
     0
  9
$DRAGMODE
 70
     2
  9
$LTSCALE
 40
0.6431102362
  9
$OSMODE
 70
  4095
  9
$ATTMODE
 70
     1
  9
$TEXTSIZE
 40
0.2
  9
$TRACEWID
 40
0.05
  9
$TEXTSTYLE
  7
STANDARD
  9
$CLAYER
  8
0
  9
$CELTYPE
  6
BYLAYER
  9
$CECOLOR
 62
   256
  9
$DIMSCALE
 40
1.0
  9
$DIMASZ
 40
0.1875
  9
$DIMEXO
 40
0.0625
  9
$DIMDLI
 40
0.4443307087
  9
$DIMRND
 40
0.0
  9
$DIMDLE
 40
0.0
  9
$DIMEXE
 40
0.125
  9
$DIMTP
 40
0.01
  9
$DIMTM
 40
0.01
  9
$DIMTXT
 40
2.0
  9
$DIMCEN
 40
0.1052362205
  9
$DIMTSZ
 40
0.0
  9
$DIMTOL
 70
     1
  9
$DIMLIM
 70
     0
  9
$DIMTIH
 70
     1
  9
$DIMTOH
 70
     1
  9
$DIMSE1
 70
     0
  9
$DIMSE2
 70
     0
  9
$DIMTAD
 70
     0
  9
$DIMZIN
 70
     0
  9
$DIMBLK
  1

  9
$DIMASO
 70
     1
  9
$DIMSHO
 70
     1
  9
$DIMPOST
  1
\X
  9
$DIMAPOST
  1

  9
$DIMALT
 70
     1
  9
$DIMALTD
 70
     2
  9
$DIMALTF
 40
25.3999999999999986
  9
$DIMLFAC
 40
1.0
  9
$DIMTOFL
 70
     0
  9
$DIMTVP
 40
0.0
  9
$DIMTIX
 70
     0
  9
$DIMSOXD
 70
     0
  9
$DIMSAH
 70
     0
  9
$DIMBLK1
  1

  9
$DIMBLK2
  1

  9
$DIMSTYLE
  2
STANDARD
  9
$DIMCLRD
 70
     0
  9
$DIMCLRE
 70
     0
  9
$DIMCLRT
 70
     0
  9
$DIMTFAC
 40
1.0
  9
$DIMGAP
 40
0.09
  9
$LUNITS
 70
     2
  9
$LUPREC
 70
     4
  9
$SKETCHINC
 40
0.1
  9
$FILLETRAD
 40
0.0
  9
$AUNITS
 70
     0
  9
$AUPREC
 70
     0
  9
$MENU
  1
.
  9
$ELEVATION
 40
0.0
  9
$PELEVATION
 40
0.0
  9
$THICKNESS
 40
0.0
  9
$LIMCHECK
 70
     0
  9
$BLIPMODE
 70
     0
  9
$CHAMFERA
 40
0.0
  9
$CHAMFERB
 40
0.0
  9
$SKPOLY
 70
     0
  9
$TDCREATE
 40
2458059.843368056230247
  9
$TDUPDATE
 40
2459054.1717013888992369
  9
$TDINDWG
 40
0.317784838
  9
$TDUSRTIMER
 40
0.317784838
  9
$USRTIMER
 70
     1
  9
$ANGBASE
 50
0.0
  9
$ANGDIR
 70
     0
  9
$PDMODE
 70
     0
  9
$PDSIZE
 40
0.3125
  9
$PLINEWID
 40
0.0
  9
$COORDS
 70
     1
  9
$SPLFRAME
 70
     0
  9
$SPLINETYPE
 70
     6
  9
$SPLINESEGS
 70
     8
  9
$ATTDIA
 70
     1
  9
$ATTREQ
 70
     1
  9
$HANDLING
 70
     1
  9
$HANDSEED
  5
8E26
  9
$SURFTAB1
 70
     6
  9
$SURFTAB2
 70
     6
  9
$SURFTYPE
 70
     6
  9
$SURFU
 70
     6
  9
$SURFV
 70
     6
  9
$UCSNAME
  2

  9
$UCSORG
 10
0.0
 20
0.0
 30
0.0
  9
$UCSXDIR
 10
1.0
 20
0.0
 30
0.0
  9
$UCSYDIR
 10
0.0
 20
1.0
 30
0.0
  9
$PUCSNAME
  2

  9
$PUCSORG
 10
0.0
 20
0.0
 30
0.0
  9
$PUCSXDIR
 10
1.0
 20
0.0
 30
0.0
  9
$PUCSYDIR
 10
0.0
 20
1.0
 30
0.0
  9
$USERI1
 70
     0
  9
$USERI2
 70
     0
  9
$USERI3
 70
     0
  9
$USERI4
 70
     0
  9
$USERI5
 70
     0
  9
$USERR1
 40
0.0
  9
$USERR2
 40
0.0
  9
$USERR3
 40
0.0
  9
$USERR4
 40
0.0
  9
$USERR5
 40
0.0
  9
$WORLDVIEW
 70
     1
  9
$SHADEDGE
 70
     3
  9
$SHADEDIF
 70
    70
  9
$TILEMODE
 70
     1
  9
$MAXACTVP
 70
    64
  9
$PLIMCHECK
 70
     0
  9
$PEXTMIN
 10
1.0000000000000000E+20
 20
1.0000000000000000E+20
 30
1.0000000000000000E+20
  9
$PEXTMAX
 10
-1.0000000000000000E+20
 20
-1.0000000000000000E+20
 30
-1.0000000000000000E+20
  9
$PLIMMIN
 10
0.0
 20
0.0
  9
$PLIMMAX
 10
12.0
 20
9.0
  9
$UNITMODE
 70
     0
  9
$VISRETAIN
 70
     1
  9
$PLINEGEN
 70
     0
  9
$PSLTSCALE
 70
     1
  0
ENDSEC
  0
SECTION
  2
TABLES
  0
TABLE
  2
VPORT
 70
     1
  0
VPORT
  2
*ACTIVE
 70
     0
 10
0.0
 20
0.0
 11
1.0
 21
1.0
 12
24.8070589097933407
 22
3.4312898896825881
 13
0.0
 23
0.0
 14
1.0
 24
1.0
 15
0.0
 25
0.0
 16
0.0
 26
0.0
 36
53.1033482859890427
 17
4434.4558105468740905
 27
229.4573836805882934
 37
0.0
 40
9.7194288264651298
 41
2.6528599605522678
 42
50.0
 43
0.0
 44
0.0
 50
0.0
 51
0.0
 71
     0
 72
   100
 73
     1
 74
     1
 75
     0
 76
     0
 77
     0
 78
     0
  0
ENDTAB
  0
TABLE
  2
LTYPE
 70
     2
  0
LTYPE
  2
CONTINUOUS
 70
     0
  3
Solid line
 72
    65
 73
     0
 40
0.0
  0
LTYPE
  2
PHANTOM2
 70
     0
  3
___ _ _ ___ _ _ ___ _ _ ___ _ _
 72
    65
 73
     6
 40
1.25
 49
0.625
 49
-0.125
 49
0.125
 49
-0.125
 49
0.125
 49
-0.125
  0
ENDTAB
  0
TABLE
  2
LAYER
 70
     2
  0
LAYER
  2
0
 70
     0
 62
   255
  6
CONTINUOUS
  0
LAYER
  2
DEFPOINTS
 70
     0
 62
     7
  6
CONTINUOUS
  0
ENDTAB
  0
TABLE
  2
STYLE
 70
     1
  0
STYLE
  2
STANDARD
 70
     0
 40
0.0
 41
0.8
 50
0.0
 71
     0
 42
0.2
  3
txt
  4

  0
ENDTAB
  0
TABLE
  2
VIEW
 70
     0
  0
ENDTAB
  0
TABLE
  2
UCS
 70
     0
  0
ENDTAB
  0
TABLE
  2
APPID
 70
     9
  0
APPID
  2
ACAD
 70
     0
  0
APPID
  2
ACAD_MLEADERVER
 70
     0
  0
APPID
  2
ACAD_EXEMPT_FROM_CAD_STANDARDS
 70
     0
  0
APPID
  2
ACAD_NAV_VCDISPLAY
 70
     0
  0
APPID
  2
ACAECLAYERSTANDARD
 70
     0
  0
APPID
  2
ACCMTRANSPARENCY
 70
     0
  0
APPID
  2
ACAD_DSTYLE_DIMJAG
 70
     0
  0
APPID
  2
ACAD_DSTYLE_DIMTALN
 70
     0
  0
APPID
  2
ACDBATTR
 70
     0
  0
ENDTAB
  0
TABLE
  2
DIMSTYLE
 70
     1
  0
DIMSTYLE
  2
STANDARD
 70
     0
  3

  4

  5

  6

  7

 40
1.0
 41
0.1875
 42
0.0625
 43
0.38
 44
0.125
 45
0.0
 46
0.0
 47
0.01
 48
0.01
140
0.15625
141
0.09
142
0.0
143
25.3999999999999986
144
1.0
145
0.0
146
1.0
147
0.09
 71
     1
 72
     0
 73
     1
 74
     1
 75
     0
 76
     0
 77
     0
 78
     4
170
     0
171
     2
172
     0
173
     0
174
     0
175
     0
176
     0
177
     0
178
     0
  0
ENDTAB
  0
ENDSEC
  0
SECTION
  2
BLOCKS
  0
BLOCK
  8
0
  2
$MODEL_SPACE
 70
     0
 10
0.0
 20
0.0
 30
0.0
  3
$MODEL_SPACE
  1

  0
ENDBLK
  5
21
  8
0
  0
BLOCK
 67
     1
  8
0
  2
$PAPER_SPACE
 70
     0
 10
0.0
 20
0.0
 30
0.0
  3
$PAPER_SPACE
  1

  0
ENDBLK
  5
1D
 67
     1
  8
0
  0
ENDSEC
  0
SECTION
  2
ENTITIES
  0
ATTDEF
  5
3930
  8
DEFPOINTS
 10
4459.2599923624311486
 20
228.5055895513806945
 30
0.0
 40
0.001
  1
K-15344T-E2
  3

  2
MODELNUMBER
 70
     0
1001
ACDBATTR
1070
     0
1070
     1
  0
ATTDEF
  5
3931
  8
DEFPOINTS
 10
4459.2599923624311486
 20
228.5039228847140862
 30
0.0
 40
0.001
  1
RAIN DUET
  3

  2
TRADENAME
 70
     0
1001
ACDBATTR
1070
     0
1070
     1
  0
ATTDEF
  5
3932
  8
DEFPOINTS
 10
4459.2599923624311486
 20
228.5022562180473926
 30
0.0
 40
0.001
  1
HANDSHOWER
  3

  2
PRODUCT
 70
     0
1001
ACDBATTR
1070
     0
1070
     1
  0
LINE
  5
85E5
  8
0
 10
4458.6880320335712895
 20
233.0762774430478999
 30
0.0
 11
4458.6973323320171403
 21
228.5187439581061142
 31
0.0
  0
ARC
  5
85E6
  8
0
 10
4458.7201569383169044
 20
228.5221416855040957
 30
0.0
 40
0.0230761176158533
 50
188.4670138257062035
 51
268.5294893360563719
  0
ARC
  5
85E7
  8
0
 10
4459.2746374477255813
 20
235.1854437995195894
 30
0.0
 40
2.5062441488485159
 50
90.2715534599594065
 51
116.9732458408230968
  0
ARC
  5
85E8
  8
0
 10
4459.2306032525930277
 20
235.2993936847925056
 30
0.0
 40
2.3847495791897142
 50
117.2721454920999946
 51
138.9776601512438106
  0
ARC
  5
85E9
  8
0
 10
4459.1846623667534004
 20
235.3393609465458098
 30
0.0
 40
2.3238566649561831
 50
138.9776601512438106
 51
175.5954661729938096
  0
ARC
  5
85EA
  8
0
 10
4459.1099984163165573
 20
235.3451119676176972
 30
0.0
 40
2.2489715547015452
 50
175.5954661729938096
 51
214.188709623225094
  0
ARC
  5
85EB
  8
0
 10
4459.3204213641329261
 20
235.4880546479593875
 30
0.0
 40
2.5033539967662222
 50
214.188709623225094
 51
242.7027288938519121
  0
ARC
  5
85EC
  8
0
 10
4459.2694506248690232
 20
235.4817187013844944
 30
0.0
 40
2.4747111398332962
 50
243.6841859400329042
 51
267.9875993178931139
  0
ARC
  5
85ED
  8
0
 10
4459.2029983769471073
 20
235.2222466136144021
 30
0.0
 40
2.3338033070442941
 50
120.3085024318032055
 51
142.0871509668714907
  0
ARC
  5
85EE
  8
0
 10
4459.1287286592014425
 20
235.2800907654188052
 30
0.0
 40
2.2396654460519132
 50
142.0871509668714907
 51
178.8883265941566947
  0
ARC
  5
85EF
  8
0
 10
4459.119874262578378
 20
235.2802625831805869
 30
0.0
 40
2.2308093825407229
 50
178.8883265941566947
 51
203.9249082079842026
  0
ARC
  5
85F0
  8
0
 10
4459.2602132119445741
 20
235.1106529589200989
 30
0.0
 40
2.2446695588638899
 50
89.9321986406212801
 51
125.1549272111004001
  0
ARC
  5
85F1
  8
0
 10
4459.183073358852198
 20
235.2201885062443978
 30
0.0
 40
2.1106971995395418
 50
125.1549272111004001
 51
155.7179788068586106
  0
ARC
  5
85F2
  8
0
 10
4459.0959235501995863
 20
235.2595052365512913
 30
0.0
 40
2.0150891746136992
 50
155.7179788068586106
 51
180.0249986057671094
  0
ARC
  5
85F3
  8
0
 10
4459.1206255021379548
 20
235.2595160142107886
 30
0.0
 40
2.0397911289029689
 50
180.0249986057671094
 51
220.9524379200709063
  0
ARC
  5
85F4
  8
0
 10
4459.2459031036923989
 20
235.3682357239447924
 30
0.0
 40
2.2056659393351579
 50
220.9524379200709063
 51
257.4422042502745853
  0
ARC
  5
85F5
  8
0
 10
4459.2684540177506278
 20
235.4694729395262129
 30
0.0
 40
2.3093843925802831
 50
257.4422042502745853
 51
267.349676970042708
  0
ARC
  5
85F6
  8
0
 10
4459.1623745125389178
 20
233.1352980936021027
 30
0.0
 40
0.0272698783918806
 50
54.397929408465302
 51
91.4862100346990275
  0
ARC
  5
85F7
  8
0
 10
4459.1736664611553351
 20
233.151568110326906
 30
0.0
 40
0.0074730667541899
 50
5.7310588844290518
 51
52.1710794213048601
  0
ARC
  5
85F8
  8
0
 10
4463.2966002678740551
 20
232.8621210604250962
 30
0.0
 40
4.1137392149867926
 50
179.8408097989683085
 51
181.7047392692948904
  0
ARC
  5
85F9
  8
0
 10
4446.2199733125162311
 20
232.9095667657811077
 30
0.0
 40
12.9629536518246908
 50
359.8408097989699854
 51
0.4374350824146967
  0
ARC
  5
85FA
  8
0
 10
4468.0589967731748402
 20
233.0763040145891125
 30
0.0
 40
8.8767063048996597
 50
179.6883175833210942
 51
180.4374350824145949
  0
ARC
  5
85FB
  8
0
 10
4466.9145363632869703
 20
233.5065480364463895
 30
0.0
 40
7.7415428608393233
 50
182.6226277155871003
 51
182.828035181348497
  0
ARC
  5
85FC
  8
0
 10
4459.2284035452748867
 20
232.7409959192582107
 30
0.0
 40
0.0437397475046523
 50
181.6430958706255012
 51
212.1868863982859921
  0
ARC
  5
85FD
  8
0
 10
4459.2258662847270898
 20
232.7468284800019092
 30
0.0
 40
0.0451394027861245
 50
220.1939979428046001
 51
272.7760607260120764
  0
ARC
  5
85FE
  8
0
 10
4459.2626722321765556
 20
235.0955790835450046
 30
0.0
 40
2.3080657229963641
 50
89.995104068787029
 51
111.5173588523959012
  0
ARC
  5
85FF
  8
0
 10
4459.2390172817931671
 20
235.1555773602474915
 30
0.0
 40
2.2435727010098572
 50
111.5173588523959012
 51
128.860541471947414
  0
ARC
  5
8600
  8
0
 10
4459.1816758006943928
 20
235.2267416649679888
 30
0.0
 40
2.1521812149678801
 50
128.860541471947414
 51
163.4532464626283002
  0
ARC
  5
8601
  8
0
 10
4459.0619141416218554
 20
235.2623230108885082
 30
0.0
 40
2.0272456829475769
 50
163.4532464626283002
 51
199.7219874852291923
  0
ARC
  5
8602
  8
0
 10
4459.1926912538156103
 20
235.3092046241561945
 30
0.0
 40
2.1661720617834539
 50
199.7219874852291923
 51
232.5683158401724029
  0
ARC
  5
8603
  8
0
 10
4459.2501140341046266
 20
235.3842244878526913
 30
0.0
 40
2.2606461621769931
 50
232.5683158401724029
 51
268.2840929805158794
  0
ARC
  5
8604
  8
0
 10
4459.2522939080972719
 20
235.1482939533294996
 30
0.0
 40
0.2678476899995219
 50
87.7371772523703441
 51
272.2628227476296274
  0
ARC
  5
8605
  8
0
 10
4459.249697223775911
 20
235.2362028888574059
 30
0.0
 40
1.0922737989703399
 50
209.5475981518821982
 51
270.6909729469593913
  0
ARC
  5
8606
  8
0
 10
4459.1763893766601541
 20
235.1946468725739976
 30
0.0
 40
1.0080067061172959
 50
158.4723989270572133
 51
209.5475981518821982
  0
ARC
  5
8607
  8
0
 10
4459.2518832935738828
 20
235.153525023651099
 30
0.0
 40
1.0933747805913541
 50
89.4300668310777951
 51
157.9195011502922057
  0
ARC
  5
8608
  8
0
 10
4459.2620598678004171
 20
235.1345159228486921
 30
0.0
 40
0.6621379843437253
 50
89.929945059886947
 51
138.3513205166630939
  0
ARC
  5
8609
  8
0
 10
4459.2166350667366714
 20
235.1749150162233946
 30
0.0
 40
0.6013473658472498
 50
138.3513205166630939
 51
218.5936270142597095
  0
ARC
  5
860A
  8
0
 10
4459.263610360734674
 20
235.2124063467296935
 30
0.0
 40
0.6614495963329281
 50
218.5936270142597095
 51
269.9358217388918888
  0
ARC
  5
860B
  8
0
 10
4459.5879227382356476
 20
234.3289563588361943
 30
0.0
 40
0.0593616714198135
 50
226.4715619773211017
 51
286.1996944231001976
  0
ARC
  5
860C
  8
0
 10
4459.6287206917168078
 20
234.371906045524014
 30
0.0
 40
0.1185997385295324
 50
200.7068202818931866
 51
226.4716709464678956
  0
ARC
  5
860D
  8
0
 10
4459.6034906114091427
 20
234.3623689603496985
 30
0.0
 40
0.0916272906249142
 50
156.1537749187554027
 51
200.7068202818917086
  0
ARC
  5
860E
  8
0
 10
4459.5715196469072907
 20
234.3765006578807117
 30
0.0
 40
0.0566723561188443
 50
110.4346082219085048
 51
156.1537749187554027
  0
ARC
  5
860F
  8
0
 10
4459.5677645354862761
 20
234.3696208950892981
 30
0.0
 40
0.062091069740502
 50
41.7800521671737783
 51
104.9627624129362005
  0
ARC
  5
8610
  8
0
 10
4459.5408966817321925
 20
234.3384861257351872
 30
0.0
 40
0.1030081670153899
 50
18.0878377325843793
 51
44.7383308634905177
  0
ARC
  5
8611
  8
0
 10
4459.5569694519354016
 20
234.3395927206948102
 30
0.0
 40
0.0874748160700403
 50
323.2309892313516002
 51
20.668272535174161
  0
ARC
  5
8612
  8
0
 10
4459.5833681083331612
 20
234.3274169613029017
 30
0.0
 40
0.0593487631716519
 50
290.8418774710347066
 51
317.381535964051011
  0
ARC
  5
8613
  8
0
 10
4459.5842289423808324
 20
234.3333152293645014
 30
0.0
 40
0.0456391426111454
 50
108.8299013391280994
 51
184.3600807292629042
  0
ARC
  5
8614
  8
0
 10
4459.5784268106162926
 20
234.3328730081404103
 30
0.0
 40
0.0398201828592598
 50
184.3603135665993875
 51
208.7257933842469129
  0
ARC
  5
8615
  8
0
 10
4459.5815676559286658
 20
234.337276628177392
 30
0.0
 40
0.0447527985365631
 50
211.7385339049448021
 51
289.7855118052357284
  0
ARC
  5
8616
  8
0
 10
4459.5837305365630527
 20
234.3331484651108099
 30
0.0
 40
0.0456391426111465
 50
32.6399192707500987
 51
108.1700986608617967
  0
ARC
  5
8617
  8
0
 10
4459.5886304604009638
 20
234.3362871016001066
 30
0.0
 40
0.0398201828592598
 50
8.2742066157633545
 51
32.639686433400442
  0
ARC
  5
8618
  8
0
 10
4459.583471905109036
 20
234.3379137810402995
 30
0.0
 40
0.0447527985365634
 50
287.2144881947850763
 51
5.2614660950471759
  0
ARC
  5
8619
  8
0
 10
4459.5592682495644112
 20
234.4070944084365919
 30
0.0
 40
0.0417356560081846
 50
260.411118279328889
 51
316.5852605181527224
  0
ARC
  5
861A
  8
0
 10
4459.2604940611627171
 20
235.1214660128941887
 30
0.0
 40
0.6089565646631808
 50
89.7767839710686673
 51
134.7747857159363889
  0
ARC
  5
861B
  8
0
 10
4459.2280798058363871
 20
235.1541358129148875
 30
0.0
 40
0.5629348330377023
 50
134.7747652389834059
 51
185.1736061161809914
  0
ARC
  5
861C
  8
0
 10
4459.2191617349362787
 20
235.1556760544360998
 30
0.0
 40
0.5541969157144202
 50
185.4153363060688093
 51
219.5463066705709991
  0
ARC
  5
861D
  8
0
 10
4459.2495786668596338
 20
235.1791492970617981
 30
0.0
 40
2.5125450743774072
 50
63.0609116128418918
 51
89.6994326061681448
  0
ARC
  5
861E
  8
0
 10
4459.2951356607436537
 20
235.2993936847925056
 30
0.0
 40
2.3847495791897142
 50
41.0223398487561823
 51
62.7278545078999272
  0
ARC
  5
861F
  8
0
 10
4459.3410765465851
 20
235.3393609465458098
 30
0.0
 40
2.3238566649561831
 50
4.4045338270061363
 51
41.0223398487561823
  0
ARC
  5
8620
  8
0
 10
4459.4157404970192147
 20
235.3451119676176972
 30
0.0
 40
2.2489715547015452
 50
325.8112903767748776
 51
4.4045338270061363
  0
ARC
  5
8621
  8
0
 10
4459.2053175492037553
 20
235.4880546479593875
 30
0.0
 40
2.5033539967662222
 50
297.2972711061473774
 51
325.8112903767748776
  0
ARC
  5
8622
  8
0
 10
4459.2562882884667488
 20
235.4817187013844944
 30
0.0
 40
2.4747111398332962
 50
272.0124006821068861
 51
296.3158140599671242
  0
ARC
  5
8623
  8
0
 10
4459.2335807739891607
 20
235.0090333119865136
 30
0.0
 40
2.5629436744627339
 50
60.1750397819254985
 51
89.3476901047190069
  0
ARC
  5
8624
  8
0
 10
4459.3227405363877551
 20
235.2222466136144021
 30
0.0
 40
2.3338033070442941
 50
37.912849033128488
 51
59.470632109485642
  0
ARC
  5
8625
  8
0
 10
4459.3970102541361484
 20
235.2800907654188052
 30
0.0
 40
2.2396654460519132
 50
1.111673405853006
 51
37.912849033128488
  0
ARC
  5
8626
  8
0
 10
4459.405864650761032
 20
235.2802625831805869
 30
0.0
 40
2.2308093825407229
 50
336.0750917920158258
 51
1.111673405853006
  0
ARC
  5
8627
  8
0
 10
4459.2655257013911978
 20
235.1106529589200989
 30
0.0
 40
2.2446695588638899
 50
54.8450727888995431
 51
90.0678013593787341
  0
ARC
  5
8628
  8
0
 10
4459.3426655544853929
 20
235.2201885062443978
 30
0.0
 40
2.1106971995395418
 50
24.2820211931413503
 51
54.8450727888995431
  0
ARC
  5
8629
  8
0
 10
4459.4298153631370951
 20
235.2595052365512913
 30
0.0
 40
2.0150891746136992
 50
359.9750013942327769
 51
24.2820211931413503
  0
ARC
  5
862A
  8
0
 10
4459.4051134111987267
 20
235.2595160142107886
 30
0.0
 40
2.0397911289029689
 50
319.0475620799292074
 51
359.9750013942327769
  0
ARC
  5
862B
  8
0
 10
4459.2798358096451921
 20
235.3682357239447924
 30
0.0
 40
2.2056659393351579
 50
282.557795749725301
 51
319.0475620799292074
  0
ARC
  5
862C
  8
0
 10
4459.2572848955860536
 20
235.4694729395262129
 30
0.0
 40
2.3093843925802831
 50
272.650323029957292
 51
282.557795749725301
  0
ARC
  5
862D
  8
0
 10
4459.3633644007986732
 20
233.1352980936021027
 30
0.0
 40
0.0272698783918806
 50
88.5137899653009868
 51
125.602070591534698
  0
ARC
  5
862E
  8
0
 10
4459.3520724521822558
 20
233.151568110326906
 30
0.0
 40
0.0074730667541899
 50
127.8289205786951044
 51
174.2689411155708967
  0
ARC
  5
862F
  8
0
 10
4455.2291386454626263
 20
232.8621210604250962
 30
0.0
 40
4.1137392149867926
 50
358.2952607307050243
 51
0.1591902010300113
  0
ARC
  5
8630
  8
0
 10
4472.3057656008213598
 20
232.9095667657811077
 30
0.0
 40
12.9629536518246908
 50
179.5625649175852914
 51
180.1591902010299862
  0
ARC
  5
8631
  8
0
 10
4450.4667421401618412
 20
233.0763040145891125
 30
0.0
 40
8.8767063048996597
 50
359.5625649175852914
 51
0.3116824166805125
  0
ARC
  5
8632
  8
0
 10
4451.6112025500497111
 20
233.5065480364463895
 30
0.0
 40
7.7415428608393233
 50
357.1719648186514178
 51
357.3773722844128997
  0
ARC
  5
8633
  8
0
 10
4459.2973353680617947
 20
232.7409959192582107
 30
0.0
 40
0.0437397475046523
 50
327.8131136017140079
 51
358.3569041293745272
  0
ARC
  5
8634
  8
0
 10
4459.302486366013909
 20
232.7414728256408978
 30
0.0
 40
0.0397591969420021
 50
272.1665431478182882
 51
323.2726531243669115
  0
ARC
  5
8635
  8
0
 10
4459.2630666811601259
 20
235.0955790835450046
 30
0.0
 40
2.3080657229963641
 50
68.482641147604042
 51
90.0048959312129853
  0
ARC
  5
8636
  8
0
 10
4459.2867216315453334
 20
235.1555773602474915
 30
0.0
 40
2.2435727010098572
 50
51.1394585280526073
 51
68.482641147604042
  0
ARC
  5
8637
  8
0
 10
4459.3440631126431981
 20
235.2267416649679888
 30
0.0
 40
2.1521812149678801
 50
16.5467535373717105
 51
51.1394585280526073
  0
ARC
  5
8638
  8
0
 10
4459.4638247717148261
 20
235.2623230108885082
 30
0.0
 40
2.0272456829475769
 50
340.2780125147708077
 51
16.5467535373717105
  0
ARC
  5
8639
  8
0
 10
4459.3330476595210712
 20
235.3092046241561945
 30
0.0
 40
2.1661720617834539
 50
307.4316841598264887
 51
340.2780125147708077
  0
ARC
  5
863A
  8
0
 10
4459.2756248792311453
 20
235.3842244878526913
 30
0.0
 40
2.2606461621769931
 50
271.7159070194841206
 51
307.4316841598264887
  0
ARC
  5
863B
  8
0
 10
4459.273445005240319
 20
235.1482939533294996
 30
0.0
 40
0.2678476899995219
 50
267.7371772523703157
 51
92.2628227476296559
  0
ARC
  5
863C
  8
0
 10
4459.27604168956168
 20
235.2362028888574059
 30
0.0
 40
1.0922737989703399
 50
269.309027053040495
 51
330.4524018481178018
  0
ARC
  5
863D
  8
0
 10
4459.3493495366747084
 20
235.1946468725739976
 30
0.0
 40
1.0080067061172959
 50
330.4524018481178018
 51
21.5276010729427512
  0
ARC
  5
863E
  8
0
 10
4459.2738504379913138
 20
235.1535207972281114
 30
0.0
 40
1.0933811710658909
 50
22.0806020074074105
 51
90.5812202569678675
  0
ARC
  5
863F
  8
0
 10
4459.2636790455371738
 20
235.1345159228486921
 30
0.0
 40
0.6621379843437253
 50
41.6486794833368492
 51
90.070054940113053
  0
ARC
  5
8640
  8
0
 10
4459.30910384660001
 20
235.1749150162233946
 30
0.0
 40
0.6013473658472498
 50
321.4063729857401768
 51
41.6486794833368492
  0
ARC
  5
8641
  8
0
 10
4459.2621285526029169
 20
235.2124063467296935
 30
0.0
 40
0.6614495963329281
 50
270.0641782611081112
 51
321.4063729857401768
  0
ARC
  5
8642
  8
0
 10
4459.2652409791271566
 20
235.121465966135105
 30
0.0
 40
0.6089566196747955
 50
45.2252153136718817
 51
90.2234152368781963
  0
ARC
  5
8643
  8
0
 10
4459.2976552654326952
 20
235.1541358129148875
 30
0.0
 40
0.5629348330377023
 50
354.8263938838172749
 51
45.2252347610165728
  0
ARC
  5
8644
  8
0
 10
4460.0440102718330309
 20
234.6960873356937043
 30
0.0
 40
0.1120830224936187
 50
62.3097563908111525
 51
104.8529403695999065
  0
ARC
  5
8645
  8
0
 10
4460.1050163466998129
 20
234.8123348768486949
 30
0.0
 40
0.0192
 50
242.3097563908112022
 51
244.1312488374096006
  0
ARC
  5
8646
  8
0
 10
4460.0277503408533448
 20
234.7573992641208918
 30
0.0
 40
0.0486516586192756
 50
104.8529403695999065
 51
193.2515878489799945
  0
ARC
  5
8647
  8
0
 10
4460.0717339530829122
 20
234.7769968702594952
 30
0.0
 40
0.096376961280975
 50
198.6060021669906916
 51
246.0111408761885059
  0
ARC
  5
8648
  8
0
 10
4460.0837373013955585
 20
234.7874065955450078
 30
0.0
 40
0.1109721387823567
 50
242.5319872863103114
 51
285.3256182731093986
  0
ARC
  5
8649
  8
0
 10
4460.100636494864375
 20
234.727743536452806
 30
0.0
 40
0.0489670660574978
 50
284.7065782522802238
 51
37.7431210295762227
  0
ARC
  5
864A
  8
0
 10
4460.0496971570073583
 20
234.6982511928717088
 30
0.0
 40
0.1075884052189467
 50
33.5537632237711065
 51
64.1312488374096006
  0
ARC
  5
864B
  8
0
 10
4460.0766769421561548
 20
234.7338152570675902
 30
0.0
 40
0.0369086135046815
 50
228.4333288670142963
 51
256.6002558976250043
  0
ARC
  5
864C
  8
0
 10
4460.0811317630868871
 20
234.7372326878245872
 30
0.0
 40
0.0414170855314769
 50
251.6948972873018988
 51
43.1823084958745298
  0
ARC
  5
864D
  8
0
 10
4460.0813630325919803
 20
234.7311063132598861
 30
0.0
 40
0.0456756724210247
 50
48.9945113055249521
 51
125.2174940190870984
  0
ARC
  5
864E
  8
0
 10
4460.0782193441636991
 20
234.7361895495776878
 30
0.0
 40
0.0397115789407038
 50
125.741401773079005
 51
229.041318692944003
  0
ARC
  5
864F
  8
0
 10
4459.2617049745276745
 20
234.3859418763341864
 30
0.0
 40
0.1254646004586458
 50
205.5914199448637021
 51
270.4814116589608943
  0
ARC
  5
8650
  8
0
 10
4459.2592581085009442
 20
234.3799192832175891
 30
0.0
 40
0.1207356022460724
 50
88.3383308165767858
 51
203.5148623029438113
  0
ARC
  5
8651
  8
0
 10
4459.2620697602478685
 20
234.3793418296345976
 30
0.0
 40
0.0746401190865568
 50
195.0041181459446875
 51
270.5291965044791027
  0
ARC
  5
8652
  8
0
 10
4459.2608918925207035
 20
234.3758698347693894
 30
0.0
 40
0.0726675291032535
 50
88.5275768108738959
 51
192.5996292157913956
  0
ARC
  5
8653
  8
0
 10
4459.262540237590656
 20
234.4167549320654871
 30
0.0
 40
0.0920956416275264
 50
217.9974919650489085
 51
270.1361885757227128
  0
LINE
  5
8654
  8
0
 10
4459.2327817813111324
 20
234.3792332032504078
 30
0.0
 11
4459.2322321427118368
 21
234.3603181064503929
 31
0.0
  0
LINE
  5
8655
  8
0
 10
4459.2322321427118368
 20
234.3603181064503929
 30
0.0
 11
4459.2440385614108891
 21
234.360001098550299
 31
0.0
  0
LINE
  5
8656
  8
0
 10
4459.2440385614108891
 20
234.360001098550299
 30
0.0
 11
4459.2445881999101402
 21
234.3789161953503992
 31
0.0
  0
LINE
  5
8657
  8
0
 10
4459.2445881999101402
 20
234.3789161953503992
 30
0.0
 11
4459.2327817813111324
 21
234.3792332032504078
 31
0.0
  0
LINE
  5
8658
  8
0
 10
4459.2326470142015751
 20
234.374595368637614
 30
0.0
 11
4459.2444526760546069
 21
234.3742523174578025
 31
0.0
  0
LINE
  5
8659
  8
0
 10
4459.2320122873607033
 20
234.3527520677504015
 30
0.0
 11
4459.2314626487614078
 21
234.3338369709503866
 31
0.0
  0
LINE
  5
865A
  8
0
 10
4459.2314626487614078
 20
234.3338369709503866
 30
0.0
 11
4459.2432690674613696
 21
234.3335199630504064
 31
0.0
  0
LINE
  5
865B
  8
0
 10
4459.2432690674613696
 20
234.3335199630504064
 30
0.0
 11
4459.2438187059606207
 21
234.3524350598503077
 31
0.0
  0
LINE
  5
865C
  8
0
 10
4459.2438187059606207
 20
234.3524350598503077
 30
0.0
 11
4459.2320122873607033
 21
234.3527520677504015
 31
0.0
  0
LINE
  5
865D
  8
0
 10
4459.2318775202511461
 20
234.348114233137693
 30
0.0
 11
4459.2436831821059968
 21
234.3477711819577962
 31
0.0
  0
LINE
  5
865E
  8
0
 10
4459.2334928543814385
 20
234.4057159072785055
 30
0.0
 11
4459.2329432157812334
 21
234.3868008104784906
 31
0.0
  0
LINE
  5
865F
  8
0
 10
4459.2329432157812334
 20
234.3868008104784906
 30
0.0
 11
4459.2447496344811952
 21
234.3864838025785104
 31
0.0
  0
LINE
  5
8660
  8
0
 10
4459.2447496344811952
 20
234.3864838025785104
 30
0.0
 11
4459.2452992729813559
 21
234.4053988993784969
 31
0.0
  0
LINE
  5
8661
  8
0
 10
4459.2452992729813559
 20
234.4053988993784969
 30
0.0
 11
4459.2334928543814385
 21
234.4057159072785055
 31
0.0
  0
LINE
  5
8662
  8
0
 10
4459.2333580872718812
 20
234.401078072665797
 30
0.0
 11
4459.2451637491258225
 21
234.4007350214860139
 31
0.0
  0
LINE
  5
8663
  8
0
 10
4459.2343207692611031
 20
234.4321954741504044
 30
0.0
 11
4459.2337711306608981
 21
234.4132803773503895
 31
0.0
  0
LINE
  5
8664
  8
0
 10
4459.2337711306608981
 20
234.4132803773503895
 30
0.0
 11
4459.2455775493617693
 21
234.4129633694504093
 31
0.0
  0
LINE
  5
8665
  8
0
 10
4459.2455775493617693
 20
234.4129633694504093
 30
0.0
 11
4459.2461271878610205
 21
234.4318784662503958
 31
0.0
  0
LINE
  5
8666
  8
0
 10
4459.2461271878610205
 20
234.4318784662503958
 30
0.0
 11
4459.2343207692611031
 21
234.4321954741504044
 31
0.0
  0
LINE
  5
8667
  8
0
 10
4459.2341860021506363
 20
234.4275576395376106
 30
0.0
 11
4459.2459916640045776
 21
234.4272145883579128
 31
0.0
  0
LINE
  5
8668
  8
0
 10
4459.1967115889110573
 20
234.3809289906504034
 30
0.0
 11
4459.1961619503117618
 21
234.3620138938503885
 31
0.0
  0
LINE
  5
8669
  8
0
 10
4459.1961619503117618
 20
234.3620138938503885
 30
0.0
 11
4459.2079683690108141
 21
234.3616968859504084
 31
0.0
  0
LINE
  5
866A
  8
0
 10
4459.2079683690108141
 20
234.3616968859504084
 30
0.0
 11
4459.2085180075100652
 21
234.3806119827503949
 31
0.0
  0
LINE
  5
866B
  8
0
 10
4459.2085180075100652
 20
234.3806119827503949
 30
0.0
 11
4459.1967115889110573
 21
234.3809289906504034
 31
0.0
  0
LINE
  5
866C
  8
0
 10
4459.1965768218024095
 20
234.3762911560376097
 30
0.0
 11
4459.2083824836554413
 21
234.3759481048579119
 31
0.0
  0
LINE
  5
866D
  8
0
 10
4459.1986340114117411
 20
234.4073559228503996
 30
0.0
 11
4459.1980843728106265
 21
234.3884408260504131
 31
0.0
  0
LINE
  5
866E
  8
0
 10
4459.1980843728106265
 20
234.3884408260504131
 30
0.0
 11
4459.2098907915124073
 21
234.3881238181504045
 31
0.0
  0
LINE
  5
866F
  8
0
 10
4459.2098907915124073
 20
234.3881238181504045
 30
0.0
 11
4459.2104404300116585
 21
234.407038914950391
 31
0.0
  0
LINE
  5
8670
  8
0
 10
4459.2104404300116585
 20
234.407038914950391
 30
0.0
 11
4459.1986340114117411
 21
234.4073559228503996
 31
0.0
  0
LINE
  5
8671
  8
0
 10
4459.1984992443021838
 20
234.4027180882376058
 30
0.0
 11
4459.2103049061561251
 21
234.4023750370577943
 31
0.0
  0
LINE
  5
8672
  8
0
 10
4459.1996044338138745
 20
234.4149136203342039
 30
0.0
 11
4459.2108816647469212
 21
234.4146108213747937
 31
0.0
  0
LINE
  5
8673
  8
0
 10
4459.2108816647469212
 20
234.4146108213747937
 30
0.0
 11
4459.2112993324071795
 21
234.42898431271459
 31
0.0
  0
LINE
  5
8674
  8
0
 10
4459.1947891664112831
 20
234.3545020585004011
 30
0.0
 11
4459.1947855545931816
 21
234.3543777624705058
 31
0.0
  0
LINE
  5
8675
  8
0
 10
4459.2062946857058705
 20
234.3438299908922886
 30
0.0
 11
4459.2065955850112005
 21
234.3541850506003072
 31
0.0
  0
LINE
  5
8676
  8
0
 10
4459.2065955850112005
 20
234.3541850506003072
 30
0.0
 11
4459.1947891664112831
 21
234.3545020585004011
 31
0.0
  0
LINE
  5
8677
  8
0
 10
4459.199382964099641
 20
234.349726820347513
 30
0.0
 11
4459.2064600611556671
 21
234.3495211727077958
 31
0.0
  0
LINE
  5
8678
  8
0
 10
4459.2351320978068543
 20
234.4438183650132999
 30
0.0
 11
4459.2350183774242396
 21
234.4399048260902987
 31
0.0
  0
LINE
  5
8679
  8
0
 10
4459.2350183774242396
 20
234.4399048260902987
 30
0.0
 11
4459.2468247961242014
 21
234.4395878181904038
 31
0.0
  0
LINE
  5
867A
  8
0
 10
4459.2468247961242014
 20
234.4395878181904038
 30
0.0
 11
4459.2470461702287139
 21
234.4472061211895095
 31
0.0
  0
ARC
  5
867B
  8
0
 10
4459.2638133116961399
 20
234.3859418763341864
 30
0.0
 40
0.1254646004586458
 50
269.5185883410391057
 51
334.4085800551363263
  0
ARC
  5
867C
  8
0
 10
4459.2662601777210512
 20
234.3799192832175891
 30
0.0
 40
0.1207356022460724
 50
336.4851376970547108
 51
91.6616691834232142
  0
ARC
  5
867D
  8
0
 10
4459.2634485259741268
 20
234.3793418296345976
 30
0.0
 40
0.0746401190865568
 50
269.4708034955208973
 51
344.9958818540553125
  0
ARC
  5
867E
  8
0
 10
4459.2646263937022013
 20
234.3758698347693894
 30
0.0
 40
0.0726675291032538
 50
347.400370784208576
 51
91.4724231891261041
  0
ARC
  5
867F
  8
0
 10
4459.2629780486331583
 20
234.4167549320654871
 30
0.0
 40
0.0920956416275293
 50
269.8638114242772872
 51
322.0025080349511768
  0
LINE
  5
8680
  8
0
 10
4459.2927365049117725
 20
234.3792332032504078
 30
0.0
 11
4459.2932861435110681
 21
234.3603181064503929
 31
0.0
  0
LINE
  5
8681
  8
0
 10
4459.2932861435110681
 20
234.3603181064503929
 30
0.0
 11
4459.2814797248101968
 21
234.360001098550299
 31
0.0
  0
LINE
  5
8682
  8
0
 10
4459.2814797248101968
 20
234.360001098550299
 30
0.0
 11
4459.2809300863109456
 21
234.3789161953503992
 31
0.0
  0
LINE
  5
8683
  8
0
 10
4459.2809300863109456
 20
234.3789161953503992
 30
0.0
 11
4459.2927365049117725
 21
234.3792332032504078
 31
0.0
  0
LINE
  5
8684
  8
0
 10
4459.2928712720222393
 20
234.374595368637614
 30
0.0
 11
4459.2810656101673885
 21
234.3742523174578025
 31
0.0
  0
LINE
  5
8685
  8
0
 10
4459.293505998861292
 20
234.3527520677504015
 30
0.0
 11
4459.2940556374605876
 21
234.3338369709503866
 31
0.0
  0
LINE
  5
8686
  8
0
 10
4459.2940556374605876
 20
234.3338369709503866
 30
0.0
 11
4459.2822492187624448
 21
234.3335199630504064
 31
0.0
  0
LINE
  5
8687
  8
0
 10
4459.2822492187624448
 20
234.3335199630504064
 30
0.0
 11
4459.2816995802613746
 21
234.3524350598503077
 31
0.0
  0
LINE
  5
8688
  8
0
 10
4459.2816995802613746
 20
234.3524350598503077
 30
0.0
 11
4459.293505998861292
 21
234.3527520677504015
 31
0.0
  0
LINE
  5
8689
  8
0
 10
4459.2936407659699398
 20
234.348114233137693
 30
0.0
 11
4459.281835104116908
 21
234.3477711819577962
 31
0.0
  0
LINE
  5
868A
  8
0
 10
4459.2920254318405568
 20
234.4057159072785055
 30
0.0
 11
4459.2925750704407619
 21
234.3868008104784906
 31
0.0
  0
LINE
  5
868B
  8
0
 10
4459.2925750704407619
 20
234.3868008104784906
 30
0.0
 11
4459.2807686517408001
 21
234.3864838025785104
 31
0.0
  0
LINE
  5
868C
  8
0
 10
4459.2807686517408001
 20
234.3864838025785104
 30
0.0
 11
4459.2802190132406395
 21
234.4053988993784969
 31
0.0
  0
LINE
  5
868D
  8
0
 10
4459.2802190132406395
 20
234.4053988993784969
 30
0.0
 11
4459.2920254318405568
 21
234.4057159072785055
 31
0.0
  0
LINE
  5
868E
  8
0
 10
4459.2921601989510236
 20
234.401078072665797
 30
0.0
 11
4459.2803545370970824
 21
234.4007350214860139
 31
0.0
  0
LINE
  5
868F
  8
0
 10
4459.2911975169618017
 20
234.4321954741504044
 30
0.0
 11
4459.2917471555601878
 21
234.4132803773503895
 31
0.0
  0
LINE
  5
8690
  8
0
 10
4459.2917471555601878
 20
234.4132803773503895
 30
0.0
 11
4459.2799407368611355
 21
234.4129633694504093
 31
0.0
  0
LINE
  5
8691
  8
0
 10
4459.2799407368611355
 20
234.4129633694504093
 30
0.0
 11
4459.2793910983618844
 21
234.4318784662503958
 31
0.0
  0
LINE
  5
8692
  8
0
 10
4459.2793910983618844
 20
234.4318784662503958
 30
0.0
 11
4459.2911975169618017
 21
234.4321954741504044
 31
0.0
  0
LINE
  5
8693
  8
0
 10
4459.291332284071359
 20
234.4275576395376106
 30
0.0
 11
4459.2795266222174178
 21
234.4272145883579128
 31
0.0
  0
LINE
  5
8694
  8
0
 10
4459.328806697310938
 20
234.3809289906504034
 30
0.0
 11
4459.3293563359111431
 21
234.3620138938503885
 31
0.0
  0
LINE
  5
8695
  8
0
 10
4459.3293563359111431
 20
234.3620138938503885
 30
0.0
 11
4459.3175499172111813
 21
234.3616968859504084
 31
0.0
  0
LINE
  5
8696
  8
0
 10
4459.3175499172111813
 20
234.3616968859504084
 30
0.0
 11
4459.3170002787110207
 21
234.3806119827503949
 31
0.0
  0
LINE
  5
8697
  8
0
 10
4459.3170002787110207
 20
234.3806119827503949
 30
0.0
 11
4459.328806697310938
 21
234.3809289906504034
 31
0.0
  0
LINE
  5
8698
  8
0
 10
4459.3289414644223143
 20
234.3762911560376097
 30
0.0
 11
4459.317135802566554
 21
234.3759481048579119
 31
0.0
  0
LINE
  5
8699
  8
0
 10
4459.3268842748111638
 20
234.4073559228503996
 30
0.0
 11
4459.3274339134113688
 21
234.3884408260504131
 31
0.0
  0
LINE
  5
869A
  8
0
 10
4459.3274339134113688
 20
234.3884408260504131
 30
0.0
 11
4459.3156274947114071
 21
234.3881238181504045
 31
0.0
  0
LINE
  5
869B
  8
0
 10
4459.3156274947114071
 20
234.3881238181504045
 30
0.0
 11
4459.3150778562112464
 21
234.407038914950391
 31
0.0
  0
LINE
  5
869C
  8
0
 10
4459.3150778562112464
 20
234.407038914950391
 30
0.0
 11
4459.3268842748111638
 21
234.4073559228503996
 31
0.0
  0
LINE
  5
869D
  8
0
 10
4459.3270190419198116
 20
234.4027180882376058
 30
0.0
 11
4459.3152133800667798
 21
234.4023750370577943
 31
0.0
  0
LINE
  5
869E
  8
0
 10
4459.3259138524090304
 20
234.4149136203342039
 30
0.0
 11
4459.3146366214750742
 21
234.4146108213747937
 31
0.0
  0
LINE
  5
869F
  8
0
 10
4459.3146366214750742
 20
234.4146108213747937
 30
0.0
 11
4459.3142189538148159
 21
234.42898431271459
 31
0.0
  0
LINE
  5
86A0
  8
0
 10
4459.3307291198116218
 20
234.3545020585004011
 30
0.0
 11
4459.3307327316288138
 21
234.3543777624705058
 31
0.0
  0
LINE
  5
86A1
  8
0
 10
4459.3192236005170344
 20
234.3438299908922886
 30
0.0
 11
4459.3189227012107949
 21
234.3541850506003072
 31
0.0
  0
LINE
  5
86A2
  8
0
 10
4459.3189227012107949
 20
234.3541850506003072
 30
0.0
 11
4459.3307291198116218
 21
234.3545020585004011
 31
0.0
  0
LINE
  5
86A3
  8
0
 10
4459.3261353221223544
 20
234.349726820347513
 30
0.0
 11
4459.3190582250672378
 21
234.3495211727077958
 31
0.0
  0
LINE
  5
86A4
  8
0
 10
4459.2903861884151411
 20
234.4438183650132999
 30
0.0
 11
4459.2904999087977558
 21
234.4399048260902987
 31
0.0
  0
LINE
  5
86A5
  8
0
 10
4459.2904999087977558
 20
234.4399048260902987
 30
0.0
 11
4459.278693490097794
 21
234.4395878181904038
 31
0.0
  0
LINE
  5
86A6
  8
0
 10
4459.278693490097794
 20
234.4395878181904038
 30
0.0
 11
4459.2784721159932815
 21
234.4472061211895095
 31
0.0
  0
ARC
  5
86A7
  8
0
 10
4459.7949238974251784
 20
234.5706485857687085
 30
0.0
 40
0.1248978714592525
 50
251.2251973512099141
 51
338.9205260645402973
  0
ARC
  5
86A8
  8
0
 10
4459.7944343951876363
 20
234.5692086069043967
 30
0.0
 40
0.1233769666067412
 50
160.2610908258286031
 51
251.2251973512099141
  0
ARC
  5
86A9
  8
0
 10
4459.7944021529183374
 20
234.5602028692950967
 30
0.0
 40
0.1266728300485055
 50
72.3585404177754725
 51
156.4192221398884044
  0
ARC
  5
86AA
  8
0
 10
4459.7992652969023766
 20
234.5663861857453014
 30
0.0
 40
0.1193384151134224
 50
340.0804265910554136
 51
73.6840192909646561
  0
ARC
  5
86AB
  8
0
 10
4459.7906207368805553
 20
234.5628888437722139
 30
0.0
 40
0.0713339008716047
 50
98.2515495158476568
 51
222.4981079460812907
  0
ARC
  5
86AC
  8
0
 10
4459.7934897768973315
 20
234.5655176602884069
 30
0.0
 40
0.0752251817518009
 50
222.4981079460812907
 51
7.8215209232533418
  0
ARC
  5
86AD
  8
0
 10
4459.7942443709443978
 20
234.5591489226445105
 30
0.0
 40
0.075616676704743
 50
12.6859574715983801
 51
100.5627245672479972
  0
ARC
  5
86AE
  8
0
 10
4459.7942032855626167
 20
234.6031599624824082
 30
0.0
 40
0.0926383326640349
 50
218.1178976430047101
 51
320.4336279369850899
  0
LINE
  5
86AF
  8
0
 10
4459.7414943588109963
 20
234.582930862650386
 30
0.0
 11
4459.7506807798308728
 21
234.5900801343123021
 31
0.0
  0
LINE
  5
86B0
  8
0
 10
4459.7506807798308728
 20
234.5900801343123021
 30
0.0
 11
4459.7627436191105517
 21
234.5745800490504109
 31
0.0
  0
LINE
  5
86B1
  8
0
 10
4459.7627436191105517
 20
234.5745800490504109
 30
0.0
 11
4459.7532861619120013
 21
234.5677790438504076
 31
0.0
  0
LINE
  5
86B2
  8
0
 10
4459.7532861619120013
 20
234.5677790438504076
 30
0.0
 11
4459.7414943588109963
 21
234.582930862650386
 31
0.0
  0
LINE
  5
86B3
  8
0
 10
4459.7430722851340761
 20
234.5841588734203071
 30
0.0
 11
4459.7532861619120013
 21
234.5710346031503946
 31
0.0
  0
LINE
  5
86B4
  8
0
 10
4459.7532861619120013
 20
234.5710346031503946
 30
0.0
 11
4459.7532861619120013
 21
234.5677790438504076
 31
0.0
  0
LINE
  5
86B5
  8
0
 10
4459.7532861619120013
 20
234.5710346031503946
 30
0.0
 11
4459.7611191376518036
 21
234.5766674184127112
 31
0.0
  0
LINE
  5
86B6
  8
0
 10
4459.7580028831616801
 20
234.561718316350408
 30
0.0
 11
4459.7671893041797375
 21
234.5688675880122958
 31
0.0
  0
LINE
  5
86B7
  8
0
 10
4459.7671893041797375
 20
234.5688675880122958
 30
0.0
 11
4459.7792521434612354
 21
234.5533675027504046
 31
0.0
  0
LINE
  5
86B8
  8
0
 10
4459.7792521434612354
 20
234.5533675027504046
 30
0.0
 11
4459.7697946862617755
 21
234.5465664975504012
 31
0.0
  0
LINE
  5
86B9
  8
0
 10
4459.7697946862617755
 20
234.5465664975504012
 30
0.0
 11
4459.7580028831616801
 21
234.561718316350408
 31
0.0
  0
LINE
  5
86BA
  8
0
 10
4459.7595808094838503
 20
234.5629463271203008
 30
0.0
 11
4459.7697946862617755
 21
234.5498220568503029
 31
0.0
  0
LINE
  5
86BB
  8
0
 10
4459.7697946862617755
 20
234.5498220568503029
 30
0.0
 11
4459.7697946862617755
 21
234.5465664975504012
 31
0.0
  0
LINE
  5
86BC
  8
0
 10
4459.7697946862617755
 20
234.5498220568503029
 30
0.0
 11
4459.7776276620015778
 21
234.5554548721127048
 31
0.0
  0
LINE
  5
86BD
  8
0
 10
4459.774511407560567
 20
234.5405057699504141
 30
0.0
 11
4459.7836978285804435
 21
234.5476550416123018
 31
0.0
  0
LINE
  5
86BE
  8
0
 10
4459.7836978285804435
 20
234.5476550416123018
 30
0.0
 11
4459.7957606678610318
 21
234.5321549563504107
 31
0.0
  0
LINE
  5
86BF
  8
0
 10
4459.7957606678610318
 20
234.5321549563504107
 30
0.0
 11
4459.7863032106615719
 21
234.5253539511504073
 31
0.0
  0
LINE
  5
86C0
  8
0
 10
4459.7863032106615719
 20
234.5253539511504073
 30
0.0
 11
4459.774511407560567
 21
234.5405057699504141
 31
0.0
  0
LINE
  5
86C1
  8
0
 10
4459.7760893338836468
 20
234.5417337807203069
 30
0.0
 11
4459.7863032106615719
 21
234.5286095104503943
 31
0.0
  0
LINE
  5
86C2
  8
0
 10
4459.7863032106615719
 20
234.5286095104503943
 30
0.0
 11
4459.7863032106615719
 21
234.5253539511504073
 31
0.0
  0
LINE
  5
86C3
  8
0
 10
4459.7863032106615719
 20
234.5286095104503943
 30
0.0
 11
4459.7941361864022838
 21
234.5342423257127109
 31
0.0
  0
LINE
  5
86C4
  8
0
 10
4459.7911272967712648
 20
234.5192597080474002
 30
0.0
 11
4459.8003137177902317
 21
234.5264089797092879
 31
0.0
  0
LINE
  5
86C5
  8
0
 10
4459.8003137177902317
 20
234.5264089797092879
 30
0.0
 11
4459.8114216805752221
 21
234.512135858246296
 31
0.0
  0
LINE
  5
86C6
  8
0
 10
4459.7978711179011952
 20
234.5105942685958098
 30
0.0
 11
4459.7911272967712648
 21
234.5192597080474002
 31
0.0
  0
LINE
  5
86C7
  8
0
 10
4459.7927052230943445
 20
234.5204877188172929
 30
0.0
 11
4459.8003047240972592
 21
234.5107227777212131
 31
0.0
  0
LINE
  5
86C8
  8
0
 10
4459.8089545397160691
 20
234.511703627657198
 30
0.0
 11
4459.8107520756102531
 21
234.512996263809697
 31
0.0
  0
LINE
  5
86C9
  8
0
 10
4459.8210369305616041
 20
234.5418365883504066
 30
0.0
 11
4459.8302233515796615
 21
234.5489858600122943
 31
0.0
  0
LINE
  5
86CA
  8
0
 10
4459.8302233515796615
 20
234.5489858600122943
 30
0.0
 11
4459.8422861908611594
 21
234.5334857747504032
 31
0.0
  0
LINE
  5
86CB
  8
0
 10
4459.8422861908611594
 20
234.5334857747504032
 30
0.0
 11
4459.8328287336616995
 21
234.5266847695503998
 31
0.0
  0
LINE
  5
86CC
  8
0
 10
4459.8328287336616995
 20
234.5266847695503998
 30
0.0
 11
4459.8210369305616041
 21
234.5418365883504066
 31
0.0
  0
LINE
  5
86CD
  8
0
 10
4459.8226148568846838
 20
234.5430645991202994
 30
0.0
 11
4459.8328287336616995
 21
234.5299403288503868
 31
0.0
  0
LINE
  5
86CE
  8
0
 10
4459.8328287336616995
 20
234.5299403288503868
 30
0.0
 11
4459.8328287336616995
 21
234.5266847695503998
 31
0.0
  0
LINE
  5
86CF
  8
0
 10
4459.8328287336616995
 20
234.5299403288503868
 30
0.0
 11
4459.8406617094005924
 21
234.5355731441127034
 31
0.0
  0
LINE
  5
86D0
  8
0
 10
4459.8036188001606206
 20
234.5623660024504034
 30
0.0
 11
4459.8128052211795875
 21
234.5695152741122911
 31
0.0
  0
LINE
  5
86D1
  8
0
 10
4459.8128052211795875
 20
234.5695152741122911
 30
0.0
 11
4459.8248680604610854
 21
234.5540151888503999
 31
0.0
  0
LINE
  5
86D2
  8
0
 10
4459.8248680604610854
 20
234.5540151888503999
 30
0.0
 11
4459.815410603260716
 21
234.5472141836503965
 31
0.0
  0
LINE
  5
86D3
  8
0
 10
4459.815410603260716
 20
234.5472141836503965
 30
0.0
 11
4459.8036188001606206
 21
234.5623660024504034
 31
0.0
  0
LINE
  5
86D4
  8
0
 10
4459.8051967264837003
 20
234.5635940132202961
 30
0.0
 11
4459.815410603260716
 21
234.550469742950412
 31
0.0
  0
LINE
  5
86D5
  8
0
 10
4459.815410603260716
 20
234.550469742950412
 30
0.0
 11
4459.815410603260716
 21
234.5472141836503965
 31
0.0
  0
LINE
  5
86D6
  8
0
 10
4459.815410603260716
 20
234.550469742950412
 30
0.0
 11
4459.8232435790014279
 21
234.5561025582127002
 31
0.0
  0
LINE
  5
86D7
  8
0
 10
4459.7862006697605466
 20
234.5828954165004063
 30
0.0
 11
4459.7953870907813325
 21
234.5900446881622941
 31
0.0
  0
LINE
  5
86D8
  8
0
 10
4459.7953870907813325
 20
234.5900446881622941
 30
0.0
 11
4459.8074499300601019
 21
234.5745446029004029
 31
0.0
  0
LINE
  5
86D9
  8
0
 10
4459.8074499300601019
 20
234.5745446029004029
 30
0.0
 11
4459.7979924728615515
 21
234.5677435977003995
 31
0.0
  0
LINE
  5
86DA
  8
0
 10
4459.7979924728615515
 20
234.5677435977003995
 30
0.0
 11
4459.7862006697605466
 21
234.5828954165004063
 31
0.0
  0
LINE
  5
86DB
  8
0
 10
4459.7877785960836263
 20
234.5841234272702991
 30
0.0
 11
4459.7979924728615515
 21
234.5709991570003865
 31
0.0
  0
LINE
  5
86DC
  8
0
 10
4459.7979924728615515
 20
234.5709991570003865
 30
0.0
 11
4459.7979924728615515
 21
234.5677435977003995
 31
0.0
  0
LINE
  5
86DD
  8
0
 10
4459.7979924728615515
 20
234.5709991570003865
 30
0.0
 11
4459.8058254486013539
 21
234.5766319722627031
 31
0.0
  0
LINE
  5
86DE
  8
0
 10
4459.7687825393613821
 20
234.6034248306004031
 30
0.0
 11
4459.7779689603812585
 21
234.6105741022622908
 31
0.0
  0
LINE
  5
86DF
  8
0
 10
4459.7779689603812585
 20
234.6105741022622908
 30
0.0
 11
4459.7900317996618469
 21
234.5950740170003996
 31
0.0
  0
LINE
  5
86E0
  8
0
 10
4459.7900317996618469
 20
234.5950740170003996
 30
0.0
 11
4459.780574342460568
 21
234.5882730118003963
 31
0.0
  0
LINE
  5
86E1
  8
0
 10
4459.780574342460568
 20
234.5882730118003963
 30
0.0
 11
4459.7687825393613821
 21
234.6034248306004031
 31
0.0
  0
LINE
  5
86E2
  8
0
 10
4459.7703604656835523
 20
234.6046528413702958
 30
0.0
 11
4459.780574342460568
 21
234.5915285711004117
 31
0.0
  0
LINE
  5
86E3
  8
0
 10
4459.780574342460568
 20
234.5915285711004117
 30
0.0
 11
4459.780574342460568
 21
234.5882730118003963
 31
0.0
  0
LINE
  5
86E4
  8
0
 10
4459.780574342460568
 20
234.5915285711004117
 30
0.0
 11
4459.7884073182012798
 21
234.5971613863626999
 31
0.0
  0
LINE
  5
86E5
  8
0
 10
4459.762589238005603
 20
234.6284842741345926
 30
0.0
 11
4459.7726136693108856
 21
234.6156034310504026
 31
0.0
  0
LINE
  5
86E6
  8
0
 10
4459.7726136693108856
 20
234.6156034310504026
 30
0.0
 11
4459.7631562121114257
 21
234.6088024258503992
 31
0.0
  0
LINE
  5
86E7
  8
0
 10
4459.7631562121114257
 20
234.6088024258503992
 30
0.0
 11
4459.7521421766814456
 21
234.6229548559468014
 31
0.0
  0
LINE
  5
86E8
  8
0
 10
4459.7538503709511133
 20
234.6240154795617059
 30
0.0
 11
4459.7631562121114257
 21
234.6120579851503862
 31
0.0
  0
LINE
  5
86E9
  8
0
 10
4459.7631562121114257
 20
234.6120579851503862
 30
0.0
 11
4459.7631562121114257
 21
234.6088024258503992
 31
0.0
  0
LINE
  5
86EA
  8
0
 10
4459.7631562121114257
 20
234.6120579851503862
 30
0.0
 11
4459.7709891878512281
 21
234.6176908004127029
 31
0.0
  0
LINE
  5
86EB
  8
0
 10
4459.7951540003614355
 20
234.6249992655504002
 30
0.0
 11
4459.8043404213804024
 21
234.6321485372122879
 31
0.0
  0
LINE
  5
86EC
  8
0
 10
4459.8043404213804024
 20
234.6321485372122879
 30
0.0
 11
4459.8164032606609908
 21
234.6166484519503967
 31
0.0
  0
LINE
  5
86ED
  8
0
 10
4459.8164032606609908
 20
234.6166484519503967
 30
0.0
 11
4459.8069458034606214
 21
234.6098474467503081
 31
0.0
  0
LINE
  5
86EE
  8
0
 10
4459.8069458034606214
 20
234.6098474467503081
 30
0.0
 11
4459.7951540003614355
 21
234.6249992655504002
 31
0.0
  0
LINE
  5
86EF
  8
0
 10
4459.7967319266836057
 20
234.6262272763202077
 30
0.0
 11
4459.8069458034606214
 21
234.6131030060504088
 31
0.0
  0
LINE
  5
86F0
  8
0
 10
4459.8069458034606214
 20
234.6131030060504088
 30
0.0
 11
4459.8069458034606214
 21
234.6098474467503081
 31
0.0
  0
LINE
  5
86F1
  8
0
 10
4459.8069458034606214
 20
234.6131030060504088
 30
0.0
 11
4459.8147787792013332
 21
234.618735821312697
 31
0.0
  0
LINE
  5
86F2
  8
0
 10
4459.8134511794623904
 20
234.6051889993503039
 30
0.0
 11
4459.8226376004804479
 21
234.6123382710123053
 31
0.0
  0
LINE
  5
86F3
  8
0
 10
4459.8226376004804479
 20
234.6123382710123053
 30
0.0
 11
4459.8347004397610363
 21
234.5968381857503005
 31
0.0
  0
LINE
  5
86F4
  8
0
 10
4459.8347004397610363
 20
234.5968381857503005
 30
0.0
 11
4459.8252429825606669
 21
234.5900371805504108
 31
0.0
  0
LINE
  5
86F5
  8
0
 10
4459.8252429825606669
 20
234.5900371805504108
 30
0.0
 11
4459.8134511794623904
 21
234.6051889993503039
 31
0.0
  0
LINE
  5
86F6
  8
0
 10
4459.8150291057845607
 20
234.6064170101203104
 30
0.0
 11
4459.8252429825606669
 21
234.5932927398503978
 31
0.0
  0
LINE
  5
86F7
  8
0
 10
4459.8252429825606669
 20
234.5932927398503978
 30
0.0
 11
4459.8252429825606669
 21
234.5900371805504108
 31
0.0
  0
LINE
  5
86F8
  8
0
 10
4459.8252429825606669
 20
234.5932927398503978
 30
0.0
 11
4459.8330759583013787
 21
234.598925555112686
 31
0.0
  0
LINE
  5
86F9
  8
0
 10
4459.8317483585624359
 20
234.5853787330503906
 30
0.0
 11
4459.8409347795795838
 21
234.5925280047123067
 31
0.0
  0
LINE
  5
86FA
  8
0
 10
4459.8409347795795838
 20
234.5925280047123067
 30
0.0
 11
4459.8529976188610817
 21
234.5770279194503019
 31
0.0
  0
LINE
  5
86FB
  8
0
 10
4459.8529976188610817
 20
234.5770279194503019
 30
0.0
 11
4459.8435401616616218
 21
234.5702269142504122
 31
0.0
  0
LINE
  5
86FC
  8
0
 10
4459.8435401616616218
 20
234.5702269142504122
 30
0.0
 11
4459.8317483585624359
 21
234.5853787330503906
 31
0.0
  0
LINE
  5
86FD
  8
0
 10
4459.8333262848846061
 20
234.5866067438203117
 30
0.0
 11
4459.8435401616616218
 21
234.5734824735503992
 31
0.0
  0
LINE
  5
86FE
  8
0
 10
4459.8435401616616218
 20
234.5734824735503992
 30
0.0
 11
4459.8435401616616218
 21
234.5702269142504122
 31
0.0
  0
LINE
  5
86FF
  8
0
 10
4459.8435401616616218
 20
234.5734824735503992
 30
0.0
 11
4459.8513731374014242
 21
234.5791152888126874
 31
0.0
  0
LINE
  5
8700
  8
0
 10
4459.8488646116611562
 20
234.5645606078504102
 30
0.0
 11
4459.8580510326810327
 21
234.5717098795122979
 31
0.0
  0
LINE
  5
8701
  8
0
 10
4459.8580510326810327
 20
234.5717098795122979
 30
0.0
 11
4459.8683809344147448
 21
234.5584365237195072
 31
0.0
  0
LINE
  5
8702
  8
0
 10
4459.8679235691879512
 20
234.5546347133127938
 30
0.0
 11
4459.8606564147612517
 21
234.5494087890504034
 31
0.0
  0
LINE
  5
8703
  8
0
 10
4459.8606564147612517
 20
234.5494087890504034
 30
0.0
 11
4459.8488646116611562
 21
234.5645606078504102
 31
0.0
  0
LINE
  5
8704
  8
0
 10
4459.8504425379851455
 20
234.5657886186203029
 30
0.0
 11
4459.8606564147612517
 21
234.5526643483503904
 31
0.0
  0
LINE
  5
8705
  8
0
 10
4459.8606564147612517
 20
234.5526643483503904
 30
0.0
 11
4459.8606564147612517
 21
234.5494087890504034
 31
0.0
  0
LINE
  5
8706
  8
0
 10
4459.8606564147612517
 20
234.5526643483503904
 30
0.0
 11
4459.8683584897589753
 21
234.5582030308437993
 31
0.0
  0
LINE
  5
8707
  8
0
 10
4459.7489797046291642
 20
234.5223101733276962
 30
0.0
 11
4459.7545974727154316
 21
234.5266821643459139
 31
0.0
  0
LINE
  5
8708
  8
0
 10
4459.7545974727154316
 20
234.5266821643459139
 30
0.0
 11
4459.7629465968457225
 21
234.5159539988713959
 31
0.0
  0
LINE
  5
8709
  8
0
 10
4459.7292222393616612
 20
234.5419021482003927
 30
0.0
 11
4459.7384086603797186
 21
234.5490514198623089
 31
0.0
  0
LINE
  5
870A
  8
0
 10
4459.7384086603797186
 20
234.5490514198623089
 30
0.0
 11
4459.7504714996612165
 21
234.5335513346003893
 31
0.0
  0
LINE
  5
870B
  8
0
 10
4459.7504714996612165
 20
234.5335513346003893
 30
0.0
 11
4459.741411254394734
 21
234.5270359707060948
 31
0.0
  0
LINE
  5
870C
  8
0
 10
4459.7400337254575788
 20
234.5280099828623008
 30
0.0
 11
4459.7292222393616612
 21
234.5419021482003927
 31
0.0
  0
LINE
  5
870D
  8
0
 10
4459.7308001656847409
 20
234.5431301589703139
 30
0.0
 11
4459.7410140424617566
 21
234.5300058887004013
 31
0.0
  0
LINE
  5
870E
  8
0
 10
4459.7410140424617566
 20
234.5300058887004013
 30
0.0
 11
4459.7410140424617566
 21
234.5273129777228007
 31
0.0
  0
LINE
  5
870F
  8
0
 10
4459.7410140424617566
 20
234.5300058887004013
 30
0.0
 11
4459.7488470182006495
 21
234.5356387039626895
 31
0.0
  0
LINE
  5
8710
  8
0
 10
4459.719495896511944
 20
234.5683461779221943
 30
0.0
 11
4459.7225237523807664
 21
234.5707025868123026
 31
0.0
  0
LINE
  5
8711
  8
0
 10
4459.7225237523807664
 20
234.5707025868123026
 30
0.0
 11
4459.7345865916613548
 21
234.5552025015504114
 31
0.0
  0
LINE
  5
8712
  8
0
 10
4459.7345865916613548
 20
234.5552025015504114
 30
0.0
 11
4459.7251291344609854
 21
234.548401496350408
 31
0.0
  0
LINE
  5
8713
  8
0
 10
4459.7251291344609854
 20
234.548401496350408
 30
0.0
 11
4459.7196807793652624
 21
234.5554023331584119
 31
0.0
  0
LINE
  5
8714
  8
0
 10
4459.7193912927523343
 20
234.5590298668755054
 30
0.0
 11
4459.7251291344609854
 21
234.551657055650395
 31
0.0
  0
LINE
  5
8715
  8
0
 10
4459.7251291344609854
 20
234.551657055650395
 30
0.0
 11
4459.7251291344609854
 21
234.548401496350408
 31
0.0
  0
LINE
  5
8716
  8
0
 10
4459.7251291344609854
 20
234.551657055650395
 30
0.0
 11
4459.7329621102007877
 21
234.5572898709127116
 31
0.0
  0
LINE
  5
8717
  8
0
 10
4459.7360703076546997
 20
234.6088537878584077
 30
0.0
 11
4459.7462350947107552
 21
234.5957925953503036
 31
0.0
  0
LINE
  5
8718
  8
0
 10
4459.7462350947107552
 20
234.5957925953503036
 30
0.0
 11
4459.7367776375122048
 21
234.5889915901504139
 31
0.0
  0
LINE
  5
8719
  8
0
 10
4459.7367776375122048
 20
234.5889915901504139
 30
0.0
 11
4459.7290535203510444
 21
234.598916656115108
 31
0.0
  0
LINE
  5
871A
  8
0
 10
4459.7301621836677441
 20
234.6007476440310029
 30
0.0
 11
4459.7367776375122048
 21
234.5922471494504009
 31
0.0
  0
LINE
  5
871B
  8
0
 10
4459.7367776375122048
 20
234.5922471494504009
 30
0.0
 11
4459.7367776375122048
 21
234.5889915901504139
 31
0.0
  0
LINE
  5
871C
  8
0
 10
4459.7367776375122048
 20
234.5922471494504009
 30
0.0
 11
4459.7446106132510977
 21
234.5978799647126891
 31
0.0
  0
ARC
  5
871D
  8
0
 10
4459.2529627453222929
 20
234.3841682075970994
 30
0.0
 40
0.1153778438900321
 50
99.525867920620243
 51
192.4410065726526966
  0
ARC
  5
871E
  8
0
 10
4459.2725555408997025
 20
234.3841682075970994
 30
0.0
 40
0.1153778438900321
 50
347.558993427347275
 51
80.4741320793797428
  0
ARC
  5
871F
  8
0
 10
4459.7865620299662623
 20
234.5715684413295889
 30
0.0
 40
0.1210822531541303
 50
94.4292870111027014
 51
238.9586298070518069
  0
ARC
  5
8720
  8
0
 10
4459.7987992844018663
 20
234.5614938319033911
 30
0.0
 40
0.1325648830392685
 50
53.8866087021796005
 51
99.3723964918504805
  0
ARC
  5
8721
  8
0
 10
4459.8099628020290766
 20
234.5767953222743074
 30
0.0
 40
0.1136239291730891
 50
333.2918523990933863
 51
53.8866087021796005
  0
ARC
  5
8722
  8
0
 10
4460.0767776592092559
 20
235.0426705906658924
 30
0.0
 40
0.1261044879775596
 50
235.2963916200201879
 51
338.812886015564402
  0
ARC
  5
8723
  8
0
 10
4460.0740639026716963
 20
235.0387519558217946
 30
0.0
 40
0.1213379196537708
 50
118.6860567722553981
 51
235.2963916200201879
  0
ARC
  5
8724
  8
0
 10
4460.0748309885766503
 20
235.0346695118072944
 30
0.0
 40
0.1252941124627168
 50
342.5487601402454061
 51
118.0976611037587958
  0
ARC
  5
8725
  8
0
 10
4460.0773013665939288
 20
235.0372882471523894
 30
0.0
 40
0.0759504093554123
 50
195.6739490623230893
 51
327.0208383746053755
  0
ARC
  5
8726
  8
0
 10
4460.0764364850547281
 20
235.0316047829068964
 30
0.0
 40
0.0737684612545819
 50
331.0929676876078815
 51
191.601819749323397
  0
ARC
  5
8727
  8
0
 10
4460.0769997328416139
 20
235.0744364005313116
 30
0.0
 40
0.0930418308354739
 50
218.5956761973797029
 51
319.9353313940072212
  0
LINE
  5
8728
  8
0
 10
4460.0902546081106266
 20
235.0032632481504038
 30
0.0
 11
4460.0712226516106966
 21
235.0080969139503964
 31
0.0
  0
LINE
  5
8729
  8
0
 10
4460.0712226516106966
 20
235.0080969139503964
 30
0.0
 11
4460.0682055758106799
 21
234.9971200995503864
 31
0.0
  0
LINE
  5
872A
  8
0
 10
4460.0682055758106799
 20
234.9971200995503864
 30
0.0
 11
4460.0872375322123844
 21
234.9918889957903048
 31
0.0
  0
LINE
  5
872B
  8
0
 10
4460.0872375322123844
 20
234.9918889957903048
 30
0.0
 11
4460.0902546081106266
 21
235.0032632481504038
 31
0.0
  0
LINE
  5
872C
  8
0
 10
4460.0690420061928307
 20
235.0001632253035098
 30
0.0
 11
4460.0872375322123844
 21
234.9955419930504092
 31
0.0
  0
LINE
  5
872D
  8
0
 10
4460.0872375322123844
 20
234.9955419930504092
 30
0.0
 11
4460.0872375322123844
 21
234.9918889957903048
 31
0.0
  0
LINE
  5
872E
  8
0
 10
4460.0872375322123844
 20
234.9955419930504092
 30
0.0
 11
4460.0894181777011909
 21
235.0034756816471031
 31
0.0
  0
LINE
  5
872F
  8
0
 10
4460.0637012787510685
 20
235.01056166866681
 30
0.0
 11
4460.0446693222511385
 21
235.0153953344668025
 31
0.0
  0
LINE
  5
8730
  8
0
 10
4460.0446693222511385
 20
235.0153953344668025
 30
0.0
 11
4460.0416522464511218
 21
235.0044185200667926
 31
0.0
  0
LINE
  5
8731
  8
0
 10
4460.0416522464511218
 20
235.0044185200667926
 30
0.0
 11
4460.0606842028510073
 21
234.9991874163067962
 31
0.0
  0
LINE
  5
8732
  8
0
 10
4460.0606842028510073
 20
234.9991874163067962
 30
0.0
 11
4460.0637012787510685
 21
235.01056166866681
 31
0.0
  0
LINE
  5
8733
  8
0
 10
4460.0424886768323631
 20
235.0074616458198875
 30
0.0
 11
4460.0606842028510073
 21
235.002840413566787
 31
0.0
  0
LINE
  5
8734
  8
0
 10
4460.0606842028510073
 20
235.002840413566787
 30
0.0
 11
4460.0606842028510073
 21
234.9991874163067962
 31
0.0
  0
LINE
  5
8735
  8
0
 10
4460.0606842028510073
 20
235.002840413566787
 30
0.0
 11
4460.0628648483407233
 21
235.0107741021635945
 31
0.0
  0
LINE
  5
8736
  8
0
 10
4460.0369651300115947
 20
235.0169962313804035
 30
0.0
 11
4460.0179331735116648
 21
235.0218298971803961
 31
0.0
  0
LINE
  5
8737
  8
0
 10
4460.0179331735116648
 20
235.0218298971803961
 30
0.0
 11
4460.0149160977107385
 21
235.0108530827803861
 31
0.0
  0
LINE
  5
8738
  8
0
 10
4460.0149160977107385
 20
235.0108530827803861
 30
0.0
 11
4460.0339480541106241
 21
235.0056219790203897
 31
0.0
  0
LINE
  5
8739
  8
0
 10
4460.0339480541106241
 20
235.0056219790203897
 30
0.0
 11
4460.0369651300115947
 21
235.0169962313804035
 31
0.0
  0
LINE
  5
873A
  8
0
 10
4460.0157525280937989
 20
235.0138962085335095
 30
0.0
 11
4460.0339480541106241
 21
235.009274976280409
 31
0.0
  0
LINE
  5
873B
  8
0
 10
4460.0339480541106241
 20
235.009274976280409
 30
0.0
 11
4460.0339480541106241
 21
235.0056219790203897
 31
0.0
  0
LINE
  5
873C
  8
0
 10
4460.0339480541106241
 20
235.009274976280409
 30
0.0
 11
4460.0361286996012495
 21
235.0172086648771881
 31
0.0
  0
LINE
  5
873D
  8
0
 10
4460.0103618734610791
 20
235.023914286480391
 30
0.0
 11
4460.0028959407518414
 21
235.0258104564092037
 31
0.0
  0
LINE
  5
873E
  8
0
 10
4460.0053053826113683
 20
235.0131005855942874
 30
0.0
 11
4460.0073447975610179
 21
235.0125400341202919
 31
0.0
  0
LINE
  5
873F
  8
0
 10
4460.0073447975610179
 20
235.0125400341202919
 30
0.0
 11
4460.0103618734610791
 21
235.023914286480391
 31
0.0
  0
LINE
  5
8740
  8
0
 10
4460.0041260918378612
 20
235.0170105063290862
 30
0.0
 11
4460.0073447975610179
 21
235.0161930313803964
 31
0.0
  0
LINE
  5
8741
  8
0
 10
4460.0073447975610179
 20
235.0161930313803964
 30
0.0
 11
4460.0073447975610179
 21
235.0125400341202919
 31
0.0
  0
LINE
  5
8742
  8
0
 10
4460.0073447975610179
 20
235.0161930313803964
 30
0.0
 11
4460.0095254430507339
 21
235.0241267199772039
 31
0.0
  0
LINE
  5
8743
  8
0
 10
4460.0179203216112001
 20
235.053960773080405
 30
0.0
 11
4460.0070734431546953
 21
235.0567156230837043
 31
0.0
  0
LINE
  5
8744
  8
0
 10
4460.0040043233757387
 20
235.0455821871883018
 30
0.0
 11
4460.0149032457111389
 21
235.0425865207203913
 31
0.0
  0
LINE
  5
8745
  8
0
 10
4460.0149032457111389
 20
235.0425865207203913
 30
0.0
 11
4460.0179203216112001
 21
235.053960773080405
 31
0.0
  0
LINE
  5
8746
  8
0
 10
4460.0047070724713194
 20
235.0488291042661047
 30
0.0
 11
4460.0149032457111389
 21
235.0462395179804105
 31
0.0
  0
LINE
  5
8747
  8
0
 10
4460.0149032457111389
 20
235.0462395179804105
 30
0.0
 11
4460.0149032457111389
 21
235.0425865207203913
 31
0.0
  0
LINE
  5
8748
  8
0
 10
4460.0149032457111389
 20
235.0462395179804105
 30
0.0
 11
4460.0170838912008549
 21
235.0541732065771896
 31
0.0
  0
LINE
  5
8749
  8
0
 10
4460.044836486760687
 20
235.0482721198804086
 30
0.0
 11
4460.025804530260757
 21
235.0531057856804011
 31
0.0
  0
LINE
  5
874A
  8
0
 10
4460.025804530260757
 20
235.0531057856804011
 30
0.0
 11
4460.0227874544616498
 21
235.0421289712803912
 31
0.0
  0
LINE
  5
874B
  8
0
 10
4460.0227874544616498
 20
235.0421289712803912
 30
0.0
 11
4460.0418194108606258
 21
235.0368978675203948
 31
0.0
  0
LINE
  5
874C
  8
0
 10
4460.0418194108606258
 20
235.0368978675203948
 30
0.0
 11
4460.044836486760687
 21
235.0482721198804086
 31
0.0
  0
LINE
  5
874D
  8
0
 10
4460.0236238848428911
 20
235.0451720970334861
 30
0.0
 11
4460.0418194108606258
 21
235.040550864780414
 31
0.0
  0
LINE
  5
874E
  8
0
 10
4460.0418194108606258
 20
235.040550864780414
 30
0.0
 11
4460.0418194108606258
 21
235.0368978675203948
 31
0.0
  0
LINE
  5
874F
  8
0
 10
4460.0418194108606258
 20
235.040550864780414
 30
0.0
 11
4460.0440000563521608
 21
235.0484845533771932
 31
0.0
  0
LINE
  5
8750
  8
0
 10
4460.0717526519110834
 20
235.0425834666804121
 30
0.0
 11
4460.0527206954111534
 21
235.0474171324804047
 31
0.0
  0
LINE
  5
8751
  8
0
 10
4460.0527206954111534
 20
235.0474171324804047
 30
0.0
 11
4460.0497036196111367
 21
235.0364403180803947
 31
0.0
  0
LINE
  5
8752
  8
0
 10
4460.0497036196111367
 20
235.0364403180803947
 30
0.0
 11
4460.0687355760110222
 21
235.0312092143203131
 31
0.0
  0
LINE
  5
8753
  8
0
 10
4460.0687355760110222
 20
235.0312092143203131
 30
0.0
 11
4460.0717526519110834
 21
235.0425834666804121
 31
0.0
  0
LINE
  5
8754
  8
0
 10
4460.0505400499932875
 20
235.0394834438334897
 30
0.0
 11
4460.0687355760110222
 21
235.0348622115803892
 31
0.0
  0
LINE
  5
8755
  8
0
 10
4460.0687355760110222
 20
235.0348622115803892
 30
0.0
 11
4460.0687355760110222
 21
235.0312092143203131
 31
0.0
  0
LINE
  5
8756
  8
0
 10
4460.0687355760110222
 20
235.0348622115803892
 30
0.0
 11
4460.0709162215007382
 21
235.0427959001771967
 31
0.0
  0
LINE
  5
8757
  8
0
 10
4460.0986688170605703
 20
235.0368948134803873
 30
0.0
 11
4460.0796368605606403
 21
235.0417284792804082
 31
0.0
  0
LINE
  5
8758
  8
0
 10
4460.0796368605606403
 20
235.0417284792804082
 30
0.0
 11
4460.0766197847624426
 21
235.0307516648803983
 31
0.0
  0
LINE
  5
8759
  8
0
 10
4460.0766197847624426
 20
235.0307516648803983
 30
0.0
 11
4460.0956517411623281
 21
235.0255205611202882
 31
0.0
  0
LINE
  5
875A
  8
0
 10
4460.0956517411623281
 20
235.0255205611202882
 30
0.0
 11
4460.0986688170605703
 21
235.0368948134803873
 31
0.0
  0
LINE
  5
875B
  8
0
 10
4460.0774562151427745
 20
235.0337947906334932
 30
0.0
 11
4460.0956517411623281
 21
235.0291735583803927
 31
0.0
  0
LINE
  5
875C
  8
0
 10
4460.0956517411623281
 20
235.0291735583803927
 30
0.0
 11
4460.0956517411623281
 21
235.0255205611202882
 31
0.0
  0
LINE
  5
875D
  8
0
 10
4460.0956517411623281
 20
235.0291735583803927
 30
0.0
 11
4460.0978323866511346
 21
235.0371072469772002
 31
0.0
  0
LINE
  5
875E
  8
0
 10
4460.1255849822109667
 20
235.0312061602803908
 30
0.0
 11
4460.1065530257110368
 21
235.0360398260804118
 31
0.0
  0
LINE
  5
875F
  8
0
 10
4460.1065530257110368
 20
235.0360398260804118
 30
0.0
 11
4460.10353594991102
 21
235.0250630116804018
 31
0.0
  0
LINE
  5
8760
  8
0
 10
4460.10353594991102
 20
235.0250630116804018
 30
0.0
 11
4460.122567906311815
 21
235.0198319079204055
 31
0.0
  0
LINE
  5
8761
  8
0
 10
4460.122567906311815
 20
235.0198319079204055
 30
0.0
 11
4460.1255849822109667
 21
235.0312061602803908
 31
0.0
  0
LINE
  5
8762
  8
0
 10
4460.1043723802940804
 20
235.0281061374334968
 30
0.0
 11
4460.122567906311815
 21
235.0234849051803963
 31
0.0
  0
LINE
  5
8763
  8
0
 10
4460.122567906311815
 20
235.0234849051803963
 30
0.0
 11
4460.122567906311815
 21
235.0198319079204055
 31
0.0
  0
LINE
  5
8764
  8
0
 10
4460.122567906311815
 20
235.0234849051803963
 30
0.0
 11
4460.1247485518006215
 21
235.0314185937772038
 31
0.0
  0
LINE
  5
8765
  8
0
 10
4460.1499159427039558
 20
235.0250813498084881
 30
0.0
 11
4460.132729235183433
 21
235.0294463661091982
 31
0.0
  0
LINE
  5
8766
  8
0
 10
4460.132729235183433
 20
235.0294463661091982
 30
0.0
 11
4460.1297121593843258
 21
235.0184695517091882
 31
0.0
  0
LINE
  5
8767
  8
0
 10
4460.1297121593843258
 20
235.0184695517091882
 30
0.0
 11
4460.1479385665761583
 21
235.0134598603673055
 31
0.0
  0
LINE
  5
8768
  8
0
 10
4460.1305485897655672
 20
235.0215126774623968
 30
0.0
 11
4460.1487237965448003
 21
235.0168966058141962
 31
0.0
  0
LINE
  5
8769
  8
0
 10
4460.1426265810478071
 20
235.0641725133812088
 30
0.0
 11
4460.140380553648356
 21
235.0647429510991913
 31
0.0
  0
LINE
  5
876A
  8
0
 10
4460.140380553648356
 20
235.0647429510991913
 30
0.0
 11
4460.1373634778474297
 21
235.0537661366992097
 31
0.0
  0
LINE
  5
876B
  8
0
 10
4460.1373634778474297
 20
235.0537661366992097
 30
0.0
 11
4460.1476243280976632
 21
235.0509458500611117
 31
0.0
  0
LINE
  5
876C
  8
0
 10
4460.1381999082295806
 20
235.0568092624523047
 30
0.0
 11
4460.1464956664103738
 21
235.0547023365394068
 31
0.0
  0
LINE
  5
876D
  8
0
 10
4460.1327595740613106
 20
235.0643004978917929
 30
0.0
 11
4460.1137276175613806
 21
235.0691341636918992
 31
0.0
  0
LINE
  5
876E
  8
0
 10
4460.1137276175613806
 20
235.0691341636918992
 30
0.0
 11
4460.1107105417613639
 21
235.0581573492918039
 31
0.0
  0
LINE
  5
876F
  8
0
 10
4460.1107105417613639
 20
235.0581573492918039
 30
0.0
 11
4460.1297424981612494
 21
235.0529262455318076
 31
0.0
  0
LINE
  5
8770
  8
0
 10
4460.1297424981612494
 20
235.0529262455318076
 30
0.0
 11
4460.1327595740613106
 21
235.0643004978917929
 31
0.0
  0
LINE
  5
8771
  8
0
 10
4460.1115469721426052
 20
235.0612004750450126
 30
0.0
 11
4460.1297424981612494
 21
235.0565792427917984
 31
0.0
  0
LINE
  5
8772
  8
0
 10
4460.1297424981612494
 20
235.0565792427917984
 30
0.0
 11
4460.1297424981612494
 21
235.0529262455318076
 31
0.0
  0
LINE
  5
8773
  8
0
 10
4460.1297424981612494
 20
235.0565792427917984
 30
0.0
 11
4460.1319231436509654
 21
235.0645129313886059
 31
0.0
  0
LINE
  5
8774
  8
0
 10
4460.1056192029118392
 20
235.0706370345303924
 30
0.0
 11
4460.0865872464109998
 21
235.0754707003304134
 31
0.0
  0
LINE
  5
8775
  8
0
 10
4460.0865872464109998
 20
235.0754707003304134
 30
0.0
 11
4460.083570170610983
 21
235.0644938859304034
 31
0.0
  0
LINE
  5
8776
  8
0
 10
4460.083570170610983
 20
235.0644938859304034
 30
0.0
 11
4460.1026021270108686
 21
235.059262782170407
 31
0.0
  0
LINE
  5
8777
  8
0
 10
4460.1026021270108686
 20
235.059262782170407
 30
0.0
 11
4460.1056192029118392
 21
235.0706370345303924
 31
0.0
  0
LINE
  5
8778
  8
0
 10
4460.0844066009931339
 20
235.0675370116834983
 30
0.0
 11
4460.1026021270108686
 21
235.0629157794303978
 31
0.0
  0
LINE
  5
8779
  8
0
 10
4460.1026021270108686
 20
235.0629157794303978
 30
0.0
 11
4460.1026021270108686
 21
235.059262782170407
 31
0.0
  0
LINE
  5
877A
  8
0
 10
4460.1026021270108686
 20
235.0629157794303978
 30
0.0
 11
4460.104782772499675
 21
235.0708494680272054
 31
0.0
  0
LINE
  5
877B
  8
0
 10
4460.0784788317623679
 20
235.0752372289803986
 30
0.0
 11
4460.059446875262438
 21
235.0800708947803912
 31
0.0
  0
LINE
  5
877C
  8
0
 10
4460.059446875262438
 20
235.0800708947803912
 30
0.0
 11
4460.0564297994606022
 21
235.0690940803804097
 31
0.0
  0
LINE
  5
877D
  8
0
 10
4460.0564297994606022
 20
235.0690940803804097
 30
0.0
 11
4460.0754617558613973
 21
235.0638629766204133
 31
0.0
  0
LINE
  5
877E
  8
0
 10
4460.0754617558613973
 20
235.0638629766204133
 30
0.0
 11
4460.0784788317623679
 21
235.0752372289803986
 31
0.0
  0
LINE
  5
877F
  8
0
 10
4460.0572662298436626
 20
235.0721372061335046
 30
0.0
 11
4460.0754617558613973
 21
235.0675159738804041
 31
0.0
  0
LINE
  5
8780
  8
0
 10
4460.0754617558613973
 20
235.0675159738804041
 30
0.0
 11
4460.0754617558613973
 21
235.0638629766204133
 31
0.0
  0
LINE
  5
8781
  8
0
 10
4460.0754617558613973
 20
235.0675159738804041
 30
0.0
 11
4460.0776424013502037
 21
235.0754496624772116
 31
0.0
  0
LINE
  5
8782
  8
0
 10
4460.0513384606110776
 20
235.0798374234304049
 30
0.0
 11
4460.0323065041102382
 21
235.0846710892303975
 31
0.0
  0
LINE
  5
8783
  8
0
 10
4460.0323065041102382
 20
235.0846710892303975
 30
0.0
 11
4460.0292894283120404
 21
235.0736942748303875
 31
0.0
  0
LINE
  5
8784
  8
0
 10
4460.0292894283120404
 20
235.0736942748303875
 30
0.0
 11
4460.0483213847110164
 21
235.0684631710703059
 31
0.0
  0
LINE
  5
8785
  8
0
 10
4460.0483213847110164
 20
235.0684631710703059
 30
0.0
 11
4460.0513384606110776
 21
235.0798374234304049
 31
0.0
  0
LINE
  5
8786
  8
0
 10
4460.0301258586941913
 20
235.0767374005835109
 30
0.0
 11
4460.0483213847110164
 21
235.0721161683304103
 31
0.0
  0
LINE
  5
8787
  8
0
 10
4460.0483213847110164
 20
235.0721161683304103
 30
0.0
 11
4460.0483213847110164
 21
235.0684631710703059
 31
0.0
  0
LINE
  5
8788
  8
0
 10
4460.0483213847110164
 20
235.0721161683304103
 30
0.0
 11
4460.0505020302007324
 21
235.0800498569271895
 31
0.0
  0
LINE
  5
8789
  8
0
 10
4460.0161374300314492
 20
235.0740996042285929
 30
0.0
 11
4460.0211198874112597
 21
235.0727301311704025
 31
0.0
  0
LINE
  5
878A
  8
0
 10
4460.0211198874112597
 20
235.0727301311704025
 30
0.0
 11
4460.0239648992992443
 21
235.0834557092651096
 31
0.0
  0
LINE
  5
878B
  8
0
 10
4460.018356109360866
 20
235.0770850625353035
 30
0.0
 11
4460.0211198874112597
 21
235.0763831284303933
 31
0.0
  0
LINE
  5
878C
  8
0
 10
4460.0211198874112597
 20
235.0763831284303933
 30
0.0
 11
4460.0211198874112597
 21
235.0727301311704025
 31
0.0
  0
LINE
  5
878D
  8
0
 10
4460.0211198874112597
 20
235.0763831284303933
 30
0.0
 11
4460.0227045432757222
 21
235.0821484700360884
 31
0.0
  0
LINE
  5
878E
  8
0
 10
4460.0624146545296753
 20
235.1040283574155012
 30
0.0
 11
4460.0615650366653426
 21
235.1009372525759886
 31
0.0
  0
LINE
  5
878F
  8
0
 10
4460.0615650366653426
 20
235.1009372525759886
 30
0.0
 11
4460.0805969930661377
 21
235.0957061488159923
 31
0.0
  0
LINE
  5
8790
  8
0
 10
4460.0805969930661377
 20
235.0957061488159923
 30
0.0
 11
4460.0830816831976335
 21
235.1050733286764967
 31
0.0
  0
LINE
  5
8791
  8
0
 10
4460.062401467048403
 20
235.1039803783291973
 30
0.0
 11
4460.0805969930661377
 21
235.0993591460760967
 31
0.0
  0
LINE
  5
8792
  8
0
 10
4460.0805969930661377
 20
235.0993591460760967
 30
0.0
 11
4460.0805969930661377
 21
235.0957061488159923
 31
0.0
  0
LINE
  5
8793
  8
0
 10
4460.0805969930661377
 20
235.0993591460760967
 30
0.0
 11
4460.0821882942345837
 21
235.1051486648212006
 31
0.0
  0
LINE
  5
8794
  8
0
 10
4460.0908459143338405
 20
235.1039522377598985
 30
0.0
 11
4460.0892259109614315
 21
235.098058293580408
 31
0.0
  0
LINE
  5
8795
  8
0
 10
4460.0892259109614315
 20
235.098058293580408
 30
0.0
 11
4460.108257867361317
 21
235.0928271898204116
 31
0.0
  0
LINE
  5
8796
  8
0
 10
4460.108257867361317
 20
235.0928271898204116
 30
0.0
 11
4460.1095090467615591
 21
235.0975440848289963
 31
0.0
  0
LINE
  5
8797
  8
0
 10
4460.0900623413426729
 20
235.1011014193335029
 30
0.0
 11
4460.108257867361317
 21
235.0964801870804024
 31
0.0
  0
LINE
  5
8798
  8
0
 10
4460.108257867361317
 20
235.0964801870804024
 30
0.0
 11
4460.108257867361317
 21
235.0928271898204116
 31
0.0
  0
LINE
  5
8799
  8
0
 10
4460.108257867361317
 20
235.0964801870804024
 30
0.0
 11
4460.1086648249865902
 21
235.0979607922890011
 31
0.0
  0
LINE
  5
879A
  8
0
 10
4460.116899347161052
 20
234.9964961160503947
 30
0.0
 11
4460.0978673906602125
 21
235.0013297818503872
 31
0.0
  0
LINE
  5
879B
  8
0
 10
4460.0978673906602125
 20
235.0013297818503872
 30
0.0
 11
4460.0948503148611053
 21
234.9903529674504057
 31
0.0
  0
LINE
  5
879C
  8
0
 10
4460.0948503148611053
 20
234.9903529674504057
 30
0.0
 11
4460.1080441857466212
 21
234.9867265138082928
 31
0.0
  0
LINE
  5
879D
  8
0
 10
4460.1150520037308524
 20
234.9895317071074885
 30
0.0
 11
4460.116899347161052
 21
234.9964961160503947
 31
0.0
  0
LINE
  5
879E
  8
0
 10
4460.0956867452441656
 20
234.9933960932035006
 30
0.0
 11
4460.1135277903904353
 21
234.9888648906878927
 31
0.0
  0
LINE
  5
879F
  8
0
 10
4460.1139578242900825
 20
234.9890497402053029
 30
0.0
 11
4460.1160629167507068
 21
234.996708549547094
 31
0.0
  0
ARC
  5
87A0
  8
0
 10
4460.0851377326707734
 20
235.0466604696572119
 30
0.0
 40
0.1189887069107537
 50
339.3733587545872865
 51
119.2656884740721068
  0
ARC
  5
87A1
  8
0
 10
4459.9825825510170034
 20
235.5729408285654927
 30
0.0
 40
0.1206159872467149
 50
270.321574709752781
 51
24.3602818798295004
  0
ARC
  5
87A2
  8
0
 10
4459.9789697812720988
 20
235.5713050223301082
 30
0.0
 40
0.1245818373782852
 50
24.3602818798295004
 51
187.0104265369928953
  0
ARC
  5
87A3
  8
0
 10
4459.9731249758651757
 20
235.5705862907826997
 30
0.0
 40
0.1186930068245355
 50
187.0104265369913037
 51
274.89813078248892
  0
ARC
  5
87A4
  8
0
 10
4459.9787974151404342
 20
235.5720801140124934
 30
0.0
 40
0.0754897770118517
 50
196.0589518315248085
 51
346.9163033578329873
  0
ARC
  5
87A5
  8
0
 10
4459.9789456475500629
 20
235.566372245362686
 30
0.0
 40
0.0742591832493056
 50
351.1840233164139136
 51
191.7912318729540004
  0
ARC
  5
87A6
  8
0
 10
4459.9787491618853892
 20
235.6087165935799135
 30
0.0
 40
0.0922444770249598
 50
218.0619506795864027
 51
322.1690392291820899
  0
LINE
  5
87A7
  8
0
 10
4459.9699029434113982
 20
235.581548937150302
 30
0.0
 11
4459.9755205521114476
 21
235.5715618606504052
 31
0.0
  0
LINE
  5
87A8
  8
0
 10
4459.9755205521114476
 20
235.5715618606504052
 30
0.0
 11
4459.9928364689112641
 21
235.5805618475503991
 31
0.0
  0
LINE
  5
87A9
  8
0
 10
4459.9928364689112641
 20
235.5805618475503991
 30
0.0
 11
4459.9875548879726921
 21
235.5907235752395934
 31
0.0
  0
LINE
  5
87AA
  8
0
 10
4459.9875548879726921
 20
235.5907235752395934
 30
0.0
 11
4459.9699029434113982
 21
235.581548937150302
 31
0.0
  0
LINE
  5
87AB
  8
0
 10
4459.9713199019233798
 20
235.5822854045404995
 30
0.0
 11
4459.9755205521114476
 21
235.5748174199503921
 31
0.0
  0
LINE
  5
87AC
  8
0
 10
4459.9755205521114476
 20
235.5748174199503921
 30
0.0
 11
4459.9755205521114476
 21
235.5715618606504052
 31
0.0
  0
LINE
  5
87AD
  8
0
 10
4459.9755205521114476
 20
235.5748174199503921
 30
0.0
 11
4459.9915042684642685
 21
235.5831249926258977
 31
0.0
  0
LINE
  5
87AE
  8
0
 10
4459.9456606599105726
 20
235.5689489555003888
 30
0.0
 11
4459.951278268610622
 21
235.5589618790004067
 31
0.0
  0
LINE
  5
87AF
  8
0
 10
4459.951278268610622
 20
235.5589618790004067
 30
0.0
 11
4459.968594185411348
 21
235.5679618659004007
 31
0.0
  0
LINE
  5
87B0
  8
0
 10
4459.968594185411348
 20
235.5679618659004007
 30
0.0
 11
4459.963312604472776
 21
235.578123593589595
 31
0.0
  0
LINE
  5
87B1
  8
0
 10
4459.963312604472776
 20
235.578123593589595
 30
0.0
 11
4459.9456606599105726
 21
235.5689489555003888
 31
0.0
  0
LINE
  5
87B2
  8
0
 10
4459.9470776184252827
 20
235.5696854228905011
 30
0.0
 11
4459.951278268610622
 21
235.5622174383003937
 31
0.0
  0
LINE
  5
87B3
  8
0
 10
4459.951278268610622
 20
235.5622174383003937
 30
0.0
 11
4459.951278268610622
 21
235.5589618790004067
 31
0.0
  0
LINE
  5
87B4
  8
0
 10
4459.951278268610622
 20
235.5622174383003937
 30
0.0
 11
4459.9672619849643525
 21
235.5705250109758992
 31
0.0
  0
LINE
  5
87B5
  8
0
 10
4459.921418376411566
 20
235.5563489738503904
 30
0.0
 11
4459.9270359851116154
 21
235.5463618973504083
 31
0.0
  0
LINE
  5
87B6
  8
0
 10
4459.9270359851116154
 20
235.5463618973504083
 30
0.0
 11
4459.9443519019123414
 21
235.5553618842504022
 31
0.0
  0
LINE
  5
87B7
  8
0
 10
4459.9443519019123414
 20
235.5553618842504022
 30
0.0
 11
4459.9390703209728599
 21
235.5655236119395965
 31
0.0
  0
LINE
  5
87B8
  8
0
 10
4459.9390703209728599
 20
235.5655236119395965
 30
0.0
 11
4459.921418376411566
 21
235.5563489738503904
 31
0.0
  0
LINE
  5
87B9
  8
0
 10
4459.9228353349235476
 20
235.5570854412405026
 30
0.0
 11
4459.9270359851116154
 21
235.54961745665031
 31
0.0
  0
LINE
  5
87BA
  8
0
 10
4459.9270359851116154
 20
235.54961745665031
 30
0.0
 11
4459.9270359851116154
 21
235.5463618973504083
 31
0.0
  0
LINE
  5
87BB
  8
0
 10
4459.9270359851116154
 20
235.54961745665031
 30
0.0
 11
4459.9430197014653459
 21
235.5579250293259008
 31
0.0
  0
LINE
  5
87BC
  8
0
 10
4459.9161824035281825
 20
235.5409342633585084
 30
0.0
 11
4459.9197841734712711
 21
235.5428062914284055
 31
0.0
  0
LINE
  5
87BD
  8
0
 10
4459.9197841734712711
 20
235.5428062914284055
 30
0.0
 11
4459.9145025925354275
 21
235.5529680191175999
 31
0.0
  0
LINE
  5
87BE
  8
0
 10
4459.9145025925354275
 20
235.5529680191175999
 30
0.0
 11
4459.9079633395731435
 21
235.5495692276093962
 31
0.0
  0
LINE
  5
87BF
  8
0
 10
4459.9139736477063707
 20
235.5430418168051006
 30
0.0
 11
4459.9184519730242755
 21
235.5453694365039894
 31
0.0
  0
LINE
  5
87C0
  8
0
 10
4459.9359895902143762
 20
235.5286886104750863
 30
0.0
 11
4459.9373391618746609
 21
235.5262893199335963
 31
0.0
  0
LINE
  5
87C1
  8
0
 10
4459.9476844898154013
 20
235.5218602196586062
 30
0.0
 11
4459.9589231157151517
 21
235.5277015208750981
 31
0.0
  0
LINE
  5
87C2
  8
0
 10
4459.9589231157151517
 20
235.5277015208750981
 30
0.0
 11
4459.9536415347765796
 21
235.5378632485642925
 31
0.0
  0
LINE
  5
87C3
  8
0
 10
4459.9536415347765796
 20
235.5378632485642925
 30
0.0
 11
4459.9359895902143762
 21
235.5286886104750863
 31
0.0
  0
LINE
  5
87C4
  8
0
 10
4459.9374065487281769
 20
235.5294250778653122
 30
0.0
 11
4459.9398545445892523
 21
235.5250729907943992
 31
0.0
  0
LINE
  5
87C5
  8
0
 10
4459.9440721348755687
 20
235.5232382493084913
 30
0.0
 11
4459.9575909152672466
 21
235.5302646659505967
 31
0.0
  0
LINE
  5
87C6
  8
0
 10
4459.9605850840607673
 20
235.5410341189503924
 30
0.0
 11
4459.9662026927608167
 21
235.5310470424504103
 31
0.0
  0
LINE
  5
87C7
  8
0
 10
4459.9662026927608167
 20
235.5310470424504103
 30
0.0
 11
4459.9835186095606332
 21
235.5400470293504043
 31
0.0
  0
LINE
  5
87C8
  8
0
 10
4459.9835186095606332
 20
235.5400470293504043
 30
0.0
 11
4459.9782370286238802
 21
235.5502087570395986
 31
0.0
  0
LINE
  5
87C9
  8
0
 10
4459.9782370286238802
 20
235.5502087570395986
 30
0.0
 11
4459.9605850840607673
 21
235.5410341189503924
 31
0.0
  0
LINE
  5
87CA
  8
0
 10
4459.9620020425736584
 20
235.5417705863405047
 30
0.0
 11
4459.9662026927608167
 21
235.5343026017503973
 31
0.0
  0
LINE
  5
87CB
  8
0
 10
4459.9662026927608167
 20
235.5343026017503973
 30
0.0
 11
4459.9662026927608167
 21
235.5310470424504103
 31
0.0
  0
LINE
  5
87CC
  8
0
 10
4459.9662026927608167
 20
235.5343026017503973
 30
0.0
 11
4459.9821864091136376
 21
235.5426101744259029
 31
0.0
  0
LINE
  5
87CD
  8
0
 10
4459.9853549987610677
 20
235.5526472124504096
 30
0.0
 11
4459.9909726074611171
 21
235.5426601359503138
 31
0.0
  0
LINE
  5
87CE
  8
0
 10
4459.9909726074611171
 20
235.5426601359503138
 30
0.0
 11
4460.0082885242618431
 21
235.551660122850393
 31
0.0
  0
LINE
  5
87CF
  8
0
 10
4460.0082885242618431
 20
235.551660122850393
 30
0.0
 11
4460.0030069433241806
 21
235.5618218505395873
 31
0.0
  0
LINE
  5
87D0
  8
0
 10
4460.0030069433241806
 20
235.5618218505395873
 30
0.0
 11
4459.9853549987610677
 21
235.5526472124504096
 31
0.0
  0
LINE
  5
87D1
  8
0
 10
4459.9867719572739588
 20
235.5533836798404934
 30
0.0
 11
4459.9909726074611171
 21
235.5459156952503861
 31
0.0
  0
LINE
  5
87D2
  8
0
 10
4459.9909726074611171
 20
235.5459156952503861
 30
0.0
 11
4459.9909726074611171
 21
235.5426601359503138
 31
0.0
  0
LINE
  5
87D3
  8
0
 10
4459.9909726074611171
 20
235.5459156952503861
 30
0.0
 11
4460.0069563238139381
 21
235.5542232679258916
 31
0.0
  0
LINE
  5
87D4
  8
0
 10
4460.0101249134113459
 20
235.5642603059004045
 30
0.0
 11
4460.0157425221113954
 21
235.554273229400394
 31
0.0
  0
LINE
  5
87D5
  8
0
 10
4460.0157425221113954
 20
235.554273229400394
 30
0.0
 11
4460.0330584389112119
 21
235.5632732163003027
 31
0.0
  0
LINE
  5
87D6
  8
0
 10
4460.0330584389112119
 20
235.5632732163003027
 30
0.0
 11
4460.0277768579735493
 21
235.5734349439896107
 31
0.0
  0
LINE
  5
87D7
  8
0
 10
4460.0277768579735493
 20
235.5734349439896107
 30
0.0
 11
4460.0101249134113459
 21
235.5642603059004045
 31
0.0
  0
LINE
  5
87D8
  8
0
 10
4460.0115418719233276
 20
235.5649967732904884
 30
0.0
 11
4460.0157425221113954
 21
235.5575287887004095
 31
0.0
  0
LINE
  5
87D9
  8
0
 10
4460.0157425221113954
 20
235.5575287887004095
 30
0.0
 11
4460.0157425221113954
 21
235.554273229400394
 31
0.0
  0
LINE
  5
87DA
  8
0
 10
4460.0157425221113954
 20
235.5575287887004095
 30
0.0
 11
4460.0317262384642163
 21
235.5658363613758866
 31
0.0
  0
LINE
  5
87DB
  8
0
 10
4460.0348948280607146
 20
235.5758733994003933
 30
0.0
 11
4460.0405124367607641
 21
235.5658863229004112
 31
0.0
  0
LINE
  5
87DC
  8
0
 10
4460.0405124367607641
 20
235.5658863229004112
 30
0.0
 11
4460.0529632216148457
 21
235.5723576464733071
 31
0.0
  0
LINE
  5
87DD
  8
0
 10
4460.0510196263940088
 20
235.5842542997847886
 30
0.0
 11
4460.0348948280607146
 21
235.5758733994003933
 31
0.0
  0
LINE
  5
87DE
  8
0
 10
4460.0363117865736058
 20
235.5766098667905055
 30
0.0
 11
4460.0405124367607641
 21
235.5691418822003982
 31
0.0
  0
LINE
  5
87DF
  8
0
 10
4460.0405124367607641
 20
235.5691418822003982
 30
0.0
 11
4460.0405124367607641
 21
235.5658863229004112
 31
0.0
  0
LINE
  5
87E0
  8
0
 10
4460.0405124367607641
 20
235.5691418822003982
 30
0.0
 11
4460.0526479705040401
 21
235.575449353272802
 31
0.0
  0
LINE
  5
87E1
  8
0
 10
4460.024149535761353
 20
235.5351606336004124
 30
0.0
 11
4460.0269979675113063
 21
235.5300966451108877
 31
0.0
  0
LINE
  5
87E2
  8
0
 10
4460.0428274323348887
 20
235.5423613466302868
 30
0.0
 11
4460.0418014803253755
 21
235.5443352716895902
 31
0.0
  0
LINE
  5
87E3
  8
0
 10
4460.0418014803253755
 20
235.5443352716895902
 30
0.0
 11
4460.024149535761353
 21
235.5351606336004124
 31
0.0
  0
LINE
  5
87E4
  8
0
 10
4460.0255664942742442
 20
235.5358971009904963
 30
0.0
 11
4460.0283524754331665
 21
235.5309441381301951
 31
0.0
  0
LINE
  5
87E5
  8
0
 10
4460.0005773228303951
 20
235.5224990589736933
 30
0.0
 11
4460.0022546011996383
 21
235.5195171660917026
 31
0.0
  0
LINE
  5
87E6
  8
0
 10
4460.0208464703582649
 20
235.5266382154223948
 30
0.0
 11
4460.0182292673925986
 21
235.5316736970630132
 31
0.0
  0
LINE
  5
87E7
  8
0
 10
4460.0182292673925986
 20
235.5316736970630132
 30
0.0
 11
4460.0005773228303951
 21
235.5224990589736933
 31
0.0
  0
LINE
  5
87E8
  8
0
 10
4460.0019942813432863
 20
235.5232355263638908
 30
0.0
 11
4460.0038419871307269
 21
235.5199506448001046
 31
0.0
  0
LINE
  5
87E9
  8
0
 10
4459.9942812879598932
 20
235.5177891686676048
 30
0.0
 11
4459.9926590184722954
 21
235.5209104047098094
 31
0.0
  0
LINE
  5
87EA
  8
0
 10
4459.9926590184722954
 20
235.5209104047098094
 30
0.0
 11
4459.9844602586699693
 21
235.5166490807694117
 31
0.0
  0
LINE
  5
87EB
  8
0
 10
4459.9941452269613364
 20
235.5941489188003004
 30
0.0
 11
4459.9997628356613859
 21
235.5841618423004036
 31
0.0
  0
LINE
  5
87EC
  8
0
 10
4459.9997628356613859
 20
235.5841618423004036
 30
0.0
 11
4460.0170787524612024
 21
235.5931618292003975
 31
0.0
  0
LINE
  5
87ED
  8
0
 10
4460.0170787524612024
 20
235.5931618292003975
 30
0.0
 11
4460.0117971715244494
 21
235.6033235568895918
 31
0.0
  0
LINE
  5
87EE
  8
0
 10
4460.0117971715244494
 20
235.6033235568895918
 30
0.0
 11
4459.9941452269613364
 21
235.5941489188003004
 31
0.0
  0
LINE
  5
87EF
  8
0
 10
4459.9955621854742276
 20
235.5948853861904979
 30
0.0
 11
4459.9997628356613859
 21
235.5874174016003906
 31
0.0
  0
LINE
  5
87F0
  8
0
 10
4459.9997628356613859
 20
235.5874174016003906
 30
0.0
 11
4459.9997628356613859
 21
235.5841618423004036
 31
0.0
  0
LINE
  5
87F1
  8
0
 10
4459.9997628356613859
 20
235.5874174016003906
 30
0.0
 11
4460.0157465520142068
 21
235.5957249742758961
 31
0.0
  0
LINE
  5
87F2
  8
0
 10
4460.0183875104612525
 20
235.6067489004504125
 30
0.0
 11
4460.024005119161302
 21
235.596761823950402
 31
0.0
  0
LINE
  5
87F3
  8
0
 10
4460.024005119161302
 20
235.596761823950402
 30
0.0
 11
4460.0413210359611185
 21
235.6057618108503959
 31
0.0
  0
LINE
  5
87F4
  8
0
 10
4460.0413210359611185
 20
235.6057618108503959
 30
0.0
 11
4460.0393264565045683
 21
235.6095993688699934
 31
0.0
  0
LINE
  5
87F5
  8
0
 10
4460.0348173142847372
 20
235.6152883281278889
 30
0.0
 11
4460.0183875104612525
 21
235.6067489004504125
 31
0.0
  0
LINE
  5
87F6
  8
0
 10
4460.0198044689741437
 20
235.6074853678404963
 30
0.0
 11
4460.024005119161302
 21
235.600017383250389
 31
0.0
  0
LINE
  5
87F7
  8
0
 10
4460.024005119161302
 20
235.600017383250389
 30
0.0
 11
4460.024005119161302
 21
235.596761823950402
 31
0.0
  0
LINE
  5
87F8
  8
0
 10
4460.024005119161302
 20
235.600017383250389
 30
0.0
 11
4460.0399888355141229
 21
235.6083249559258945
 31
0.0
  0
LINE
  5
87F9
  8
0
 10
4459.9768775131606162
 20
235.6233680765504062
 30
0.0
 11
4459.9824951218606657
 21
235.6133810000503956
 31
0.0
  0
LINE
  5
87FA
  8
0
 10
4459.9824951218606657
 20
235.6133810000503956
 30
0.0
 11
4459.9998110386613916
 21
235.6223809869503896
 31
0.0
  0
LINE
  5
87FB
  8
0
 10
4459.9998110386613916
 20
235.6223809869503896
 30
0.0
 11
4459.9945294577228196
 21
235.6325427146396123
 31
0.0
  0
LINE
  5
87FC
  8
0
 10
4459.9945294577228196
 20
235.6325427146396123
 30
0.0
 11
4459.9768775131606162
 21
235.6233680765504062
 31
0.0
  0
LINE
  5
87FD
  8
0
 10
4459.9782944716744169
 20
235.62410454394049
 30
0.0
 11
4459.9824951218606657
 21
235.6166365593504111
 31
0.0
  0
LINE
  5
87FE
  8
0
 10
4459.9824951218606657
 20
235.6166365593504111
 30
0.0
 11
4459.9824951218606657
 21
235.6133810000503956
 31
0.0
  0
LINE
  5
87FF
  8
0
 10
4459.9824951218606657
 20
235.6166365593504111
 30
0.0
 11
4459.9984788382143961
 21
235.6249441320258882
 31
0.0
  0
LINE
  5
8800
  8
0
 10
4459.953205390011135
 20
235.6098033114004124
 30
0.0
 11
4459.9588229987111845
 21
235.5998162349004019
 31
0.0
  0
LINE
  5
8801
  8
0
 10
4459.9588229987111845
 20
235.5998162349004019
 30
0.0
 11
4459.976138915511001
 21
235.6088162218003959
 31
0.0
  0
LINE
  5
8802
  8
0
 10
4459.976138915511001
 20
235.6088162218003959
 30
0.0
 11
4459.9708573345742479
 21
235.6189779494895902
 31
0.0
  0
LINE
  5
8803
  8
0
 10
4459.9708573345742479
 20
235.6189779494895902
 30
0.0
 11
4459.953205390011135
 21
235.6098033114004124
 31
0.0
  0
LINE
  5
8804
  8
0
 10
4459.9546223485240262
 20
235.6105397787904963
 30
0.0
 11
4459.9588229987111845
 21
235.6030717942003889
 31
0.0
  0
LINE
  5
8805
  8
0
 10
4459.9588229987111845
 20
235.6030717942003889
 30
0.0
 11
4459.9588229987111845
 21
235.5998162349004019
 31
0.0
  0
LINE
  5
8806
  8
0
 10
4459.9588229987111845
 20
235.6030717942003889
 30
0.0
 11
4459.9748067150640054
 21
235.6113793668758944
 31
0.0
  0
LINE
  5
8807
  8
0
 10
4459.9295332668607443
 20
235.5962385462503903
 30
0.0
 11
4459.9351508755607938
 21
235.5862514697504082
 31
0.0
  0
LINE
  5
8808
  8
0
 10
4459.9351508755607938
 20
235.5862514697504082
 30
0.0
 11
4459.9524667923606103
 21
235.5952514566504021
 31
0.0
  0
LINE
  5
8809
  8
0
 10
4459.9524667923606103
 20
235.5952514566504021
 30
0.0
 11
4459.9471852114238573
 21
235.6054131843395965
 31
0.0
  0
LINE
  5
880A
  8
0
 10
4459.9471852114238573
 20
235.6054131843395965
 30
0.0
 11
4459.9295332668607443
 21
235.5962385462503903
 31
0.0
  0
LINE
  5
880B
  8
0
 10
4459.9309502253736355
 20
235.5969750136405025
 30
0.0
 11
4459.9351508755607938
 21
235.5895070290503952
 31
0.0
  0
LINE
  5
880C
  8
0
 10
4459.9351508755607938
 20
235.5895070290503952
 30
0.0
 11
4459.9351508755607938
 21
235.5862514697504082
 31
0.0
  0
LINE
  5
880D
  8
0
 10
4459.9351508755607938
 20
235.5895070290503952
 30
0.0
 11
4459.9511345919136147
 21
235.5978146017259007
 31
0.0
  0
LINE
  5
880E
  8
0
 10
4459.9063071593782297
 20
235.5818019677473103
 30
0.0
 11
4459.9110015191026832
 21
235.5734562583540992
 31
0.0
  0
LINE
  5
880F
  8
0
 10
4459.9110015191026832
 20
235.5734562583540992
 30
0.0
 11
4459.9283174359015902
 21
235.5824562452540079
 31
0.0
  0
LINE
  5
8810
  8
0
 10
4459.9283174359015902
 20
235.5824562452540079
 30
0.0
 11
4459.9230358549648372
 21
235.5926179729432874
 31
0.0
  0
LINE
  5
8811
  8
0
 10
4459.9230358549648372
 20
235.5926179729432874
 30
0.0
 11
4459.9068609463729445
 21
235.5842110276385029
 31
0.0
  0
LINE
  5
8812
  8
0
 10
4459.9068372713209101
 20
235.5841150854527939
 30
0.0
 11
4459.9110015191026832
 21
235.5767118176540009
 31
0.0
  0
LINE
  5
8813
  8
0
 10
4459.9110015191026832
 20
235.5767118176540009
 30
0.0
 11
4459.9110015191026832
 21
235.5734562583540992
 31
0.0
  0
LINE
  5
8814
  8
0
 10
4459.9110015191026832
 20
235.5767118176540009
 30
0.0
 11
4459.9269852354545947
 21
235.5850193903295917
 31
0.0
  0
LINE
  5
8815
  8
0
 10
4459.9272006483133737
 20
235.6196346274990105
 30
0.0
 11
4459.9346609646081561
 21
235.6235121437574094
 31
0.0
  0
LINE
  5
8816
  8
0
 10
4459.9346609646081561
 20
235.6235121437574094
 30
0.0
 11
4459.9337391415992897
 21
235.6252857252854085
 31
0.0
  0
LINE
  5
8817
  8
0
 10
4459.9404902273981861
 20
235.6298986726023941
 30
0.0
 11
4459.9416980241121564
 21
235.6277514318784085
 31
0.0
  0
LINE
  5
8818
  8
0
 10
4459.9416980241121564
 20
235.6277514318784085
 30
0.0
 11
4459.9590139409119729
 21
235.6367514187784025
 31
0.0
  0
LINE
  5
8819
  8
0
 10
4459.9590139409119729
 20
235.6367514187784025
 30
0.0
 11
4459.9584904567809645
 21
235.6377585988728072
 31
0.0
  0
LINE
  5
881A
  8
0
 10
4459.9416980241121564
 20
235.6306142942488009
 30
0.0
 11
4459.9416980241121564
 21
235.6277514318784085
 31
0.0
  0
LINE
  5
881B
  8
0
 10
4460.0005496363110069
 20
235.6369328417003999
 30
0.0
 11
4460.0061672450110564
 21
235.6269457652003894
 31
0.0
  0
LINE
  5
881C
  8
0
 10
4460.0061672450110564
 20
235.6269457652003894
 30
0.0
 11
4460.0147715316452377
 21
235.6314178626292062
 31
0.0
  0
LINE
  5
881D
  8
0
 10
4460.0011369765616109
 20
235.6372381131236864
 30
0.0
 11
4460.0005496363110069
 21
235.6369328417003999
 31
0.0
  0
LINE
  5
881E
  8
0
 10
4460.002447502931318
 20
235.6368143427937127
 30
0.0
 11
4460.0061672450110564
 21
235.6302013245004048
 31
0.0
  0
LINE
  5
881F
  8
0
 10
4460.0061672450110564
 20
235.6302013245004048
 30
0.0
 11
4460.0061672450110564
 21
235.6269457652003894
 31
0.0
  0
LINE
  5
8820
  8
0
 10
4460.0061672450110564
 20
235.6302013245004048
 30
0.0
 11
4460.0116410583559627
 21
235.633046351349293
 31
0.0
  0
ARC
  5
8821
  8
0
 10
4459.9764161234706989
 20
235.5793733057203951
 30
0.0
 40
0.1276639236138459
 50
350.2751932496530003
 51
233.0488586857617008
  0
ARC
  5
8822
  8
0
 10
4459.547282788236771
 20
235.9181163650017083
 30
0.0
 40
0.0723423415008865
 50
261.2203856227342271
 51
41.6429630966143804
  0
ARC
  5
8823
  8
0
 10
4459.5448646970962727
 20
235.9194330174669858
 30
0.0
 40
0.0733202680377581
 50
39.6180324825620929
 51
263.2453162367768869
  0
LINE
  5
8824
  8
0
 10
4459.5340541990117345
 20
235.9100646958503944
 30
0.0
 11
4459.5450954471107252
 21
235.9060329944504133
 31
0.0
  0
LINE
  5
8825
  8
0
 10
4459.5450954471107252
 20
235.9060329944504133
 30
0.0
 11
4459.5520857416113358
 21
235.9237222093503874
 31
0.0
  0
LINE
  5
8826
  8
0
 10
4459.5520857416113358
 20
235.9237222093503874
 30
0.0
 11
4459.5410444935114356
 21
235.9277539107503969
 31
0.0
  0
LINE
  5
8827
  8
0
 10
4459.5410444935114356
 20
235.9277539107503969
 30
0.0
 11
4459.5340541990117345
 21
235.9100646958503944
 31
0.0
  0
LINE
  5
8828
  8
0
 10
4459.5351784772310566
 20
235.9129097260598087
 30
0.0
 11
4459.5450954471107252
 21
235.9092885537504003
 31
0.0
  0
LINE
  5
8829
  8
0
 10
4459.5450954471107252
 20
235.9092885537504003
 30
0.0
 11
4459.5450954471107252
 21
235.9060329944504133
 31
0.0
  0
LINE
  5
882A
  8
0
 10
4459.5450954471107252
 20
235.9092885537504003
 30
0.0
 11
4459.5509614634720492
 21
235.9241327384598037
 31
0.0
  0
LINE
  5
882B
  8
0
 10
4459.5242677866608574
 20
235.8852997950504005
 30
0.0
 11
4459.5353090347616671
 21
235.8812680936503057
 31
0.0
  0
LINE
  5
882C
  8
0
 10
4459.5353090347616671
 20
235.8812680936503057
 30
0.0
 11
4459.5422993292613683
 21
235.8989573085503935
 31
0.0
  0
LINE
  5
882D
  8
0
 10
4459.5422993292613683
 20
235.8989573085503935
 30
0.0
 11
4459.5312580811605585
 21
235.902989009950403
 31
0.0
  0
LINE
  5
882E
  8
0
 10
4459.5312580811605585
 20
235.902989009950403
 30
0.0
 11
4459.5242677866608574
 21
235.8852997950504005
 31
0.0
  0
LINE
  5
882F
  8
0
 10
4459.5253920648801795
 20
235.8881448252597863
 30
0.0
 11
4459.5353090347616671
 21
235.8845236529504064
 31
0.0
  0
LINE
  5
8830
  8
0
 10
4459.5353090347616671
 20
235.8845236529504064
 30
0.0
 11
4459.5353090347616671
 21
235.8812680936503057
 31
0.0
  0
LINE
  5
8831
  8
0
 10
4459.5353090347616671
 20
235.8845236529504064
 30
0.0
 11
4459.5411750511220816
 21
235.8993678376596961
 31
0.0
  0
LINE
  5
8832
  8
0
 10
4459.5300504478509538
 20
235.8674449917538141
 30
0.0
 11
4459.5327115636446251
 21
235.8741790498345097
 31
0.0
  0
LINE
  5
8833
  8
0
 10
4459.5327115636446251
 20
235.8741790498345097
 30
0.0
 11
4459.5216703155447249
 21
235.8782107512344908
 31
0.0
  0
LINE
  5
8834
  8
0
 10
4459.5216703155447249
 20
235.8782107512344908
 30
0.0
 11
4459.518493952404242
 21
235.8701728394981103
 31
0.0
  0
LINE
  5
8835
  8
0
 10
4459.5288476976820675
 20
235.8676569443937012
 30
0.0
 11
4459.531587285506248
 21
235.8745895789438975
 31
0.0
  0
LINE
  5
8836
  8
0
 10
4459.5534704437613982
 20
235.8739582149503917
 30
0.0
 11
4459.5645116918612985
 21
235.8699265135504106
 31
0.0
  0
LINE
  5
8837
  8
0
 10
4459.5645116918612985
 20
235.8699265135504106
 30
0.0
 11
4459.5715019863609996
 21
235.8876157284504131
 31
0.0
  0
LINE
  5
8838
  8
0
 10
4459.5715019863609996
 20
235.8876157284504131
 30
0.0
 11
4459.5604607382610993
 21
235.8916474298503942
 31
0.0
  0
LINE
  5
8839
  8
0
 10
4459.5604607382610993
 20
235.8916474298503942
 30
0.0
 11
4459.5534704437613982
 21
235.8739582149503917
 31
0.0
  0
LINE
  5
883A
  8
0
 10
4459.5545947219807204
 20
235.876803245159806
 30
0.0
 11
4459.5645116918612985
 21
235.8731820728503976
 31
0.0
  0
LINE
  5
883B
  8
0
 10
4459.5645116918612985
 20
235.8731820728503976
 30
0.0
 11
4459.5645116918612985
 21
235.8699265135504106
 31
0.0
  0
LINE
  5
883C
  8
0
 10
4459.5645116918612985
 20
235.8731820728503976
 30
0.0
 11
4459.570377708221713
 21
235.888026257559801
 31
0.0
  0
LINE
  5
883D
  8
0
 10
4459.5643271105618624
 20
235.8983074558003921
 30
0.0
 11
4459.5753683586608531
 21
235.894275754400411
 31
0.0
  0
LINE
  5
883E
  8
0
 10
4459.5753683586608531
 20
235.894275754400411
 30
0.0
 11
4459.5823586531605542
 21
235.9119649693004135
 31
0.0
  0
LINE
  5
883F
  8
0
 10
4459.5823586531605542
 20
235.9119649693004135
 30
0.0
 11
4459.571317405060654
 21
235.9159966707003946
 31
0.0
  0
LINE
  5
8840
  8
0
 10
4459.571317405060654
 20
235.9159966707003946
 30
0.0
 11
4459.5643271105618624
 21
235.8983074558003921
 31
0.0
  0
LINE
  5
8841
  8
0
 10
4459.565451388780275
 20
235.9011524860098064
 30
0.0
 11
4459.5753683586608531
 21
235.897531313700398
 31
0.0
  0
LINE
  5
8842
  8
0
 10
4459.5753683586608531
 20
235.897531313700398
 30
0.0
 11
4459.5753683586608531
 21
235.894275754400411
 31
0.0
  0
LINE
  5
8843
  8
0
 10
4459.5753683586608531
 20
235.897531313700398
 30
0.0
 11
4459.5812343750221771
 21
235.9123754984096877
 31
0.0
  0
LINE
  5
8844
  8
0
 10
4459.575183777361417
 20
235.9226566966503924
 30
0.0
 11
4459.5862250254613173
 21
235.9186249952504113
 31
0.0
  0
LINE
  5
8845
  8
0
 10
4459.5862250254613173
 20
235.9186249952504113
 30
0.0
 11
4459.5932153199610184
 21
235.9363142101503001
 31
0.0
  0
LINE
  5
8846
  8
0
 10
4459.5932153199610184
 20
235.9363142101503001
 30
0.0
 11
4459.5821740718611181
 21
235.9403459115503949
 31
0.0
  0
LINE
  5
8847
  8
0
 10
4459.5821740718611181
 20
235.9403459115503949
 30
0.0
 11
4459.575183777361417
 21
235.9226566966503924
 31
0.0
  0
LINE
  5
8848
  8
0
 10
4459.5763080555798297
 20
235.9255017268598067
 30
0.0
 11
4459.5862250254613173
 21
235.9218805545503983
 31
0.0
  0
LINE
  5
8849
  8
0
 10
4459.5862250254613173
 20
235.9218805545503983
 30
0.0
 11
4459.5862250254613173
 21
235.9186249952504113
 31
0.0
  0
LINE
  5
884A
  8
0
 10
4459.5862250254613173
 20
235.9218805545503983
 30
0.0
 11
4459.5920910418208223
 21
235.9367247392598017
 31
0.0
  0
LINE
  5
884B
  8
0
 10
4459.5438406113607925
 20
235.9348295966503031
 30
0.0
 11
4459.5548818594606928
 21
235.9307978952504072
 31
0.0
  0
LINE
  5
884C
  8
0
 10
4459.5548818594606928
 20
235.9307978952504072
 30
0.0
 11
4459.5618721539613034
 21
235.9484871101504098
 31
0.0
  0
LINE
  5
884D
  8
0
 10
4459.5618721539613034
 20
235.9484871101504098
 30
0.0
 11
4459.5508309058614032
 21
235.9525188115503909
 31
0.0
  0
LINE
  5
884E
  8
0
 10
4459.5508309058614032
 20
235.9525188115503909
 30
0.0
 11
4459.5438406113607925
 21
235.9348295966503031
 31
0.0
  0
LINE
  5
884F
  8
0
 10
4459.5449648895792052
 20
235.9376746268598026
 30
0.0
 11
4459.5548818594606928
 21
235.9340534545503942
 31
0.0
  0
LINE
  5
8850
  8
0
 10
4459.5548818594606928
 20
235.9340534545503942
 30
0.0
 11
4459.5548818594606928
 21
235.9307978952504072
 31
0.0
  0
LINE
  5
8851
  8
0
 10
4459.5548818594606928
 20
235.9340534545503942
 30
0.0
 11
4459.5607478758220168
 21
235.9488976392597976
 31
0.0
  0
LINE
  5
8852
  8
0
 10
4459.5860404441600622
 20
235.947005937450399
 30
0.0
 11
4459.5970816922608719
 21
235.9429742360503894
 31
0.0
  0
LINE
  5
8853
  8
0
 10
4459.5970816922608719
 20
235.9429742360503894
 30
0.0
 11
4459.604071986762392
 21
235.9606634509503067
 31
0.0
  0
LINE
  5
8854
  8
0
 10
4459.604071986762392
 20
235.9606634509503067
 30
0.0
 11
4459.5930307386615823
 21
235.9646951523504015
 31
0.0
  0
LINE
  5
8855
  8
0
 10
4459.5930307386615823
 20
235.9646951523504015
 30
0.0
 11
4459.5860404441600622
 21
235.947005937450399
 31
0.0
  0
LINE
  5
8856
  8
0
 10
4459.5871647223802938
 20
235.9498509676598133
 30
0.0
 11
4459.5970816922608719
 21
235.9462297953504049
 31
0.0
  0
LINE
  5
8857
  8
0
 10
4459.5970816922608719
 20
235.9462297953504049
 30
0.0
 11
4459.5970816922608719
 21
235.9429742360503894
 31
0.0
  0
LINE
  5
8858
  8
0
 10
4459.5970816922608719
 20
235.9462297953504049
 30
0.0
 11
4459.6029477086221959
 21
235.9610739800598083
 31
0.0
  0
LINE
  5
8859
  8
0
 10
4459.5536270237107601
 20
235.9595944975004045
 30
0.0
 11
4459.5646682718115699
 21
235.955562796100395
 31
0.0
  0
LINE
  5
885A
  8
0
 10
4459.5646682718115699
 20
235.955562796100395
 30
0.0
 11
4459.571658566311271
 21
235.9732520110003975
 31
0.0
  0
LINE
  5
885B
  8
0
 10
4459.571658566311271
 20
235.9732520110003975
 30
0.0
 11
4459.5606173182113707
 21
235.977283712400407
 31
0.0
  0
LINE
  5
885C
  8
0
 10
4459.5606173182113707
 20
235.977283712400407
 30
0.0
 11
4459.5536270237107601
 21
235.9595944975004045
 31
0.0
  0
LINE
  5
885D
  8
0
 10
4459.5547513019309918
 20
235.9624395277097904
 30
0.0
 11
4459.5646682718115699
 21
235.9588183554004104
 31
0.0
  0
LINE
  5
885E
  8
0
 10
4459.5646682718115699
 20
235.9588183554004104
 30
0.0
 11
4459.5646682718115699
 21
235.955562796100395
 31
0.0
  0
LINE
  5
885F
  8
0
 10
4459.5646682718115699
 20
235.9588183554004104
 30
0.0
 11
4459.5705342881719844
 21
235.9736625401097001
 31
0.0
  0
LINE
  5
8860
  8
0
 10
4459.5634134360607277
 20
235.9843593983003984
 30
0.0
 11
4459.5744546841606279
 21
235.9803276969003889
 31
0.0
  0
LINE
  5
8861
  8
0
 10
4459.5744546841606279
 20
235.9803276969003889
 30
0.0
 11
4459.5765245510556269
 21
235.9855655764098117
 31
0.0
  0
LINE
  5
8862
  8
0
 10
4459.5655531293359672
 20
235.9897739762076867
 30
0.0
 11
4459.5634134360607277
 21
235.9843593983003984
 31
0.0
  0
LINE
  5
8863
  8
0
 10
4459.5645377142809593
 20
235.9872044285098127
 30
0.0
 11
4459.5744546841606279
 21
235.9835832562004043
 31
0.0
  0
LINE
  5
8864
  8
0
 10
4459.5744546841606279
 20
235.9835832562004043
 30
0.0
 11
4459.5744546841606279
 21
235.9803276969003889
 31
0.0
  0
LINE
  5
8865
  8
0
 10
4459.5744546841606279
 20
235.9835832562004043
 30
0.0
 11
4459.5754390979263917
 21
235.9860743538808947
 31
0.0
  0
LINE
  5
8866
  8
0
 10
4459.520693637061413
 20
235.970867262900299
 30
0.0
 11
4459.5317348851613133
 21
235.9668355615004032
 31
0.0
  0
LINE
  5
8867
  8
0
 10
4459.5317348851613133
 20
235.9668355615004032
 30
0.0
 11
4459.5387251796610144
 21
235.9845247764004057
 31
0.0
  0
LINE
  5
8868
  8
0
 10
4459.5387251796610144
 20
235.9845247764004057
 30
0.0
 11
4459.5276839315602047
 21
235.9885564778003868
 31
0.0
  0
LINE
  5
8869
  8
0
 10
4459.5276839315602047
 20
235.9885564778003868
 30
0.0
 11
4459.520693637061413
 21
235.970867262900299
 31
0.0
  0
LINE
  5
886A
  8
0
 10
4459.5218179152798257
 20
235.9737122931097986
 30
0.0
 11
4459.5317348851613133
 21
235.9700911208003902
 31
0.0
  0
LINE
  5
886B
  8
0
 10
4459.5317348851613133
 20
235.9700911208003902
 30
0.0
 11
4459.5317348851613133
 21
235.9668355615004032
 31
0.0
  0
LINE
  5
886C
  8
0
 10
4459.5317348851613133
 20
235.9700911208003902
 30
0.0
 11
4459.5376009015217278
 21
235.9849353055097936
 31
0.0
  0
LINE
  5
886D
  8
0
 10
4459.5119946478607744
 20
235.9457301481004095
 30
0.0
 11
4459.5230358959606747
 21
235.9416984467003999
 31
0.0
  0
LINE
  5
886E
  8
0
 10
4459.5230358959606747
 20
235.9416984467003999
 30
0.0
 11
4459.5300261904612853
 21
235.9593876616004025
 31
0.0
  0
LINE
  5
886F
  8
0
 10
4459.5300261904612853
 20
235.9593876616004025
 30
0.0
 11
4459.518984942361385
 21
235.963419363000412
 31
0.0
  0
LINE
  5
8870
  8
0
 10
4459.518984942361385
 20
235.963419363000412
 30
0.0
 11
4459.5119946478607744
 21
235.9457301481004095
 31
0.0
  0
LINE
  5
8871
  8
0
 10
4459.5131189260800966
 20
235.9485751783097953
 30
0.0
 11
4459.5230358959606747
 21
235.9449540060003017
 31
0.0
  0
LINE
  5
8872
  8
0
 10
4459.5230358959606747
 20
235.9449540060003017
 30
0.0
 11
4459.5230358959606747
 21
235.9416984467003999
 31
0.0
  0
LINE
  5
8873
  8
0
 10
4459.5230358959606747
 20
235.9449540060003017
 30
0.0
 11
4459.5289019123219987
 21
235.9597981907097903
 31
0.0
  0
LINE
  5
8874
  8
0
 10
4459.5032956586610453
 20
235.9205930333504
 30
0.0
 11
4459.5143369067618551
 21
235.9165613319503905
 31
0.0
  0
LINE
  5
8875
  8
0
 10
4459.5143369067618551
 20
235.9165613319503905
 30
0.0
 11
4459.5213272012606467
 21
235.934250546850393
 31
0.0
  0
LINE
  5
8876
  8
0
 10
4459.5213272012606467
 20
235.934250546850393
 30
0.0
 11
4459.5102859531607464
 21
235.9382822482504025
 31
0.0
  0
LINE
  5
8877
  8
0
 10
4459.5102859531607464
 20
235.9382822482504025
 30
0.0
 11
4459.5032956586610453
 21
235.9205930333504
 31
0.0
  0
LINE
  5
8878
  8
0
 10
4459.5044199368803675
 20
235.9234380635597859
 30
0.0
 11
4459.5143369067618551
 21
235.9198168912504059
 31
0.0
  0
LINE
  5
8879
  8
0
 10
4459.5143369067618551
 20
235.9198168912504059
 30
0.0
 11
4459.5143369067618551
 21
235.9165613319503905
 31
0.0
  0
LINE
  5
887A
  8
0
 10
4459.5143369067618551
 20
235.9198168912504059
 30
0.0
 11
4459.5202029231222696
 21
235.9346610759596956
 31
0.0
  0
LINE
  5
887B
  8
0
 10
4459.4945966694613162
 20
235.8954559186003053
 30
0.0
 11
4459.5056379175612165
 21
235.8914242172004094
 31
0.0
  0
LINE
  5
887C
  8
0
 10
4459.5056379175612165
 20
235.8914242172004094
 30
0.0
 11
4459.5126282120618271
 21
235.909113432100412
 31
0.0
  0
LINE
  5
887D
  8
0
 10
4459.5126282120618271
 20
235.909113432100412
 30
0.0
 11
4459.5015869639610173
 21
235.9131451335003931
 31
0.0
  0
LINE
  5
887E
  8
0
 10
4459.5015869639610173
 20
235.9131451335003931
 30
0.0
 11
4459.4945966694613162
 21
235.8954559186003053
 31
0.0
  0
LINE
  5
887F
  8
0
 10
4459.4957209476806383
 20
235.8983009488098048
 30
0.0
 11
4459.5056379175612165
 21
235.8946797765003964
 31
0.0
  0
LINE
  5
8880
  8
0
 10
4459.5056379175612165
 20
235.8946797765003964
 30
0.0
 11
4459.5056379175612165
 21
235.8914242172004094
 31
0.0
  0
LINE
  5
8881
  8
0
 10
4459.5056379175612165
 20
235.8946797765003964
 30
0.0
 11
4459.511503933921631
 21
235.9095239612097998
 31
0.0
  0
LINE
  5
8882
  8
0
 10
4459.5006374406430041
 20
235.877728167197489
 30
0.0
 11
4459.5034049907362714
 21
235.8847315614532079
 31
0.0
  0
LINE
  5
8883
  8
0
 10
4459.5034049907362714
 20
235.8847315614532079
 30
0.0
 11
4459.4923637426363712
 21
235.8887632628531037
 31
0.0
  0
LINE
  5
8884
  8
0
 10
4459.4923637426363712
 20
235.8887632628531037
 30
0.0
 11
4459.4905531610884282
 21
235.8841815151041885
 31
0.0
  0
LINE
  5
8885
  8
0
 10
4459.499584407923976
 20
235.8783189857273896
 30
0.0
 11
4459.5022807125969848
 21
235.8851420905625957
 31
0.0
  0
LINE
  5
8886
  8
0
 10
4459.4737453967645706
 20
235.9016030756386044
 30
0.0
 11
4459.474507949918916
 21
235.9013246300690128
 31
0.0
  0
LINE
  5
8887
  8
0
 10
4459.474507949918916
 20
235.9013246300690128
 30
0.0
 11
4459.4814982444204361
 21
235.9190138449689869
 31
0.0
  0
LINE
  5
8888
  8
0
 10
4459.4814982444204361
 20
235.9190138449689869
 30
0.0
 11
4459.4716138611820497
 21
235.9226231182481115
 31
0.0
  0
LINE
  5
8889
  8
0
 10
4459.47294919799333
 20
235.9051493661814902
 30
0.0
 11
4459.474507949918916
 21
235.9045801893689998
 31
0.0
  0
LINE
  5
888A
  8
0
 10
4459.474507949918916
 20
235.9045801893689998
 30
0.0
 11
4459.474507949918916
 21
235.9013246300690128
 31
0.0
  0
LINE
  5
888B
  8
0
 10
4459.474507949918916
 20
235.9045801893689998
 30
0.0
 11
4459.4803739662793305
 21
235.9194243740784032
 31
0.0
  0
LINE
  5
888C
  8
0
 10
4459.472276680124196
 20
235.9297694335363076
 30
0.0
 11
4459.482677038346992
 21
235.9259717524745952
 31
0.0
  0
LINE
  5
888D
  8
0
 10
4459.482677038346992
 20
235.9259717524745952
 30
0.0
 11
4459.4896673328466932
 21
235.9436609673745977
 31
0.0
  0
LINE
  5
888E
  8
0
 10
4459.4896673328466932
 20
235.9436609673745977
 30
0.0
 11
4459.4786260847467929
 21
235.9476926687746072
 31
0.0
  0
LINE
  5
888F
  8
0
 10
4459.4786260847467929
 20
235.9476926687746072
 30
0.0
 11
4459.4728020478987673
 21
235.9329547146880941
 31
0.0
  0
LINE
  5
8890
  8
0
 10
4459.4727807883373316
 20
235.9328409182421069
 30
0.0
 11
4459.482677038346992
 21
235.9292273117746106
 31
0.0
  0
LINE
  5
8891
  8
0
 10
4459.482677038346992
 20
235.9292273117746106
 30
0.0
 11
4459.482677038346992
 21
235.9259717524745952
 31
0.0
  0
LINE
  5
8892
  8
0
 10
4459.482677038346992
 20
235.9292273117746106
 30
0.0
 11
4459.4885430547074066
 21
235.9440714964839003
 31
0.0
  0
LINE
  5
8893
  8
0
 10
4459.4806992168723809
 20
235.9549105153033111
 30
0.0
 11
4459.4900225360497643
 21
235.9515061140394039
 31
0.0
  0
LINE
  5
8894
  8
0
 10
4459.4900225360497643
 20
235.9515061140394039
 30
0.0
 11
4459.4970128305512844
 21
235.9691953289394064
 31
0.0
  0
LINE
  5
8895
  8
0
 10
4459.4970128305512844
 20
235.9691953289394064
 30
0.0
 11
4459.4925647331237997
 21
235.9708195475475065
 31
0.0
  0
LINE
  5
8896
  8
0
 10
4459.4822594221795953
 20
235.9575963671341015
 30
0.0
 11
4459.4900225360497643
 21
235.9547616733393909
 31
0.0
  0
LINE
  5
8897
  8
0
 10
4459.4900225360497643
 20
235.9547616733393909
 30
0.0
 11
4459.4900225360497643
 21
235.9515061140394039
 31
0.0
  0
LINE
  5
8898
  8
0
 10
4459.4900225360497643
 20
235.9547616733393909
 30
0.0
 11
4459.4958885524119978
 21
235.9696058580487943
 31
0.0
  0
LINE
  5
8899
  8
0
 10
4459.5947149192561483
 20
235.8859426836094997
 30
0.0
 11
4459.6002428729416351
 21
235.8839241564996883
 31
0.0
  0
LINE
  5
889A
  8
0
 10
4459.6096520693008642
 20
235.8917697151622974
 30
0.0
 11
4459.6127464618557497
 21
235.8996001971094927
 31
0.0
  0
LINE
  5
889B
  8
0
 10
4459.6127464618557497
 20
235.8996001971094927
 30
0.0
 11
4459.6017052137549399
 21
235.9036318985095022
 31
0.0
  0
LINE
  5
889C
  8
0
 10
4459.6017052137549399
 20
235.9036318985095022
 30
0.0
 11
4459.5947149192561483
 21
235.8859426836094997
 31
0.0
  0
LINE
  5
889D
  8
0
 10
4459.5958391974745609
 20
235.888787713818914
 30
0.0
 11
4459.603141378996952
 21
235.886121329041913
 31
0.0
  0
LINE
  5
889E
  8
0
 10
4459.6076250994374277
 20
235.8898959475201025
 30
0.0
 11
4459.6116221837155535
 21
235.900010726218909
 31
0.0
  0
LINE
  5
889F
  8
0
 10
4459.6059691594118704
 20
235.909232803300398
 30
0.0
 11
4459.6170104075108611
 21
235.9052011019003885
 31
0.0
  0
LINE
  5
88A0
  8
0
 10
4459.6170104075108611
 20
235.9052011019003885
 30
0.0
 11
4459.6192649302029167
 21
235.9109062601598055
 31
0.0
  0
LINE
  5
88A1
  8
0
 10
4459.6193345227411555
 20
235.9245941677897065
 30
0.0
 11
4459.612959453910662
 21
235.9269220182004005
 31
0.0
  0
LINE
  5
88A2
  8
0
 10
4459.612959453910662
 20
235.9269220182004005
 30
0.0
 11
4459.6059691594118704
 21
235.909232803300398
 31
0.0
  0
LINE
  5
88A3
  8
0
 10
4459.6070934376311925
 20
235.9120778335098123
 30
0.0
 11
4459.6170104075108611
 21
235.9084566612004039
 31
0.0
  0
LINE
  5
88A4
  8
0
 10
4459.6170104075108611
 20
235.9084566612004039
 30
0.0
 11
4459.6170104075108611
 21
235.9052011019003885
 31
0.0
  0
LINE
  5
88A5
  8
0
 10
4459.6170104075108611
 20
235.9084566612004039
 30
0.0
 11
4459.6195532069932597
 21
235.9148913151242937
 31
0.0
  0
ARC
  5
88A6
  8
0
 10
4459.5455739871658807
 20
235.959053690260987
 30
0.0
 40
0.0929146593119756
 50
219.9377556048231099
 51
320.5545088839348864
  0
ARC
  5
88A7
  8
0
 10
4459.5455189414697088
 20
235.9272829711034092
 30
0.0
 40
0.1253275304978258
 50
189.1160166558364892
 51
351.3688463986288752
  0
ARC
  5
88A8
  8
0
 10
4459.5470806297316813
 20
235.9198909433538063
 30
0.0
 40
0.1228779736119558
 50
354.6691240003481767
 51
95.9249127983171661
  0
ARC
  5
88A9
  8
0
 10
4459.5430007157410728
 20
235.9204884708420877
 30
0.0
 40
0.121928002172087
 50
94.0465901239261086
 51
186.149665241776006
  0
ARC
  5
88AA
  8
0
 10
4459.5428124700902117
 20
235.9265541461419957
 30
0.0
 40
0.1269571199190625
 50
169.5648840891431064
 51
271.1701540987489238
  0
ARC
  5
88AB
  8
0
 10
4459.5450111486288733
 20
235.926149220024314
 30
0.0
 40
0.1291927747409147
 50
351.7907132377011976
 51
169.5648840891431064
  0
ARC
  5
88AC
  8
0
 10
4459.5480583591515824
 20
235.92570960610621
 30
0.0
 40
0.1261140164899482
 50
268.7945078861637853
 51
351.7907132377011976
  0
ARC
  5
88AD
  8
0
 10
4459.2615478080033427
 20
236.1250989617840901
 30
0.0
 40
0.0423063705143867
 50
88.3592571255124142
 51
132.4890672593670899
  0
ARC
  5
88AE
  8
0
 10
4459.3058179989156997
 20
236.0767680145978034
 30
0.0
 40
0.1078481912052207
 50
132.4890672593670899
 51
231.0587103390801929
  0
ARC
  5
88AF
  8
0
 10
4459.264642404924416
 20
236.0297492440145959
 30
0.0
 40
0.0454649429380181
 50
234.1774888384196913
 51
267.6136106216171129
  0
ARC
  5
88B0
  8
0
 10
4459.2639704782213812
 20
236.1250989617840901
 30
0.0
 40
0.0423063705143867
 50
47.5109327406328319
 51
91.6407428744875716
  0
ARC
  5
88B1
  8
0
 10
4459.2197002873062956
 20
236.0767680145978034
 30
0.0
 40
0.1078481912052207
 50
308.9412896609197787
 51
47.5109327406328319
  0
ARC
  5
88B2
  8
0
 10
4459.2608758812993983
 20
236.0297492440145959
 30
0.0
 40
0.0454649429380181
 50
272.3863893783828871
 51
305.8225111615802803
  0
ARC
  5
88B3
  8
0
 10
4459.262846595949668
 20
236.0999664478455031
 30
0.0
 40
0.0421329154529231
 50
90.1189255982727246
 51
269.8810744017271759
  0
ARC
  5
88B4
  8
0
 10
4459.2626716902723274
 20
236.0999664478455031
 30
0.0
 40
0.0421329154529231
 50
270.1189255982727104
 51
89.8810744017272611
  0
ARC
  5
88B5
  8
0
 10
4459.2625919597594475
 20
236.1611893205283081
 30
0.0
 40
0.0407393107093662
 50
226.978399685479701
 51
313.3350230992490992
  0
ARC
  5
88B6
  8
0
 10
4460.1854285161089138
 20
235.292681041605789
 30
0.0
 40
0.1120830224936187
 50
98.3956562562612334
 51
140.9388402350406864
  0
ARC
  5
88B7
  8
0
 10
4460.1662601407797411
 20
235.422557157124686
 30
0.0
 40
0.0192
 50
278.3956562562611907
 51
280.2171487028646197
  0
ARC
  5
88B8
  8
0
 10
4460.1361757266558925
 20
235.332652289447708
 30
0.0
 40
0.0486516586192756
 50
140.9388402350406864
 51
229.3374877143955928
  0
ARC
  5
88B9
  8
0
 10
4460.1601774758482861
 20
235.3743960356480045
 30
0.0
 40
0.096376961280975
 50
234.6919020324305052
 51
282.0970407416576222
  0
ARC
  5
88BA
  8
0
 10
4460.1637464978703065
 20
235.3898784396303085
 30
0.0
 40
0.1109721387823567
 50
278.6178871517229254
 51
321.4115181385369056
  0
ARC
  5
88BB
  8
0
 10
4460.2125447177086244
 20
235.3516162245782937
 30
0.0
 40
0.0489670660574978
 50
320.7924781177165983
 51
73.829020894999843
  0
ARC
  5
88BC
  8
0
 10
4460.1887497797806645
 20
235.2977792911565871
 30
0.0
 40
0.1075884052189467
 50
69.6396630892131014
 51
100.2171487028646055
  0
ARC
  5
88BD
  8
0
 10
4460.1896059397549834
 20
235.3424108770450118
 30
0.0
 40
0.0369086135046815
 50
264.5192287324646827
 51
292.6861557630987249
  0
ARC
  5
88BE
  8
0
 10
4460.1911931776658093
 20
235.3477965003442876
 30
0.0
 40
0.0414170855314769
 50
287.7807971527586233
 51
79.2682083613048292
  0
ARC
  5
88BF
  8
0
 10
4460.1949884939049298
 20
235.3429817806714937
 30
0.0
 40
0.0456756724210247
 50
85.0804111709672242
 51
161.3033938845391049
  0
ARC
  5
88C0
  8
0
 10
4460.1894539562335922
 20
235.3452380965069892
 30
0.0
 40
0.0397115789407038
 50
161.8273016385045082
 51
265.1272185583662235
  0
ARC
  5
88C1
  8
0
 10
4459.89337575139416
 20
235.8357648567493072
 30
0.0
 40
0.1120830224936187
 50
129.5472633275091141
 51
172.0904473063062028
  0
ARC
  5
88C2
  8
0
 10
4459.809785945079966
 20
235.9369971454487995
 30
0.0
 40
0.0192
 50
309.5472633275090857
 51
311.3687557740901752
  0
ARC
  5
88C3
  8
0
 10
4459.8305478396496255
 20
235.8444936269264929
 30
0.0
 40
0.0486516586192756
 50
172.0904473063062028
 51
260.4890947856794128
  0
ARC
  5
88C4
  8
0
 10
4459.8294943499977308
 20
235.8926341968299027
 30
0.0
 40
0.096376961280975
 50
265.8435091036736253
 51
313.2486478128872136
  0
ARC
  5
88C5
  8
0
 10
4459.8245396091142538
 20
235.9077303318998133
 30
0.0
 40
0.1109721387823567
 50
309.7694942229798016
 51
352.5631252097905985
  0
ARC
  5
88C6
  8
0
 10
4459.8860944093739818
 20
235.9002290036804936
 30
0.0
 40
0.0489670660574978
 50
351.9440851889630721
 51
104.9806279662638957
  0
ARC
  5
88C7
  8
0
 10
4459.8935807470152213
 20
235.841846050518086
 30
0.0
 40
0.1075884052189467
 50
100.7912701604228971
 51
131.36875577409009
  0
ARC
  5
88C8
  8
0
 10
4459.8712253355570283
 20
235.8804847234688964
 30
0.0
 40
0.0369086135046815
 50
295.6708358037075186
 51
323.8377628343204719
  0
ARC
  5
88C9
  8
0
 10
4459.8697976896546606
 20
235.8859148330145104
 30
0.0
 40
0.0414170855314769
 50
318.9324042240157269
 51
110.4198154325645049
  0
ARC
  5
88CA
  8
0
 10
4459.8755364024718801
 20
235.8837577224281006
 30
0.0
 40
0.0456756724210247
 50
116.2320182422231056
 51
192.4550009557858914
  0
ARC
  5
88CB
  8
0
 10
4459.8696327348488921
 20
235.8828256403535875
 30
0.0
 40
0.0397115789407038
 50
192.9789087097695983
 51
296.2788256296390728
  0
ARC
  5
88CC
  8
0
 10
4460.1932695811101439
 20
235.4099378238024087
 30
0.0
 40
0.0402166733716893
 50
229.6881020650538971
 51
309.1988930251570764
  0
ARC
  5
88CD
  8
0
 10
4459.8701141493402247
 20
235.9501234409437984
 30
0.0
 40
0.0418693493127771
 50
232.0129340172640866
 51
309.0223121030389279
  0
ARC
  5
88CE
  8
0
 10
4459.1458356472930973
 20
234.6907720831922006
 30
0.0
 40
0.039327017908732
 50
193.5669555855280066
 51
11.0482179302363193
  0
ARC
  5
88CF
  8
0
 10
4459.1262702445683317
 20
234.6860506569144889
 30
0.0
 40
0.0192
 50
185.5303509398688959
 51
193.5669555855280066
  0
ARC
  5
88D0
  8
0
 10
4459.146391083697381
 20
234.6879988312219041
 30
0.0
 40
0.0394149338456688
 50
15.1631231485380802
 51
185.5303509398706012
  0
ARC
  5
88D1
  8
0
 10
4459.1460820206129938
 20
234.7462828423417989
 30
0.0
 40
0.0385016293381976
 50
228.1254636756029015
 51
312.482176187092989
  0
ARC
  5
88D2
  8
0
 10
4459.1460719461611006
 20
234.7127849261297001
 30
0.0
 40
0.0377200286345382
 50
195.7287758721479065
 51
345.7465855009385791
  0
LINE
  5
88D3
  8
0
 10
4459.1677246148783524
 20
234.7144398906060019
 30
0.0
 11
4459.1262700074375971
 21
234.7218910028884125
 31
0.0
  0
ARC
  5
88D4
  8
0
 10
4459.1430878723222122
 20
234.6924339126234997
 30
0.0
 40
0.0703887942355281
 50
97.990515752348486
 51
225.2571873503783877
  0
ARC
  5
88D5
  8
0
 10
4459.1458753960650938
 20
234.6952465744585083
 30
0.0
 40
0.0743487633284357
 50
225.2571873503783877
 51
346.6191459916088888
  0
ARC
  5
88D6
  8
0
 10
4459.1467430015663922
 20
234.6908011080803931
 30
0.0
 40
0.0725931646283831
 50
349.8758608151047724
 51
100.6692299288767032
  0
ARC
  5
88D7
  8
0
 10
4459.1461972024708302
 20
234.6945771784648969
 30
0.0
 40
0.0738667826841814
 50
347.3229838176341104
 51
192.224324528173014
  0
ARC
  5
88D8
  8
0
 10
4459.3468934357915714
 20
234.6652753416954056
 30
0.0
 40
0.0702702609739739
 50
97.6936686283664812
 51
249.6603622775112115
  0
ARC
  5
88D9
  8
0
 10
4459.3525145774201519
 20
234.6655509489482085
 30
0.0
 40
0.0709715421675993
 50
317.2246190669105204
 51
102.2253119321856047
  0
ARC
  5
88DA
  8
0
 10
4459.3500738750281016
 20
234.6699322946863049
 30
0.0
 40
0.0757545888268093
 50
248.6290825072071868
 51
316.0458204711974872
  0
ARC
  5
88DB
  8
0
 10
4459.3499344808196838
 20
234.6635160278358114
 30
0.0
 40
0.0394570215309807
 50
200.1518599954108026
 51
7.665948406246228
  0
ARC
  5
88DC
  8
0
 10
4459.3505780594623502
 20
234.6609171792279085
 30
0.0
 40
0.0392561985013245
 50
11.5534429157581204
 51
196.2643654859126912
  0
ARC
  5
88DD
  8
0
 10
4459.3502663747121915
 20
234.7190498590958043
 30
0.0
 40
0.0384960287405419
 50
228.1967166324818095
 51
312.4134079385356131
  0
ARC
  5
88DE
  8
0
 10
4459.3502528128828999
 20
234.6857306137123089
 30
0.0
 40
0.0377704353801962
 50
196.2638731670537879
 51
345.2380703966701958
  0
ARC
  5
88DF
  8
0
 10
4459.3500454103977972
 20
234.6676798333907072
 30
0.0
 40
0.0738982130633111
 50
344.8132101649579795
 51
194.1900428534397065
  0
ARC
  5
88E0
  8
0
 10
4459.5296978489368485
 20
234.7573222243208022
 30
0.0
 40
0.0710163502650536
 50
98.1194720807760348
 51
282.5734545252151975
  0
ARC
  5
88E1
  8
0
 10
4459.5343062736210413
 20
234.7578090147511887
 30
0.0
 40
0.0713357986763539
 50
319.0691371874191873
 51
101.8416204835837959
  0
ARC
  5
88E2
  8
0
 10
4459.5317590329277664
 20
234.7647089795690079
 30
0.0
 40
0.0778614404297809
 50
279.9088100513333188
 51
316.4602378197096186
  0
ARC
  5
88E3
  8
0
 10
4459.5344930776600449
 20
234.7583599483369881
 30
0.0
 40
0.075911630901248
 50
49.4884856098233286
 51
188.5080995273403914
  0
ARC
  5
88E4
  8
0
 10
4459.5389507882500766
 20
234.7635771334107915
 30
0.0
 40
0.0690494006664454
 50
336.2422971708228943
 51
49.4884856098233286
  0
ARC
  5
88E5
  8
0
 10
4459.5313108449818174
 20
234.7549961236211118
 30
0.0
 40
0.0381344377703767
 50
82.440595702092466
 51
275.0623557126339733
  0
ARC
  5
88E6
  8
0
 10
4459.5338987438453842
 20
234.7549397221526135
 30
0.0
 40
0.0379372429919885
 50
271.1736868161056009
 51
86.3292645986226432
  0
ARC
  5
88E7
  8
0
 10
4459.532452493666824
 20
234.7783521903299118
 30
0.0
 40
0.0377897870374969
 50
194.3345018811502882
 51
345.8329340797617988
  0
ARC
  5
88E8
  8
0
 10
4459.5324483260683337
 20
234.8119118274480002
 30
0.0
 40
0.0386997717871325
 50
227.0446320589186087
 51
312.9056626796248111
  0
ARC
  5
88E9
  8
0
 10
4459.2609859671256345
 20
235.1888754491480995
 30
0.0
 40
0.6075869906458714
 50
219.4492559294581895
 51
270.1672116850803036
  0
ARC
  5
88EA
  8
0
 10
4459.2609639763377345
 20
235.1964106625738964
 30
0.0
 40
0.6151222361605542
 50
270.1672116850803036
 51
324.1971652429159008
  0
ARC
  5
88EB
  8
0
 10
4459.3296498439203788
 20
235.1468676863831035
 30
0.0
 40
0.5304330698205802
 50
324.1971652429159008
 51
355.2966450012818882
  0
ARC
  5
88EC
  8
0
 10
4458.9273440198130629
 20
234.6886134032677091
 30
0.0
 40
0.0064248608775731
 50
126.3055747751487985
 51
223.7323309234018041
  0
ARC
  5
88ED
  8
0
 10
4459.4941278053429414
 20
233.8231408154368864
 30
0.0
 40
1.040962200949207
 50
76.0036901805556653
 51
123.2391650004336014
  0
ARC
  5
88EE
  8
0
 10
4459.7438721224280016
 20
234.8266097622129962
 30
0.0
 40
0.0068917935977434
 50
325.1829192062082825
 51
72.9372804058092896
  0
ARC
  5
88EF
  8
0
 10
4459.7230453468409905
 20
235.2697718313478958
 30
0.0
 40
0.0710163502650536
 50
98.1194720807760348
 51
282.5734545252151975
  0
ARC
  5
88F0
  8
0
 10
4459.7276537715251834
 20
235.2702586217783107
 30
0.0
 40
0.0713357986763539
 50
319.0691371874191873
 51
101.8416204835837959
  0
ARC
  5
88F1
  8
0
 10
4459.7251065308319085
 20
235.2771585865961015
 30
0.0
 40
0.0778614404297809
 50
279.9088100513333188
 51
316.4602378197096186
  0
ARC
  5
88F2
  8
0
 10
4459.727840575564187
 20
235.2708095553641101
 30
0.0
 40
0.075911630901248
 50
49.4884856098233286
 51
188.5080995273403914
  0
ARC
  5
88F3
  8
0
 10
4459.7322982861542187
 20
235.2760267404379135
 30
0.0
 40
0.0690494006664454
 50
336.2422971708228943
 51
49.4884856098233286
  0
ARC
  5
88F4
  8
0
 10
4459.7246583428877784
 20
235.2674457306482907
 30
0.0
 40
0.0381344377703767
 50
82.440595702092466
 51
275.0623557126339733
  0
ARC
  5
88F5
  8
0
 10
4459.7272462417486167
 20
235.2673893291797071
 30
0.0
 40
0.0379372429919885
 50
271.1736868161056009
 51
86.3292645986226432
  0
ARC
  5
88F6
  8
0
 10
4459.7257999915709661
 20
235.2908017973570054
 30
0.0
 40
0.0377897870374969
 50
194.3345018811502882
 51
345.8329340797617988
  0
ARC
  5
88F7
  8
0
 10
4459.7257958239733853
 20
235.3243614344750938
 30
0.0
 40
0.0386997717871325
 50
227.0446320589186087
 51
312.9056626796248111
  0
ARC
  5
88F8
  8
0
 10
4459.6460938326927135
 20
235.4543406187079029
 30
0.0
 40
0.0710163502650536
 50
98.1194720807760348
 51
282.5734545252151975
  0
ARC
  5
88F9
  8
0
 10
4459.6507022573759969
 20
235.4548274091382893
 30
0.0
 40
0.0713357986763539
 50
319.0691371874191873
 51
101.8416204835837959
  0
ARC
  5
88FA
  8
0
 10
4459.6481550166854504
 20
235.4617273739561085
 30
0.0
 40
0.0778614404297809
 50
279.9088100513333188
 51
316.4602378197096186
  0
ARC
  5
88FB
  8
0
 10
4459.6508890614168195
 20
235.4553783427240887
 30
0.0
 40
0.075911630901248
 50
49.4884856098233286
 51
188.5080995273403914
  0
ARC
  5
88FC
  8
0
 10
4459.6553467720059416
 20
235.4605955277978921
 30
0.0
 40
0.0690494006664454
 50
336.2422971708228943
 51
49.4884856098233286
  0
ARC
  5
88FD
  8
0
 10
4459.6477068287385919
 20
235.4520145180082977
 30
0.0
 40
0.0381344377703767
 50
82.440595702092466
 51
275.0623557126339733
  0
ARC
  5
88FE
  8
0
 10
4459.6502947276012492
 20
235.4519581165397142
 30
0.0
 40
0.0379372429919885
 50
271.1736868161056009
 51
86.3292645986226432
  0
ARC
  5
88FF
  8
0
 10
4459.648848477422689
 20
235.4753705847170124
 30
0.0
 40
0.0377897870374969
 50
194.3345018811502882
 51
345.8329340797617988
  0
ARC
  5
8900
  8
0
 10
4459.6488443098260177
 20
235.5089302218349872
 30
0.0
 40
0.0386997717871325
 50
227.0446320589186087
 51
312.9056626796248111
  0
ARC
  5
8901
  8
0
 10
4459.4712813928990727
 20
235.5581154296625073
 30
0.0
 40
0.0710163502650536
 50
98.1194720807760348
 51
282.5734545252151975
  0
ARC
  5
8902
  8
0
 10
4459.475889817584175
 20
235.5586022200928937
 30
0.0
 40
0.0713357986763539
 50
319.0691371874191873
 51
101.8416204835837959
  0
ARC
  5
8903
  8
0
 10
4459.4733425768918096
 20
235.5655021849107129
 30
0.0
 40
0.0778614404297809
 50
279.9088100513333188
 51
316.4602378197096186
  0
ARC
  5
8904
  8
0
 10
4459.4760766216231787
 20
235.5591531536786931
 30
0.0
 40
0.075911630901248
 50
49.4884856098233286
 51
188.5080995273403914
  0
ARC
  5
8905
  8
0
 10
4459.4805343322141198
 20
235.5643703387524965
 30
0.0
 40
0.0690494006664454
 50
336.2422971708228943
 51
49.4884856098233286
  0
ARC
  5
8906
  8
0
 10
4459.4728943889467701
 20
235.5557893289629021
 30
0.0
 40
0.0381344377703767
 50
82.440595702092466
 51
275.0623557126339733
  0
ARC
  5
8907
  8
0
 10
4459.4754822878094274
 20
235.5557329274942902
 30
0.0
 40
0.0379372429919885
 50
271.1736868161056009
 51
86.3292645986226432
  0
ARC
  5
8908
  8
0
 10
4459.4740360376290482
 20
235.5791453956717021
 30
0.0
 40
0.0377897870374969
 50
194.3345018811502882
 51
345.8329340797617988
  0
ARC
  5
8909
  8
0
 10
4459.4740318700323769
 20
235.6127050327895915
 30
0.0
 40
0.0386997717871325
 50
227.0446320589186087
 51
312.9056626796248111
  0
ARC
  5
890A
  8
0
 10
4458.9136273103476924
 20
235.464825155362206
 30
0.0
 40
0.0710163502650536
 50
98.1194720807760348
 51
282.5734545252151975
  0
ARC
  5
890B
  8
0
 10
4458.9182357350318853
 20
235.4653119457925925
 30
0.0
 40
0.0713357986763539
 50
319.0691371874191873
 51
101.8416204835837959
  0
ARC
  5
890C
  8
0
 10
4458.9156884943386103
 20
235.4722119106104117
 30
0.0
 40
0.0778614404297809
 50
279.9088100513333188
 51
316.4602378197096186
  0
ARC
  5
890D
  8
0
 10
4458.9184225390708889
 20
235.4658628793785056
 30
0.0
 40
0.075911630901248
 50
49.4884856098233286
 51
188.5080995273403914
  0
ARC
  5
890E
  8
0
 10
4458.9228802496609205
 20
235.4710800644521953
 30
0.0
 40
0.0690494006664454
 50
336.2422971708228943
 51
49.4884856098233286
  0
ARC
  5
890F
  8
0
 10
4458.9152403063953898
 20
235.4624990546626009
 30
0.0
 40
0.0381344377703767
 50
82.440595702092466
 51
275.0623557126339733
  0
ARC
  5
8910
  8
0
 10
4458.9178282052562281
 20
235.4624426531941026
 30
0.0
 40
0.0379372429919885
 50
271.1736868161056009
 51
86.3292645986226432
  0
ARC
  5
8911
  8
0
 10
4458.916381955077668
 20
235.4858551213714009
 30
0.0
 40
0.0377897870374969
 50
194.3345018811502882
 51
345.8329340797617988
  0
ARC
  5
8912
  8
0
 10
4458.9163777874800871
 20
235.519414758489404
 30
0.0
 40
0.0386997717871325
 50
227.0446320589186087
 51
312.9056626796248111
  0
ARC
  5
8913
  8
0
 10
4458.7866348744182687
 20
235.3080767337208954
 30
0.0
 40
0.0710163502650536
 50
98.1194720807760348
 51
282.5734545252151975
  0
ARC
  5
8914
  8
0
 10
4458.7912432991015521
 20
235.3085635241511966
 30
0.0
 40
0.0713357986763539
 50
319.0691371874191873
 51
101.8416204835837959
  0
ARC
  5
8915
  8
0
 10
4458.7886960584100962
 20
235.315463488969101
 30
0.0
 40
0.0778614404297809
 50
279.9088100513333188
 51
316.4602378197096186
  0
ARC
  5
8916
  8
0
 10
4458.7914301031423747
 20
235.3091144577371097
 30
0.0
 40
0.075911630901248
 50
49.4884856098233286
 51
188.5080995273403914
  0
ARC
  5
8917
  8
0
 10
4458.7958878137305874
 20
235.3143316428109131
 30
0.0
 40
0.0690494006664454
 50
336.2422971708228943
 51
49.4884856098233286
  0
ARC
  5
8918
  8
0
 10
4458.7882478704641471
 20
235.3057506330212902
 30
0.0
 40
0.0381344377703767
 50
82.440595702092466
 51
275.0623557126339733
  0
ARC
  5
8919
  8
0
 10
4458.7908357693268044
 20
235.3056942315527067
 30
0.0
 40
0.0379372429919885
 50
271.1736868161056009
 51
86.3292645986226432
  0
ARC
  5
891A
  8
0
 10
4458.7893895191482443
 20
235.3291066997300049
 30
0.0
 40
0.0377897870374969
 50
194.3345018811502882
 51
345.8329340797617988
  0
ARC
  5
891B
  8
0
 10
4458.7893853515506635
 20
235.3626663368480081
 30
0.0
 40
0.0386997717871325
 50
227.0446320589186087
 51
312.9056626796248111
  0
ARC
  5
891C
  8
0
 10
4458.7789751931995852
 20
235.1086745371873974
 30
0.0
 40
0.0710163502650536
 50
98.1194720807760348
 51
282.5734545252151975
  0
ARC
  5
891D
  8
0
 10
4458.7835836178828686
 20
235.1091613276176986
 30
0.0
 40
0.0713357986763539
 50
319.0691371874191873
 51
101.8416204835837959
  0
ARC
  5
891E
  8
0
 10
4458.7810363771914126
 20
235.1160612924354893
 30
0.0
 40
0.0778614404297809
 50
279.9088100513333188
 51
316.4602378197096186
  0
ARC
  5
891F
  8
0
 10
4458.7837704219227817
 20
235.109712261203498
 30
0.0
 40
0.075911630901248
 50
49.4884856098233286
 51
188.5080995273403914
  0
ARC
  5
8920
  8
0
 10
4458.7882281325119038
 20
235.1149294462773867
 30
0.0
 40
0.0690494006664454
 50
336.2422971708228943
 51
49.4884856098233286
  0
ARC
  5
8921
  8
0
 10
4458.7805881892445541
 20
235.106348436487707
 30
0.0
 40
0.0381344377703767
 50
82.440595702092466
 51
275.0623557126339733
  0
ARC
  5
8922
  8
0
 10
4458.7831760881072114
 20
235.106292035019095
 30
0.0
 40
0.0379372429919885
 50
271.1736868161056009
 51
86.3292645986226432
  0
ARC
  5
8923
  8
0
 10
4458.7817298379277418
 20
235.1297045031965069
 30
0.0
 40
0.0377897870374969
 50
194.3345018811502882
 51
345.8329340797617988
  0
ARC
  5
8924
  8
0
 10
4458.7817256703310704
 20
235.1632641403145101
 30
0.0
 40
0.0386997717871325
 50
227.0446320589186087
 51
312.9056626796248111
  0
ARC
  5
8925
  8
0
 10
4459.3181101591326296
 20
235.7202558577000957
 30
0.0
 40
0.0064657583211032
 50
89.4191341133775666
 51
205.3676485446505922
  0
ARC
  5
8926
  8
0
 10
4460.1709871307748472
 20
235.9257619571860118
 30
0.0
 40
0.8836163089868506
 50
193.633411262136292
 51
248.6072929441922952
  0
ARC
  5
8927
  8
0
 10
4459.8511202010013221
 20
235.1080367957158046
 30
0.0
 40
0.0055741086016464
 50
244.0468905969250955
 51
356.7979310703465217
  0
ARC
  5
8928
  8
0
 10
4459.2742650708296424
 20
235.1447776416418947
 30
0.0
 40
0.5835979323502241
 50
356.3598849632870156
 51
85.6849159673639775
  0
ARC
  5
8929
  8
0
 10
4458.7264319381056339
 20
234.9179184768267987
 30
0.0
 40
0.0058756174113734
 50
205.4088031892655977
 51
309.9769153543209086
  0
ARC
  5
892A
  8
0
 10
4458.1999950693998471
 20
235.545815101028893
 30
0.0
 40
0.8252595002267582
 50
309.9769153543209086
 51
8.4747132009870985
  0
ARC
  5
892B
  8
0
 10
4459.0084744053356189
 20
235.6662783891935931
 30
0.0
 40
0.0078549244942312
 50
8.4747132009903172
 51
95.8422586065524342
  0
ARC
  5
892C
  8
0
 10
4459.253412516221033
 20
235.1478222336099009
 30
0.0
 40
0.5808161568124032
 50
115.0298434026045982
 51
203.588076221868107
  0
ARC
  5
892D
  8
0
 10
4459.0122065682908215
 20
234.1946046477700065
 30
0.0
 40
0.6277578800375663
 50
87.8329469587859961
 51
107.9478966809249982
  0
ARC
  5
892E
  8
0
 10
4459.0362988935657995
 20
234.8312896959097031
 30
0.0
 40
0.0093828349239844
 50
267.8329469587858966
 51
354.9451766168173776
  0
ARC
  5
892F
  8
0
 10
4459.0328278972574481
 20
234.8315967156582076
 30
0.0
 40
0.0128673831732061
 50
354.9451766168190261
 51
72.9328485834214746
  0
ARC
  5
8930
  8
0
 10
4459.0136557362147869
 20
234.1497275848890922
 30
0.0
 40
0.6945490800895936
 50
88.1065419899390037
 51
102.3484532235113988
  0
ARC
  5
8931
  8
0
 10
4458.8628836957432213
 20
234.8325037308773915
 30
0.0
 40
0.0048435413239954
 50
144.7758276325619988
 51
297.5221466300714042
  0
ARC
  5
8932
  8
0
 10
4458.3617983547492258
 20
235.0777341019883977
 30
0.0
 40
0.5530935326425456
 50
334.0027106014690048
 51
351.1038803097567893
  0
ARC
  5
8933
  8
0
 10
4458.898784850805896
 20
234.9921472200468031
 30
0.0
 40
0.0094536675975566
 50
0.3307632786536077
 51
79.942434423977744
  0
ARC
  5
8934
  8
0
 10
4458.8834307678107507
 20
234.9055785818260915
 30
0.0
 40
0.0973733865916575
 50
79.942434423977744
 51
83.0804363009382882
  0
ARC
  5
8935
  8
0
 10
4458.8940179241189981
 20
234.9928163623295916
 30
0.0
 40
0.0094955268892952
 50
83.0804363009382882
 51
168.7471077045852041
  0
ARC
  5
8936
  8
0
 10
4458.3748394688227563
 20
235.0748562684879914
 30
0.0
 40
0.5161324931503564
 50
327.9460479844149745
 51
351.0622561823053047
  0
ARC
  5
8937
  8
0
 10
4458.8167086334979103
 20
234.7972157862039069
 30
0.0
 40
0.0057783445654089
 50
139.9269125298239942
 51
290.812082034179582
  0
ARC
  5
8938
  8
0
 10
4460.2018638563713466
 20
235.461199115027398
 30
0.0
 40
0.6277578800375662
 50
211.6214872977776054
 51
231.7364370199053951
  0
ARC
  5
8939
  8
0
 10
4459.6593191895863129
 20
235.1271428694593055
 30
0.0
 40
0.0093828349239844
 50
31.6214872977803516
 51
118.7337169558183945
  0
ARC
  5
893A
  8
0
 10
4459.6609943498815483
 20
235.1240873965859066
 30
0.0
 40
0.0128673831732061
 50
118.7337169558183945
 51
196.7213889223858985
  0
ARC
  5
893B
  8
0
 10
4460.2383550662207199
 20
235.4873609663424929
 30
0.0
 40
0.6945490800895935
 50
211.8950823289146967
 51
226.1369935625037897
  0
ARC
  5
893C
  8
0
 10
4459.754751500265229
 20
234.9823430808035027
 30
0.0
 40
0.0048435413239954
 50
268.5643679715643088
 51
61.3106869690580183
  0
ARC
  5
893D
  8
0
 10
4459.8129676235967054
 20
234.3590271995263095
 30
0.0
 40
0.6212191051881522
 50
95.3884745369856262
 51
111.4791002256420995
  0
ARC
  5
893E
  8
0
 10
4459.8080773765768754
 20
234.3815302078008926
 30
0.0
 40
0.5763189742457971
 50
89.895755536500431
 51
111.8466894396898965
  0
ARC
  5
893F
  8
0
 10
4459.8097584696033664
 20
234.9635918478577139
 30
0.0
 40
0.0057783445654089
 50
263.7154528688013215
 51
54.6006223731644766
  0
ARC
  5
8940
  8
0
 10
4459.5897350233590259
 20
234.9252325838425861
 30
0.0
 40
0.0095926849999671
 50
193.0662563131218121
 51
293.8585265564872202
  0
ARC
  5
8941
  8
0
 10
4459.5538647565290375
 20
234.9169075775986926
 30
0.0
 40
0.0272309727685645
 50
13.0662563131218299
 51
23.8200767859258988
  0
ARC
  5
8942
  8
0
 10
4459.5880061112648036
 20
234.9282145178383132
 30
0.0
 40
0.0092351452989351
 50
105.7397518952751057
 51
181.9191602086046942
  0
ARC
  5
8943
  8
0
 10
4458.608821219487254
 20
235.80160184840841
 30
0.0
 40
0.5546596537727734
 50
327.8409087089484046
 51
350.3797465990879232
  0
ARC
  5
8944
  8
0
 10
4459.0854898182142279
 20
235.5011711654371993
 30
0.0
 40
0.0088079408383992
 50
143.809034928914798
 51
241.6211638406863074
  0
ARC
  5
8945
  8
0
 10
4459.0666804960483205
 20
235.4663533181881974
 30
0.0
 40
0.0307657004823041
 50
52.8114853023348516
 51
61.6211638406862789
  0
ARC
  5
8946
  8
0
 10
4459.0902688800679243
 20
235.5001005725059997
 30
0.0
 40
0.0105004495382704
 50
241.6117017253837957
 51
322.5677010556810274
  0
ARC
  5
8947
  8
0
 10
4458.251395898660121
 20
235.9562482351564086
 30
0.0
 40
0.9652464547002594
 50
331.3679174787296233
 51
341.4875503344330241
  0
ARC
  5
8948
  8
0
 10
4459.1722248242112983
 20
235.6479206853726112
 30
0.0
 40
0.0058311879663469
 50
30.9080833203031595
 51
161.4875503344619005
  0
ARC
  5
8949
  8
0
 10
4459.6610602938817465
 20
235.9948150136605136
 30
0.0
 40
0.5935994570271063
 50
215.4045090365426915
 51
231.9690974318187955
  0
ARC
  5
894A
  8
0
 10
4459.301417222020973
 20
235.5364014077578076
 30
0.0
 40
0.0109794650751017
 50
236.4655231480718101
 51
313.997711776971073
  0
ARC
  5
894B
  8
0
 10
4459.3008433068762315
 20
235.5369957617888872
 30
0.0
 40
0.0118056825454015
 50
313.9977117769677193
 51
337.3547428444239813
  0
ARC
  5
894C
  8
0
 10
4459.304105462159896
 20
235.5381634065309129
 30
0.0
 40
0.0095345849161866
 50
323.1873939464215937
 51
55.7226602063842194
  0
ARC
  5
894D
  8
0
 10
4459.6575959233632602
 20
235.9915630145420096
 30
0.0
 40
0.5653997594812566
 50
209.7699478299082045
 51
231.996689845685097
  0
ARC
  5
894E
  8
0
 10
4459.1615968231171792
 20
235.7078471868555027
 30
0.0
 40
0.0060105819771461
 50
29.7686738967765905
 51
169.8283818180875073
  0
ARC
  5
894F
  8
0
 10
4458.937595557475106
 20
234.3289563581726043
 30
0.0
 40
0.0593616714198135
 50
253.8003056938403006
 51
313.528438139616128
  0
ARC
  5
8950
  8
0
 10
4458.8967976039048153
 20
234.3719060447770914
 30
0.0
 40
0.1185997385295324
 50
313.5283291704693056
 51
339.2931798350348913
  0
ARC
  5
8951
  8
0
 10
4458.9220276842333988
 20
234.3623689596543045
 30
0.0
 40
0.0916272906249142
 50
339.2931798350364261
 51
23.8462251981783986
  0
ARC
  5
8952
  8
0
 10
4458.9539986487070564
 20
234.3765006572504888
 30
0.0
 40
0.0566723561188443
 50
23.8462251981783986
 51
69.565391895037223
  0
ARC
  5
8953
  8
0
 10
4458.9577537601426229
 20
234.3696208944668058
 30
0.0
 40
0.062091069740502
 50
75.0372377039533234
 51
138.2199479497589039
  0
ARC
  5
8954
  8
0
 10
4458.9846216139603712
 20
234.3384861251676057
 30
0.0
 40
0.1030081670153899
 50
135.261669253464504
 51
161.9121623843566908
  0
ARC
  5
8955
  8
0
 10
4458.9685488437544336
 20
234.3395927200944016
 30
0.0
 40
0.0874748160700403
 50
159.3317275817614131
 51
216.7690108855786093
  0
ARC
  5
8956
  8
0
 10
4458.9421501873821398
 20
234.3274169606486055
 30
0.0
 40
0.0593487631716519
 50
222.6184641529052044
 51
249.1581226458928029
  0
ARC
  5
8957
  8
0
 10
4458.9412893533217357
 20
234.3333152287084999
 30
0.0
 40
0.0456391426111454
 50
355.6399193876770255
 51
71.1700987778121146
  0
ARC
  5
8958
  8
0
 10
4458.947091485087185
 20
234.3328730074960902
 30
0.0
 40
0.0398201828592598
 50
331.274206732701316
 51
355.6396865503404001
  0
ARC
  5
8959
  8
0
 10
4458.9439506397657169
 20
234.3372766275267907
 30
0.0
 40
0.0447527985365631
 50
250.2144883117227891
 51
328.2614662119802915
  0
ARC
  5
895A
  8
0
 10
4458.9417877591386059
 20
234.3331484644556895
 30
0.0
 40
0.0456391426111465
 50
71.8299014560686828
 51
147.3600808462059035
  0
ARC
  5
895B
  8
0
 10
4458.9368878352952379
 20
234.3362871009350101
 30
0.0
 40
0.0398201828592598
 50
147.3603136835274938
 51
171.7257935011747918
  0
ARC
  5
895C
  8
0
 10
4458.9420463905853467
 20
234.3379137803856906
 30
0.0
 40
0.0447527985365634
 50
174.7385340218916951
 51
252.7855119221763971
  0
ARC
  5
895D
  8
0
 10
4458.9662500459871808
 20
234.4070944078314085
 30
0.0
 40
0.0417356560081846
 50
223.4147395987747871
 51
279.5888818376246832
  0
ARC
  5
895E
  8
0
 10
4458.4815080231292086
 20
234.6960873340991895
 30
0.0
 40
0.1120830224936187
 50
75.1470597473346231
 51
117.6902437261243932
  0
ARC
  5
895F
  8
0
 10
4458.4205019480250485
 20
234.812334875129693
 30
0.0
 40
0.0192
 50
295.8687512795193015
 51
297.690243726124379
  0
ARC
  5
8960
  8
0
 10
4458.4977679539833844
 20
234.757399262559602
 30
0.0
 40
0.0486516586192756
 50
346.7484122679642837
 51
75.1470597473346231
  0
ARC
  5
8961
  8
0
 10
4458.4537843417137992
 20
234.7769968686085065
 30
0.0
 40
0.096376961280975
 50
293.9888592407385204
 51
341.3939979499468222
  0
ARC
  5
8962
  8
0
 10
4458.4417809933793251
 20
234.7874065938694059
 30
0.0
 40
0.1109721387823567
 50
254.6743818438160929
 51
297.4680128306238771
  0
ARC
  5
8963
  8
0
 10
4458.4248818000332903
 20
234.7277435347427001
 30
0.0
 40
0.0489670660574978
 50
142.2568790873729085
 51
255.2934218646811928
  0
ARC
  5
8964
  8
0
 10
4458.4758211379503337
 20
234.698251191265598
 30
0.0
 40
0.1075884052189467
 50
115.8687512795193015
 51
146.4462368931864091
  0
ARC
  5
8965
  8
0
 10
4458.4488413527287776
 20
234.7338152554065118
 30
0.0
 40
0.0369086135046815
 50
283.3997442193148117
 51
311.5666712499249797
  0
ARC
  5
8966
  8
0
 10
4458.4443865317907694
 20
234.7372326861543002
 30
0.0
 40
0.0414170855314769
 50
136.8176916210398986
 51
288.3051028296112008
  0
ARC
  5
8967
  8
0
 10
4458.4441552622984091
 20
234.7311063115892011
 30
0.0
 40
0.0456756724210247
 50
54.782506097836972
 51
131.0054888113951961
  0
ARC
  5
8968
  8
0
 10
4458.4472989507148668
 20
234.7361895479133977
 30
0.0
 40
0.0397115789407038
 50
310.958681424006727
 51
54.2585983438415766
  0
ARC
  5
8969
  8
0
 10
4458.73059439779081
 20
234.5706485846826013
 30
0.0
 40
0.1248978714592525
 50
201.0794740523953976
 51
288.7748027657455054
  0
ARC
  5
896A
  8
0
 10
4458.7310839000319902
 20
234.5692086058193979
 30
0.0
 40
0.1233769666067412
 50
288.7748027657455054
 51
19.7389092911108683
  0
ARC
  5
896B
  8
0
 10
4458.731116142321298
 20
234.5602028682100979
 30
0.0
 40
0.1266728300485055
 50
23.5807779770550106
 51
107.6414596991861998
  0
ARC
  5
896C
  8
0
 10
4458.7262529983254353
 20
234.5663861846502982
 30
0.0
 40
0.1193384151134224
 50
106.3159808259895982
 51
199.9195735258898878
  0
ARC
  5
896D
  8
0
 10
4458.7348975583527135
 20
234.562888842694889
 30
0.0
 40
0.0713339008716047
 50
317.5018921708561948
 51
81.7484506010996057
  0
ARC
  5
896E
  8
0
 10
4458.7320285183322994
 20
234.5655176592051987
 30
0.0
 40
0.0752251817518009
 50
172.1784791936808858
 51
317.5018921708561948
  0
ARC
  5
896F
  8
0
 10
4458.731273924296147
 20
234.559148921559796
 30
0.0
 40
0.075616676704743
 50
79.4372755496888061
 51
167.3140426453406917
  0
ARC
  5
8970
  8
0
 10
4458.7313150095887977
 20
234.6031599613978074
 30
0.0
 40
0.0926383326640349
 50
219.5663721799726886
 51
321.8821024739257268
  0
LINE
  5
8971
  8
0
 10
4458.7840239363822548
 20
234.5829308616733044
 30
0.0
 11
4458.7748375153478264
 21
234.5900801333164907
 31
0.0
  0
LINE
  5
8972
  8
0
 10
4458.7748375153478264
 20
234.5900801333164907
 30
0.0
 11
4458.7627746760990703
 21
234.574580048029901
 31
0.0
  0
LINE
  5
8973
  8
0
 10
4458.7627746760990703
 20
234.574580048029901
 30
0.0
 11
4458.7722321333130822
 21
234.567779042849196
 31
0.0
  0
LINE
  5
8974
  8
0
 10
4458.7722321333130822
 20
234.567779042849196
 30
0.0
 11
4458.7840239363822548
 21
234.5829308616733044
 31
0.0
  0
LINE
  5
8975
  8
0
 10
4458.7824460100546275
 20
234.584158872440014
 30
0.0
 11
4458.7722321333058062
 21
234.5710346021492114
 31
0.0
  0
LINE
  5
8976
  8
0
 10
4458.7722321333058062
 20
234.5710346021492114
 30
0.0
 11
4458.7722321333130822
 21
234.567779042849196
 31
0.0
  0
LINE
  5
8977
  8
0
 10
4458.7722321333058062
 20
234.5710346021492114
 30
0.0
 11
4458.7643991575550899
 21
234.5766674173956119
 31
0.0
  0
LINE
  5
8978
  8
0
 10
4458.7675154120752268
 20
234.5617183153395899
 30
0.0
 11
4458.7583289910407984
 21
234.5688675869828046
 31
0.0
  0
LINE
  5
8979
  8
0
 10
4458.7583289910407984
 20
234.5688675869828046
 30
0.0
 11
4458.7462661517911329
 21
234.5533675016961865
 31
0.0
  0
LINE
  5
897A
  8
0
 10
4458.7462661517911329
 20
234.5533675016961865
 30
0.0
 11
4458.7557236090060542
 21
234.5465664965155099
 31
0.0
  0
LINE
  5
897B
  8
0
 10
4458.7557236090060542
 20
234.5465664965155099
 30
0.0
 11
4458.7675154120752268
 21
234.5617183153395899
 31
0.0
  0
LINE
  5
897C
  8
0
 10
4458.7659374857503281
 20
234.5629463261062995
 30
0.0
 11
4458.7557236089996877
 21
234.5498220558154969
 31
0.0
  0
LINE
  5
897D
  8
0
 10
4458.7557236089996877
 20
234.5498220558154969
 30
0.0
 11
4458.7557236090060542
 21
234.5465664965155099
 31
0.0
  0
LINE
  5
897E
  8
0
 10
4458.7557236089996877
 20
234.5498220558154969
 30
0.0
 11
4458.7478906332471524
 21
234.5554548710618974
 31
0.0
  0
LINE
  5
897F
  8
0
 10
4458.7510068877181766
 20
234.5405057689058879
 30
0.0
 11
4458.7418204666837482
 21
234.5476550405491025
 31
0.0
  0
LINE
  5
8980
  8
0
 10
4458.7418204666837482
 20
234.5476550405491025
 30
0.0
 11
4458.7297576274359017
 21
234.5321549552625129
 31
0.0
  0
LINE
  5
8981
  8
0
 10
4458.7297576274359017
 20
234.5321549552625129
 30
0.0
 11
4458.739215084649004
 21
234.5253539500818079
 31
0.0
  0
LINE
  5
8982
  8
0
 10
4458.739215084649004
 20
234.5253539500818079
 30
0.0
 11
4458.7510068877181766
 21
234.5405057689058879
 31
0.0
  0
LINE
  5
8983
  8
0
 10
4458.7494289613923684
 20
234.5417337796725974
 30
0.0
 11
4458.739215084641728
 21
234.5286095093817949
 31
0.0
  0
LINE
  5
8984
  8
0
 10
4458.739215084641728
 20
234.5286095093817949
 30
0.0
 11
4458.739215084649004
 21
234.5253539500818079
 31
0.0
  0
LINE
  5
8985
  8
0
 10
4458.739215084641728
 20
234.5286095093817949
 30
0.0
 11
4458.7313821088910117
 21
234.5342423246281953
 31
0.0
  0
LINE
  5
8986
  8
0
 10
4458.734390998552044
 20
234.5192597069689953
 30
0.0
 11
4458.7252045775176157
 21
234.5264089786122099
 31
0.0
  0
LINE
  5
8987
  8
0
 10
4458.7252045775176157
 20
234.5264089786122099
 30
0.0
 11
4458.7140966147626386
 21
234.5121358571265944
 31
0.0
  0
LINE
  5
8988
  8
0
 10
4458.727647177439394
 20
234.5105942675037056
 30
0.0
 11
4458.734390998552044
 21
234.5192597069689953
 31
0.0
  0
LINE
  5
8989
  8
0
 10
4458.7328130722262358
 20
234.5204877177357048
 30
0.0
 11
4458.7252135712424206
 21
234.5107227766241067
 31
0.0
  0
LINE
  5
898A
  8
0
 10
4458.7165637556217916
 20
234.5117036265424133
 30
0.0
 11
4458.7147662197239697
 21
234.5129962626913027
 31
0.0
  0
LINE
  5
898B
  8
0
 10
4458.7044813647153205
 20
234.541836587210895
 30
0.0
 11
4458.6952949436818017
 21
234.5489858588541949
 31
0.0
  0
LINE
  5
898C
  8
0
 10
4458.6952949436818017
 20
234.5489858588541949
 30
0.0
 11
4458.6832321044330456
 21
234.5334857735676053
 31
0.0
  0
LINE
  5
898D
  8
0
 10
4458.6832321044330456
 20
234.5334857735676053
 30
0.0
 11
4458.6926895616461479
 21
234.5266847683869003
 31
0.0
  0
LINE
  5
898E
  8
0
 10
4458.6926895616461479
 20
234.5266847683869003
 30
0.0
 11
4458.7044813647153205
 21
234.541836587210895
 31
0.0
  0
LINE
  5
898F
  8
0
 10
4458.7029034383886028
 20
234.5430645979776045
 30
0.0
 11
4458.692689561638872
 21
234.5299403276868873
 31
0.0
  0
LINE
  5
8990
  8
0
 10
4458.692689561638872
 20
234.5299403276868873
 30
0.0
 11
4458.6926895616461479
 21
234.5266847683869003
 31
0.0
  0
LINE
  5
8991
  8
0
 10
4458.692689561638872
 20
234.5299403276868873
 30
0.0
 11
4458.6848565858881557
 21
234.5355731429332025
 31
0.0
  0
LINE
  5
8992
  8
0
 10
4458.7218994950726483
 20
234.5623660013465042
 30
0.0
 11
4458.7127130740400389
 21
234.5695152729896904
 31
0.0
  0
LINE
  5
8993
  8
0
 10
4458.7127130740400389
 20
234.5695152729896904
 30
0.0
 11
4458.7006502347912829
 21
234.5540151877031008
 31
0.0
  0
LINE
  5
8994
  8
0
 10
4458.7006502347912829
 20
234.5540151877031008
 30
0.0
 11
4458.7101076920043852
 21
234.5472141825223957
 31
0.0
  0
LINE
  5
8995
  8
0
 10
4458.7101076920043852
 20
234.5472141825223957
 30
0.0
 11
4458.7218994950726483
 21
234.5623660013465042
 31
0.0
  0
LINE
  5
8996
  8
0
 10
4458.7203215687477496
 20
234.5635940121132137
 30
0.0
 11
4458.7101076919980187
 21
234.5504697418224112
 31
0.0
  0
LINE
  5
8997
  8
0
 10
4458.7101076919980187
 20
234.5504697418224112
 30
0.0
 11
4458.7101076920043852
 21
234.5472141825223957
 31
0.0
  0
LINE
  5
8998
  8
0
 10
4458.7101076919980187
 20
234.5504697418224112
 30
0.0
 11
4458.7022747162463929
 21
234.5561025570688116
 31
0.0
  0
LINE
  5
8999
  8
0
 10
4458.739317625431795
 20
234.5828954154320058
 30
0.0
 11
4458.7301312043982762
 21
234.5900446870753058
 31
0.0
  0
LINE
  5
899A
  8
0
 10
4458.7301312043982762
 20
234.5900446870753058
 30
0.0
 11
4458.7180683651486106
 21
234.5745446017886877
 31
0.0
  0
LINE
  5
899B
  8
0
 10
4458.7180683651486106
 20
234.5745446017886877
 30
0.0
 11
4458.7275258223626224
 21
234.5677435966080111
 31
0.0
  0
LINE
  5
899C
  8
0
 10
4458.7275258223626224
 20
234.5677435966080111
 30
0.0
 11
4458.739317625431795
 21
234.5828954154320058
 31
0.0
  0
LINE
  5
899D
  8
0
 10
4458.7377396991050773
 20
234.5841234261988006
 30
0.0
 11
4458.727525822356256
 21
234.5709991559079981
 31
0.0
  0
LINE
  5
899E
  8
0
 10
4458.727525822356256
 20
234.5709991559079981
 30
0.0
 11
4458.7275258223626224
 21
234.5677435966080111
 31
0.0
  0
LINE
  5
899F
  8
0
 10
4458.727525822356256
 20
234.5709991559079981
 30
0.0
 11
4458.7196928466046302
 21
234.5766319711543133
 31
0.0
  0
LINE
  5
89A0
  8
0
 10
4458.7567357557900323
 20
234.6034248295675866
 30
0.0
 11
4458.7475493347546944
 21
234.6105741012108012
 31
0.0
  0
LINE
  5
89A1
  8
0
 10
4458.7475493347546944
 20
234.6105741012108012
 30
0.0
 11
4458.7354864955059384
 21
234.5950740159242116
 31
0.0
  0
LINE
  5
89A2
  8
0
 10
4458.7354864955059384
 20
234.5950740159242116
 30
0.0
 11
4458.7449439527208597
 21
234.5882730107435066
 31
0.0
  0
LINE
  5
89A3
  8
0
 10
4458.7449439527208597
 20
234.5882730107435066
 30
0.0
 11
4458.7567357557900323
 21
234.6034248295675866
 31
0.0
  0
LINE
  5
89A4
  8
0
 10
4458.7551578294642241
 20
234.6046528403342961
 30
0.0
 11
4458.7449439527154027
 21
234.5915285700434936
 31
0.0
  0
LINE
  5
89A5
  8
0
 10
4458.7449439527154027
 20
234.5915285700434936
 30
0.0
 11
4458.7449439527208597
 21
234.5882730107435066
 31
0.0
  0
LINE
  5
89A6
  8
0
 10
4458.7449439527154027
 20
234.5915285700434936
 30
0.0
 11
4458.7371109769619579
 21
234.597161385289894
 31
0.0
  0
LINE
  5
89A7
  8
0
 10
4458.7629290570930607
 20
234.6284842731143954
 30
0.0
 11
4458.7529046258150629
 21
234.6156034300097986
 31
0.0
  0
LINE
  5
89A8
  8
0
 10
4458.7529046258150629
 20
234.6156034300097986
 30
0.0
 11
4458.7623620830290747
 21
234.6088024248290935
 31
0.0
  0
LINE
  5
89A9
  8
0
 10
4458.7623620830290747
 20
234.6088024248290935
 30
0.0
 11
4458.773376118429951
 21
234.6229548549480057
 31
0.0
  0
LINE
  5
89AA
  8
0
 10
4458.7716679241593738
 20
234.6240154785593859
 30
0.0
 11
4458.7623620830227082
 21
234.6120579841291089
 31
0.0
  0
LINE
  5
89AB
  8
0
 10
4458.7623620830227082
 20
234.6120579841291089
 30
0.0
 11
4458.7623620830290747
 21
234.6088024248290935
 31
0.0
  0
LINE
  5
89AC
  8
0
 10
4458.7623620830227082
 20
234.6120579841291089
 30
0.0
 11
4458.7545291072710825
 21
234.6176907993753957
 31
0.0
  0
LINE
  5
89AD
  8
0
 10
4458.7303642947463231
 20
234.6249992644638098
 30
0.0
 11
4458.7211778737109853
 21
234.6321485361069961
 31
0.0
  0
LINE
  5
89AE
  8
0
 10
4458.7211778737109853
 20
234.6321485361069961
 30
0.0
 11
4458.7091150344631387
 21
234.6166484508204064
 31
0.0
  0
LINE
  5
89AF
  8
0
 10
4458.7091150344631387
 20
234.6166484508204064
 30
0.0
 11
4458.7185724916771505
 21
234.6098474456397014
 31
0.0
  0
LINE
  5
89B0
  8
0
 10
4458.7185724916771505
 20
234.6098474456397014
 30
0.0
 11
4458.7303642947463231
 21
234.6249992644638098
 31
0.0
  0
LINE
  5
89B1
  8
0
 10
4458.7287863684196054
 20
234.6262272752304909
 30
0.0
 11
4458.7185724916698746
 21
234.6131030049396884
 31
0.0
  0
LINE
  5
89B2
  8
0
 10
4458.7185724916698746
 20
234.6131030049396884
 30
0.0
 11
4458.7185724916771505
 21
234.6098474456397014
 31
0.0
  0
LINE
  5
89B3
  8
0
 10
4458.7185724916698746
 20
234.6131030049396884
 30
0.0
 11
4458.7107395159191583
 21
234.6187358201860889
 31
0.0
  0
LINE
  5
89B4
  8
0
 10
4458.7120671156862954
 20
234.6051889982263958
 30
0.0
 11
4458.7028806946518671
 21
234.6123382698696105
 31
0.0
  0
LINE
  5
89B5
  8
0
 10
4458.7028806946518671
 20
234.6123382698696105
 30
0.0
 11
4458.690817855403111
 21
234.5968381845831061
 31
0.0
  0
LINE
  5
89B6
  8
0
 10
4458.690817855403111
 20
234.5968381845831061
 30
0.0
 11
4458.7002753126171228
 21
234.5900371794024011
 31
0.0
  0
LINE
  5
89B7
  8
0
 10
4458.7002753126171228
 20
234.5900371794024011
 30
0.0
 11
4458.7120671156862954
 21
234.6051889982263958
 31
0.0
  0
LINE
  5
89B8
  8
0
 10
4458.7104891893595777
 20
234.6064170089931054
 30
0.0
 11
4458.7002753126107564
 21
234.5932927387023028
 31
0.0
  0
LINE
  5
89B9
  8
0
 10
4458.7002753126107564
 20
234.5932927387023028
 30
0.0
 11
4458.7002753126171228
 21
234.5900371794024011
 31
0.0
  0
LINE
  5
89BA
  8
0
 10
4458.7002753126107564
 20
234.5932927387023028
 30
0.0
 11
4458.6924423368591306
 21
234.5989255539487033
 31
0.0
  0
LINE
  5
89BB
  8
0
 10
4458.6937699366271772
 20
234.5853787318891079
 30
0.0
 11
4458.6845835155927489
 21
234.5925280035322942
 31
0.0
  0
LINE
  5
89BC
  8
0
 10
4458.6845835155927489
 20
234.5925280035322942
 30
0.0
 11
4458.6725206763430833
 21
234.5770279182457045
 31
0.0
  0
LINE
  5
89BD
  8
0
 10
4458.6725206763430833
 20
234.5770279182457045
 30
0.0
 11
4458.6819781335570951
 21
234.5702269130649995
 31
0.0
  0
LINE
  5
89BE
  8
0
 10
4458.6819781335570951
 20
234.5702269130649995
 30
0.0
 11
4458.6937699366271772
 21
234.5853787318891079
 31
0.0
  0
LINE
  5
89BF
  8
0
 10
4458.692192010301369
 20
234.586606742655789
 30
0.0
 11
4458.6819781335498192
 21
234.5734824723649865
 31
0.0
  0
LINE
  5
89C0
  8
0
 10
4458.6819781335498192
 20
234.5734824723649865
 30
0.0
 11
4458.6819781335570951
 21
234.5702269130649995
 31
0.0
  0
LINE
  5
89C1
  8
0
 10
4458.6819781335498192
 20
234.5734824723649865
 30
0.0
 11
4458.6741451577991029
 21
234.579115287611387
 31
0.0
  0
LINE
  5
89C2
  8
0
 10
4458.6766536835702937
 20
234.5645606066541973
 30
0.0
 11
4458.6674672625349558
 21
234.5717098782972982
 31
0.0
  0
LINE
  5
89C3
  8
0
 10
4458.6674672625349558
 20
234.5717098782972982
 30
0.0
 11
4458.657137360827619
 21
234.5584365224835039
 31
0.0
  0
LINE
  5
89C4
  8
0
 10
4458.6575947260625981
 20
234.5546347120777
 30
0.0
 11
4458.6648618805002116
 21
234.5494087878300888
 31
0.0
  0
LINE
  5
89C5
  8
0
 10
4458.6648618805002116
 20
234.5494087878300888
 30
0.0
 11
4458.6766536835702937
 21
234.5645606066541973
 31
0.0
  0
LINE
  5
89C6
  8
0
 10
4458.6750757572435759
 20
234.5657886174207931
 30
0.0
 11
4458.6648618804929356
 21
234.5526643471301043
 31
0.0
  0
LINE
  5
89C7
  8
0
 10
4458.6648618804929356
 20
234.5526643471301043
 30
0.0
 11
4458.6648618805002116
 21
234.5494087878300888
 31
0.0
  0
LINE
  5
89C8
  8
0
 10
4458.6648618804929356
 20
234.5526643471301043
 30
0.0
 11
4458.657159805484298
 21
234.558203029607796
 31
0.0
  0
LINE
  5
89C9
  8
0
 10
4458.7765385906868687
 20
234.5223101723354091
 30
0.0
 11
4458.7709208225924158
 21
234.5266821633420022
 31
0.0
  0
LINE
  5
89CA
  8
0
 10
4458.7709208225924158
 20
234.5266821633420022
 30
0.0
 11
4458.7625716984830433
 21
234.5159539978506018
 31
0.0
  0
LINE
  5
89CB
  8
0
 10
4458.7962960559152634
 20
234.5419021472482939
 30
0.0
 11
4458.7871096348817446
 21
234.5490514188915085
 31
0.0
  0
LINE
  5
89CC
  8
0
 10
4458.7871096348817446
 20
234.5490514188915085
 30
0.0
 11
4458.7750467956329885
 21
234.5335513336050042
 31
0.0
  0
LINE
  5
89CD
  8
0
 10
4458.7750467956329885
 20
234.5335513336050042
 30
0.0
 11
4458.7841070409131135
 21
234.5270359697292122
 31
0.0
  0
LINE
  5
89CE
  8
0
 10
4458.7854845698466306
 20
234.5280099818882036
 30
0.0
 11
4458.7962960559152634
 21
234.5419021472482939
 31
0.0
  0
LINE
  5
89CF
  8
0
 10
4458.7947181295885457
 20
234.5431301580150034
 30
0.0
 11
4458.7845042528397244
 21
234.5300058877242861
 31
0.0
  0
LINE
  5
89D0
  8
0
 10
4458.7845042528397244
 20
234.5300058877242861
 30
0.0
 11
4458.7845042528451813
 21
234.5273129767467992
 31
0.0
  0
LINE
  5
89D1
  8
0
 10
4458.7845042528397244
 20
234.5300058877242861
 30
0.0
 11
4458.7766712770880986
 21
234.5356387029706013
 31
0.0
  0
LINE
  5
89D2
  8
0
 10
4458.8060223987104109
 20
234.5683461769901044
 30
0.0
 11
4458.8029945428370411
 21
234.5707025858739883
 31
0.0
  0
LINE
  5
89D3
  8
0
 10
4458.8029945428370411
 20
234.5707025858739883
 30
0.0
 11
4458.790931703588285
 21
234.5552025005873986
 31
0.0
  0
LINE
  5
89D4
  8
0
 10
4458.790931703588285
 20
234.5552025005873986
 30
0.0
 11
4458.8003891608022968
 21
234.5484014954066936
 31
0.0
  0
LINE
  5
89D5
  8
0
 10
4458.8003891608022968
 20
234.5484014954066936
 30
0.0
 11
4458.8058375158843774
 21
234.5554023322258104
 31
0.0
  0
LINE
  5
89D6
  8
0
 10
4458.8061270024891201
 20
234.5590298659435007
 30
0.0
 11
4458.8003891607959304
 21
234.551657054706709
 31
0.0
  0
LINE
  5
89D7
  8
0
 10
4458.8003891607959304
 20
234.551657054706709
 30
0.0
 11
4458.8003891608022968
 21
234.5484014954066936
 31
0.0
  0
LINE
  5
89D8
  8
0
 10
4458.8003891607959304
 20
234.551657054706709
 30
0.0
 11
4458.7925561850443046
 21
234.5572898699531095
 31
0.0
  0
LINE
  5
89D9
  8
0
 10
4458.7894479874839817
 20
234.6088537868924107
 30
0.0
 11
4458.779283200455211
 21
234.5957925943635871
 31
0.0
  0
LINE
  5
89DA
  8
0
 10
4458.779283200455211
 20
234.5957925943635871
 30
0.0
 11
4458.7887406576692229
 21
234.5889915891829105
 31
0.0
  0
LINE
  5
89DB
  8
0
 10
4458.7887406576692229
 20
234.5889915891829105
 30
0.0
 11
4458.7964647748103744
 21
234.5989166551634924
 31
0.0
  0
LINE
  5
89DC
  8
0
 10
4458.7953561114882177
 20
234.6007476430769998
 30
0.0
 11
4458.7887406576619469
 21
234.5922471484828975
 31
0.0
  0
LINE
  5
89DD
  8
0
 10
4458.7887406576619469
 20
234.5922471484828975
 30
0.0
 11
4458.7887406576692229
 21
234.5889915891829105
 31
0.0
  0
LINE
  5
89DE
  8
0
 10
4458.7887406576619469
 20
234.5922471484828975
 30
0.0
 11
4458.7809076819112306
 21
234.597879963729298
 31
0.0
  0
ARC
  5
89DF
  8
0
 10
4458.7389562652488166
 20
234.5715684402605063
 30
0.0
 40
0.1210822531541303
 50
301.0413703098552105
 51
85.5707131058170347
  0
ARC
  5
89E0
  8
0
 10
4458.726719010834131
 20
234.5614938308094111
 30
0.0
 40
0.1325648830392685
 50
80.627603625082557
 51
126.1133914147216046
  0
ARC
  5
89E1
  8
0
 10
4458.7155554931769075
 20
234.5767953211575048
 30
0.0
 40
0.1136239291730891
 50
126.1133914147216046
 51
206.7081477178294051
  0
ARC
  5
89E2
  8
0
 10
4458.4487406350453966
 20
235.0426705890045014
 30
0.0
 40
0.1261044879775596
 50
201.1871141013735098
 51
304.7036084969237208
  0
ARC
  5
89E3
  8
0
 10
4458.4514543915920513
 20
235.0387519541658889
 30
0.0
 40
0.1213379196537708
 50
304.7036084969237208
 51
61.3139433446995525
  0
ARC
  5
89E4
  8
0
 10
4458.4506873056952827
 20
235.0346695101499108
 30
0.0
 40
0.1252941124627168
 50
61.902339013197917
 51
197.4512399766921931
  0
ARC
  5
89E5
  8
0
 10
4458.4482169276716377
 20
235.0372882454900036
 30
0.0
 40
0.0759504093554123
 50
212.9791617423452124
 51
344.3260510546106161
  0
ARC
  5
89E6
  8
0
 10
4458.4490818092226618
 20
235.0316047812461875
 30
0.0
 40
0.0737684612545819
 50
348.398180367610621
 51
208.9070324293354872
  0
ARC
  5
89E7
  8
0
 10
4458.4485185613493741
 20
235.0744363988694943
 30
0.0
 40
0.0930418308354739
 50
220.0646687229175029
 51
321.4043239195618753
  0
LINE
  5
89E8
  8
0
 10
4458.4352636862240615
 20
235.0032632464615006
 30
0.0
 11
4458.454295642713987
 21
235.0080969123002887
 31
0.0
  0
LINE
  5
89E9
  8
0
 10
4458.454295642713987
 20
235.0080969123002887
 30
0.0
 11
4458.4573127185358317
 21
234.9971200979065031
 31
0.0
  0
LINE
  5
89EA
  8
0
 10
4458.4573127185358317
 20
234.9971200979065031
 30
0.0
 11
4458.4382807621459506
 21
234.9918889941075975
 31
0.0
  0
LINE
  5
89EB
  8
0
 10
4458.4382807621459506
 20
234.9918889941075975
 30
0.0
 11
4458.4352636862240615
 21
235.0032632464615006
 31
0.0
  0
LINE
  5
89EC
  8
0
 10
4458.4564762881482238
 20
235.0001632236578928
 30
0.0
 11
4458.4382807621386746
 21
234.9955419913675883
 31
0.0
  0
LINE
  5
89ED
  8
0
 10
4458.4382807621386746
 20
234.9955419913675883
 30
0.0
 11
4458.4382807621459506
 21
234.9918889941075975
 31
0.0
  0
LINE
  5
89EE
  8
0
 10
4458.4382807621386746
 20
234.9955419913675883
 30
0.0
 11
4458.4361001166344067
 21
235.0034756799599904
 31
0.0
  0
LINE
  5
89EF
  8
0
 10
4458.4618170155690677
 20
235.0105616670321922
 30
0.0
 11
4458.4808489720599027
 21
235.0153953328710088
 31
0.0
  0
LINE
  5
89F0
  8
0
 10
4458.4808489720599027
 20
235.0153953328710088
 30
0.0
 11
4458.4838660478808379
 21
235.0044185184771095
 31
0.0
  0
LINE
  5
89F1
  8
0
 10
4458.4838660478808379
 20
235.0044185184771095
 30
0.0
 11
4458.4648340914918663
 21
234.9991874146782891
 31
0.0
  0
LINE
  5
89F2
  8
0
 10
4458.4648340914918663
 20
234.9991874146782891
 30
0.0
 11
4458.4618170155690677
 21
235.0105616670321922
 31
0.0
  0
LINE
  5
89F3
  8
0
 10
4458.48302961749323
 20
235.0074616442284992
 30
0.0
 11
4458.4648340914845903
 21
235.0028404119383083
 31
0.0
  0
LINE
  5
89F4
  8
0
 10
4458.4648340914845903
 20
235.0028404119383083
 30
0.0
 11
4458.4648340914918663
 21
234.9991874146782891
 31
0.0
  0
LINE
  5
89F5
  8
0
 10
4458.4648340914845903
 20
235.0028404119383083
 30
0.0
 11
4458.4626534459794129
 21
235.0107741005305968
 31
0.0
  0
LINE
  5
89F6
  8
0
 10
4458.4885531642958085
 20
235.0169962298002986
 30
0.0
 11
4458.507585120785734
 21
235.0218298956390868
 31
0.0
  0
LINE
  5
89F7
  8
0
 10
4458.507585120785734
 20
235.0218298956390868
 30
0.0
 11
4458.5106021966075787
 21
235.0108530812453012
 31
0.0
  0
LINE
  5
89F8
  8
0
 10
4458.5106021966075787
 20
235.0108530812453012
 30
0.0
 11
4458.4915702402186071
 21
235.0056219774463955
 31
0.0
  0
LINE
  5
89F9
  8
0
 10
4458.4915702402186071
 20
235.0056219774463955
 30
0.0
 11
4458.4885531642958085
 21
235.0169962298002986
 31
0.0
  0
LINE
  5
89FA
  8
0
 10
4458.5097657662199708
 20
235.0138962069966908
 30
0.0
 11
4458.4915702402113311
 21
235.0092749747063863
 31
0.0
  0
LINE
  5
89FB
  8
0
 10
4458.4915702402113311
 20
235.0092749747063863
 30
0.0
 11
4458.4915702402186071
 21
235.0056219774463955
 31
0.0
  0
LINE
  5
89FC
  8
0
 10
4458.4915702402113311
 20
235.0092749747063863
 30
0.0
 11
4458.4893895947052442
 21
235.0172086632987885
 31
0.0
  0
LINE
  5
89FD
  8
0
 10
4458.5151564208317723
 20
235.0239142849545999
 30
0.0
 11
4458.522622353537372
 21
235.0258104548985898
 31
0.0
  0
LINE
  5
89FE
  8
0
 10
4458.5202129117042205
 20
235.0131005840788134
 30
0.0
 11
4458.5181734967545708
 21
235.0125400326006968
 31
0.0
  0
LINE
  5
89FF
  8
0
 10
4458.5181734967545708
 20
235.0125400326006968
 30
0.0
 11
4458.5151564208317723
 21
235.0239142849545999
 31
0.0
  0
LINE
  5
8A00
  8
0
 10
4458.5213922024677231
 20
235.0170105048159996
 30
0.0
 11
4458.5181734967472948
 21
235.0161930298606876
 31
0.0
  0
LINE
  5
8A01
  8
0
 10
4458.5181734967472948
 20
235.0161930298606876
 30
0.0
 11
4458.5181734967545708
 21
235.0125400326006968
 31
0.0
  0
LINE
  5
8A02
  8
0
 10
4458.5181734967472948
 20
235.0161930298606876
 30
0.0
 11
4458.5159928512421175
 21
235.0241267184530045
 31
0.0
  0
LINE
  5
8A03
  8
0
 10
4458.5075979726198057
 20
235.0539607715392094
 30
0.0
 11
4458.5184448510708535
 21
235.0567156215645923
 31
0.0
  0
LINE
  5
8A04
  8
0
 10
4458.5215139708725474
 20
235.0455821856754994
 30
0.0
 11
4458.5106150485444232
 21
235.0425865191853063
 31
0.0
  0
LINE
  5
8A05
  8
0
 10
4458.5106150485444232
 20
235.0425865191853063
 30
0.0
 11
4458.5075979726198057
 21
235.0539607715392094
 31
0.0
  0
LINE
  5
8A06
  8
0
 10
4458.5208112217706002
 20
235.048829102751796
 30
0.0
 11
4458.5106150485362377
 21
235.0462395164452971
 31
0.0
  0
LINE
  5
8A07
  8
0
 10
4458.5106150485362377
 20
235.0462395164452971
 30
0.0
 11
4458.5106150485444232
 21
235.0425865191853063
 31
0.0
  0
LINE
  5
8A08
  8
0
 10
4458.5106150485362377
 20
235.0462395164452971
 30
0.0
 11
4458.5084344030310604
 21
235.054173205037614
 31
0.0
  0
LINE
  5
8A09
  8
0
 10
4458.4806818074821422
 20
235.0482721182841885
 30
0.0
 11
4458.4997137639729772
 21
235.0531057841230904
 31
0.0
  0
LINE
  5
8A0A
  8
0
 10
4458.4997137639729772
 20
235.0531057841230904
 30
0.0
 11
4458.5027308397948218
 21
235.0421289697291911
 31
0.0
  0
LINE
  5
8A0B
  8
0
 10
4458.5027308397948218
 20
235.0421289697291911
 30
0.0
 11
4458.4836988834040312
 21
235.0368978659303139
 31
0.0
  0
LINE
  5
8A0C
  8
0
 10
4458.4836988834040312
 20
235.0368978659303139
 30
0.0
 11
4458.4806818074821422
 21
235.0482721182841885
 31
0.0
  0
LINE
  5
8A0D
  8
0
 10
4458.501894409407214
 20
235.0451720954806092
 30
0.0
 11
4458.4836988833967553
 21
235.0405508631903899
 31
0.0
  0
LINE
  5
8A0E
  8
0
 10
4458.4836988833967553
 20
235.0405508631903899
 30
0.0
 11
4458.4836988834040312
 21
235.0368978659303139
 31
0.0
  0
LINE
  5
8A0F
  8
0
 10
4458.4836988833967553
 20
235.0405508631903899
 30
0.0
 11
4458.4815182378915779
 21
235.0484845517827068
 31
0.0
  0
LINE
  5
8A10
  8
0
 10
4458.4537656423426597
 20
235.0425834650293098
 30
0.0
 11
4458.4727975988325852
 21
235.047417130868098
 31
0.0
  0
LINE
  5
8A11
  8
0
 10
4458.4727975988325852
 20
235.047417130868098
 30
0.0
 11
4458.4758146746562488
 21
235.0364403164743123
 31
0.0
  0
LINE
  5
8A12
  8
0
 10
4458.4758146746562488
 20
235.0364403164743123
 30
0.0
 11
4458.4567827182672772
 21
235.0312092126754067
 31
0.0
  0
LINE
  5
8A13
  8
0
 10
4458.4567827182672772
 20
235.0312092126754067
 30
0.0
 11
4458.4537656423426597
 21
235.0425834650293098
 31
0.0
  0
LINE
  5
8A14
  8
0
 10
4458.474978244266822
 20
235.039483442225702
 30
0.0
 11
4458.4567827182590918
 21
235.0348622099353975
 31
0.0
  0
LINE
  5
8A15
  8
0
 10
4458.4567827182590918
 20
235.0348622099353975
 30
0.0
 11
4458.4567827182672772
 21
235.0312092126754067
 31
0.0
  0
LINE
  5
8A16
  8
0
 10
4458.4567827182590918
 20
235.0348622099353975
 30
0.0
 11
4458.4546020727539144
 21
235.0427958985277996
 31
0.0
  0
LINE
  5
8A17
  8
0
 10
4458.4268494772049962
 20
235.0368948117742889
 30
0.0
 11
4458.4458814336958312
 21
235.0417284776131908
 31
0.0
  0
LINE
  5
8A18
  8
0
 10
4458.4458814336958312
 20
235.0417284776131908
 30
0.0
 11
4458.4488985095176758
 21
235.0307516632192915
 31
0.0
  0
LINE
  5
8A19
  8
0
 10
4458.4488985095176758
 20
235.0307516632192915
 30
0.0
 11
4458.4298665531277948
 21
235.0255205594204995
 31
0.0
  0
LINE
  5
8A1A
  8
0
 10
4458.4298665531277948
 20
235.0255205594204995
 30
0.0
 11
4458.4268494772049962
 21
235.0368948117742889
 31
0.0
  0
LINE
  5
8A1B
  8
0
 10
4458.4480620791291585
 20
235.0337947889707095
 30
0.0
 11
4458.4298665531214283
 21
235.0291735566804903
 31
0.0
  0
LINE
  5
8A1C
  8
0
 10
4458.4298665531214283
 20
235.0291735566804903
 30
0.0
 11
4458.4298665531277948
 21
235.0255205594204995
 31
0.0
  0
LINE
  5
8A1D
  8
0
 10
4458.4298665531214283
 20
235.0291735566804903
 30
0.0
 11
4458.4276859076153414
 21
235.0371072452728072
 31
0.0
  0
LINE
  5
8A1E
  8
0
 10
4458.3999333120673327
 20
235.0312061585194101
 30
0.0
 11
4458.4189652685572582
 21
235.036039824358312
 31
0.0
  0
LINE
  5
8A1F
  8
0
 10
4458.4189652685572582
 20
235.036039824358312
 30
0.0
 11
4458.4219823443781934
 21
235.0250630099644127
 31
0.0
  0
LINE
  5
8A20
  8
0
 10
4458.4219823443781934
 20
235.0250630099644127
 30
0.0
 11
4458.4029503879901313
 21
235.019831906165507
 31
0.0
  0
LINE
  5
8A21
  8
0
 10
4458.4029503879901313
 20
235.019831906165507
 30
0.0
 11
4458.3999333120673327
 21
235.0312061585194101
 31
0.0
  0
LINE
  5
8A22
  8
0
 10
4458.421145913989676
 20
235.0281061357158023
 30
0.0
 11
4458.4029503879819458
 21
235.0234849034256115
 31
0.0
  0
LINE
  5
8A23
  8
0
 10
4458.4029503879819458
 20
235.0234849034256115
 30
0.0
 11
4458.4029503879901313
 21
235.019831906165507
 31
0.0
  0
LINE
  5
8A24
  8
0
 10
4458.4029503879819458
 20
235.0234849034256115
 30
0.0
 11
4458.4007697424767684
 21
235.0314185920179
 31
0.0
  0
LINE
  5
8A25
  8
0
 10
4458.3756023515861671
 20
235.0250813479979115
 30
0.0
 11
4458.3927890590975949
 21
235.029446364333694
 31
0.0
  0
LINE
  5
8A26
  8
0
 10
4458.3927890590975949
 20
235.029446364333694
 30
0.0
 11
4458.395806134920349
 21
235.0184695499399083
 31
0.0
  0
LINE
  5
8A27
  8
0
 10
4458.395806134920349
 20
235.0184695499399083
 30
0.0
 11
4458.3775797277376114
 21
235.013459858560708
 31
0.0
  0
LINE
  5
8A28
  8
0
 10
4458.3949697045309222
 20
235.021512675691298
 30
0.0
 11
4458.376794497762603
 21
235.016896604006007
 31
0.0
  0
LINE
  5
8A29
  8
0
 10
4458.3828917131631897
 20
235.0641725115854115
 30
0.0
 11
4458.3851377405617313
 21
235.0647429493079983
 31
0.0
  0
LINE
  5
8A2A
  8
0
 10
4458.3851377405617313
 20
235.0647429493079983
 30
0.0
 11
4458.388154816385395
 21
235.0537661349142127
 31
0.0
  0
LINE
  5
8A2B
  8
0
 10
4458.388154816385395
 20
235.0537661349142127
 30
0.0
 11
4458.3778939661387994
 21
235.0509458482551963
 31
0.0
  0
LINE
  5
8A2C
  8
0
 10
4458.3873183859968776
 20
235.0568092606656023
 30
0.0
 11
4458.3790226278224509
 21
235.0547023347357083
 31
0.0
  0
LINE
  5
8A2D
  8
0
 10
4458.3927587201496863
 20
235.0643004961162035
 30
0.0
 11
4458.4117906766387023
 21
235.0691341619551054
 31
0.0
  0
LINE
  5
8A2E
  8
0
 10
4458.4117906766387023
 20
235.0691341619551054
 30
0.0
 11
4458.4148077524623659
 21
235.0581573475612061
 31
0.0
  0
LINE
  5
8A2F
  8
0
 10
4458.4148077524623659
 20
235.0581573475612061
 30
0.0
 11
4458.3957757960733943
 21
235.0529262437623004
 31
0.0
  0
LINE
  5
8A30
  8
0
 10
4458.3957757960733943
 20
235.0529262437623004
 30
0.0
 11
4458.3927587201496863
 21
235.0643004961162035
 31
0.0
  0
LINE
  5
8A31
  8
0
 10
4458.4139713220720296
 20
235.0612004733125957
 30
0.0
 11
4458.3957757960652089
 21
235.0565792410224049
 31
0.0
  0
LINE
  5
8A32
  8
0
 10
4458.3957757960652089
 20
235.0565792410224049
 30
0.0
 11
4458.3957757960733943
 21
235.0529262437623004
 31
0.0
  0
LINE
  5
8A33
  8
0
 10
4458.3957757960652089
 20
235.0565792410224049
 30
0.0
 11
4458.393595150559122
 21
235.0645129296146933
 31
0.0
  0
LINE
  5
8A34
  8
0
 10
4458.4198990912864247
 20
235.0706370328101968
 30
0.0
 11
4458.4389310477763502
 21
235.0754706986490135
 31
0.0
  0
LINE
  5
8A35
  8
0
 10
4458.4389310477763502
 20
235.0754706986490135
 30
0.0
 11
4458.4419481235981948
 21
235.0644938842551994
 31
0.0
  0
LINE
  5
8A36
  8
0
 10
4458.4419481235981948
 20
235.0644938842551994
 30
0.0
 11
4458.4229161672110422
 21
235.0592627804562937
 31
0.0
  0
LINE
  5
8A37
  8
0
 10
4458.4229161672110422
 20
235.0592627804562937
 30
0.0
 11
4458.4198990912864247
 21
235.0706370328101968
 31
0.0
  0
LINE
  5
8A38
  8
0
 10
4458.4411116932096775
 20
235.0675370100065038
 30
0.0
 11
4458.4229161672019472
 21
235.062915777716313
 31
0.0
  0
LINE
  5
8A39
  8
0
 10
4458.4229161672019472
 20
235.062915777716313
 30
0.0
 11
4458.4229161672110422
 21
235.0592627804562937
 31
0.0
  0
LINE
  5
8A3A
  8
0
 10
4458.4229161672019472
 20
235.062915777716313
 30
0.0
 11
4458.4207355216967699
 21
235.0708494663086014
 31
0.0
  0
LINE
  5
8A3B
  8
0
 10
4458.4470394624258915
 20
235.0752372273155117
 30
0.0
 11
4458.4660714189167265
 21
235.0800708931544136
 31
0.0
  0
LINE
  5
8A3C
  8
0
 10
4458.4660714189167265
 20
235.0800708931544136
 30
0.0
 11
4458.4690884947403902
 21
235.0690940787604859
 31
0.0
  0
LINE
  5
8A3D
  8
0
 10
4458.4690884947403902
 20
235.0690940787604859
 30
0.0
 11
4458.4500565383495996
 21
235.0638629749616939
 31
0.0
  0
LINE
  5
8A3E
  8
0
 10
4458.4500565383495996
 20
235.0638629749616939
 30
0.0
 11
4458.4470394624258915
 21
235.0752372273155117
 31
0.0
  0
LINE
  5
8A3F
  8
0
 10
4458.4682520643509633
 20
235.0721372045119892
 30
0.0
 11
4458.4500565383432331
 21
235.0675159722217131
 31
0.0
  0
LINE
  5
8A40
  8
0
 10
4458.4500565383432331
 20
235.0675159722217131
 30
0.0
 11
4458.4500565383495996
 21
235.0638629749616939
 31
0.0
  0
LINE
  5
8A41
  8
0
 10
4458.4500565383432331
 20
235.0675159722217131
 30
0.0
 11
4458.4478758928362367
 21
235.0754496608140016
 31
0.0
  0
LINE
  5
8A42
  8
0
 10
4458.4741798335680869
 20
235.0798374218209119
 30
0.0
 11
4458.4932117900580124
 21
235.0846710876598138
 31
0.0
  0
LINE
  5
8A43
  8
0
 10
4458.4932117900580124
 20
235.0846710876598138
 30
0.0
 11
4458.496228865879857
 21
235.0736942732658861
 31
0.0
  0
LINE
  5
8A44
  8
0
 10
4458.496228865879857
 20
235.0736942732658861
 30
0.0
 11
4458.477196909489976
 21
235.0684631694670941
 31
0.0
  0
LINE
  5
8A45
  8
0
 10
4458.477196909489976
 20
235.0684631694670941
 30
0.0
 11
4458.4741798335680869
 21
235.0798374218209119
 31
0.0
  0
LINE
  5
8A46
  8
0
 10
4458.4953924354913397
 20
235.0767373990173894
 30
0.0
 11
4458.4771969094827
 21
235.0721161667271133
 31
0.0
  0
LINE
  5
8A47
  8
0
 10
4458.4771969094827
 20
235.0721161667271133
 30
0.0
 11
4458.477196909489976
 21
235.0684631694670941
 31
0.0
  0
LINE
  5
8A48
  8
0
 10
4458.4771969094827
 20
235.0721161667271133
 30
0.0
 11
4458.4750162639766131
 21
235.0800498553194018
 31
0.0
  0
LINE
  5
8A49
  8
0
 10
4458.5093808641604483
 20
235.0740996026908931
 30
0.0
 11
4458.5043984067815472
 21
235.072730129622613
 31
0.0
  0
LINE
  5
8A4A
  8
0
 10
4458.5043984067815472
 20
235.072730129622613
 30
0.0
 11
4458.5015533948717348
 21
235.0834557077114937
 31
0.0
  0
LINE
  5
8A4B
  8
0
 10
4458.507162184822846
 20
235.0770850609931983
 30
0.0
 11
4458.5043984067751808
 21
235.0763831268826038
 31
0.0
  0
LINE
  5
8A4C
  8
0
 10
4458.5043984067751808
 20
235.0763831268826038
 30
0.0
 11
4458.5043984067815472
 21
235.072730129622613
 31
0.0
  0
LINE
  5
8A4D
  8
0
 10
4458.5043984067751808
 20
235.0763831268826038
 30
0.0
 11
4458.5028137508970758
 21
235.0821484684850873
 31
0.0
  0
LINE
  5
8A4E
  8
0
 10
4458.4631036396003765
 20
235.104028355783413
 30
0.0
 11
4458.4639532574701661
 21
235.1009372509456909
 31
0.0
  0
LINE
  5
8A4F
  8
0
 10
4458.4639532574701661
 20
235.1009372509456909
 30
0.0
 11
4458.4449213010811945
 21
235.0957061471468137
 31
0.0
  0
LINE
  5
8A50
  8
0
 10
4458.4449213010811945
 20
235.0957061471468137
 30
0.0
 11
4458.4424366109287803
 21
235.1050733270022874
 31
0.0
  0
LINE
  5
8A51
  8
0
 10
4458.4631168270816488
 20
235.103980376697109
 30
0.0
 11
4458.4449213010739186
 21
235.0993591444068898
 31
0.0
  0
LINE
  5
8A52
  8
0
 10
4458.4449213010739186
 20
235.0993591444068898
 30
0.0
 11
4458.4449213010811945
 21
235.0957061471468137
 31
0.0
  0
LINE
  5
8A53
  8
0
 10
4458.4449213010739186
 20
235.0993591444068898
 30
0.0
 11
4458.4433299998927396
 21
235.1051486631488103
 31
0.0
  0
LINE
  5
8A54
  8
0
 10
4458.4346723797953018
 20
235.1039522360698868
 30
0.0
 11
4458.4362923831804437
 21
235.0980582918936079
 31
0.0
  0
LINE
  5
8A55
  8
0
 10
4458.4362923831804437
 20
235.0980582918936079
 30
0.0
 11
4458.4172604267905626
 21
235.0928271880947023
 31
0.0
  0
LINE
  5
8A56
  8
0
 10
4458.4172604267905626
 20
235.0928271880947023
 30
0.0
 11
4458.4160092473803161
 21
235.0975440831007859
 31
0.0
  0
LINE
  5
8A57
  8
0
 10
4458.4354559527910169
 20
235.1011014176449976
 30
0.0
 11
4458.4172604267832867
 21
235.0964801853548067
 31
0.0
  0
LINE
  5
8A58
  8
0
 10
4458.4172604267832867
 20
235.0964801853548067
 30
0.0
 11
4458.4172604267905626
 21
235.0928271880947023
 31
0.0
  0
LINE
  5
8A59
  8
0
 10
4458.4172604267832867
 20
235.0964801853548067
 30
0.0
 11
4458.416853469155285
 21
235.097960790562496
 31
0.0
  0
LINE
  5
8A5A
  8
0
 10
4458.408618947188188
 20
234.9964961143070923
 30
0.0
 11
4458.4276509036781135
 21
235.0013297801459942
 31
0.0
  0
LINE
  5
8A5B
  8
0
 10
4458.4276509036781135
 20
235.0013297801459942
 30
0.0
 11
4458.4306679794999582
 21
234.9903529657520949
 31
0.0
  0
LINE
  5
8A5C
  8
0
 10
4458.4306679794999582
 20
234.9903529657520949
 30
0.0
 11
4458.4174741086208087
 21
234.986726512083095
 31
0.0
  0
LINE
  5
8A5D
  8
0
 10
4458.41046629063203
 20
234.9895317053679946
 30
0.0
 11
4458.408618947188188
 21
234.9964961143070923
 31
0.0
  0
LINE
  5
8A5E
  8
0
 10
4458.4298315491114408
 20
234.9933960915035129
 30
0.0
 11
4458.4119905039742662
 21
234.9888648889514968
 31
0.0
  0
LINE
  5
8A5F
  8
0
 10
4458.4115604700727999
 20
234.9890497384679975
 30
0.0
 11
4458.4094553775967142
 21
234.9967085478056106
 31
0.0
  0
ARC
  5
8A60
  8
0
 10
4458.4403805615747842
 20
235.046660467978711
 30
0.0
 40
0.1189887069107537
 50
60.7343116428830214
 51
200.6266413623403935
  0
ARC
  5
8A61
  8
0
 10
4458.5429357421562599
 20
235.5729408270964029
 30
0.0
 40
0.1206159872467149
 50
155.63971823709619
 51
269.6784254071843066
  0
ARC
  5
8A62
  8
0
 10
4458.5465485119029836
 20
235.5713050208684081
 30
0.0
 40
0.1245818373782852
 50
352.9895735799461249
 51
155.6397182370947121
  0
ARC
  5
8A63
  8
0
 10
4458.5523933173126352
 20
235.5705862893329083
 30
0.0
 40
0.1186930068245355
 50
265.1018693344564099
 51
352.9895735799461249
  0
ARC
  5
8A64
  8
0
 10
4458.5467208780346482
 20
235.5720801125511059
 30
0.0
 40
0.0754897770118517
 50
193.0836967591042139
 51
343.9410482854015072
  0
ARC
  5
8A65
  8
0
 10
4458.5465726456359334
 20
235.5663722439009859
 30
0.0
 40
0.0742591832493056
 50
348.2087682439880041
 51
188.8159768005241972
  0
ARC
  5
8A66
  8
0
 10
4458.5467691312132956
 20
235.6087165921186113
 30
0.0
 40
0.0922444770249598
 50
217.830960887744709
 51
321.9380494373667716
  0
LINE
  5
8A67
  8
0
 10
4458.5556153497436753
 20
235.5815489357071044
 30
0.0
 11
4458.5499977410654537
 21
235.5715618591956968
 31
0.0
  0
LINE
  5
8A68
  8
0
 10
4458.5499977410654537
 20
235.5715618591956968
 30
0.0
 11
4458.5326818242447189
 21
235.5805618460603057
 31
0.0
  0
LINE
  5
8A69
  8
0
 10
4458.5326818242447189
 20
235.5805618460603057
 30
0.0
 11
4458.5379634051623725
 21
235.5907235737603003
 31
0.0
  0
LINE
  5
8A6A
  8
0
 10
4458.5379634051623725
 20
235.5907235737603003
 30
0.0
 11
4458.5556153497436753
 21
235.5815489357071044
 31
0.0
  0
LINE
  5
8A6B
  8
0
 10
4458.5541983912289652
 20
235.5822854030944029
 30
0.0
 11
4458.5499977410572683
 21
235.5748174184955985
 31
0.0
  0
LINE
  5
8A6C
  8
0
 10
4458.5499977410572683
 20
235.5748174184955985
 30
0.0
 11
4458.5499977410654537
 21
235.5715618591956968
 31
0.0
  0
LINE
  5
8A6D
  8
0
 10
4458.5499977410572683
 20
235.5748174184955985
 30
0.0
 11
4458.534014024687167
 21
235.5831249911385896
 31
0.0
  0
LINE
  5
8A6E
  8
0
 10
4458.5798576332690573
 20
235.5689489541065882
 30
0.0
 11
4458.5742400245899262
 21
235.5589618775950953
 31
0.0
  0
LINE
  5
8A6F
  8
0
 10
4458.5742400245899262
 20
235.5589618775950953
 30
0.0
 11
4458.5569241077710103
 21
235.5679618644597895
 31
0.0
  0
LINE
  5
8A70
  8
0
 10
4458.5569241077710103
 20
235.5679618644597895
 30
0.0
 11
4458.562205688686845
 21
235.5781235921598125
 31
0.0
  0
LINE
  5
8A71
  8
0
 10
4458.562205688686845
 20
235.5781235921598125
 30
0.0
 11
4458.5798576332690573
 21
235.5689489541065882
 31
0.0
  0
LINE
  5
8A72
  8
0
 10
4458.5784406747552566
 20
235.5696854214938867
 30
0.0
 11
4458.5742400245826502
 21
235.562217436895196
 31
0.0
  0
LINE
  5
8A73
  8
0
 10
4458.5742400245826502
 20
235.562217436895196
 30
0.0
 11
4458.5742400245899262
 21
235.5589618775950953
 31
0.0
  0
LINE
  5
8A74
  8
0
 10
4458.5742400245826502
 20
235.562217436895196
 30
0.0
 11
4458.5582563082125489
 21
235.5705250095379881
 31
0.0
  0
LINE
  5
8A75
  8
0
 10
4458.6040999167953487
 20
235.5563489725061004
 30
0.0
 11
4458.5984823081153081
 21
235.5463618959946075
 31
0.0
  0
LINE
  5
8A76
  8
0
 10
4458.5984823081153081
 20
235.5463618959946075
 30
0.0
 11
4458.5811663912963922
 21
235.5553618828593017
 31
0.0
  0
LINE
  5
8A77
  8
0
 10
4458.5811663912963922
 20
235.5553618828593017
 30
0.0
 11
4458.5864479722140459
 21
235.5655236105592962
 31
0.0
  0
LINE
  5
8A78
  8
0
 10
4458.5864479722140459
 20
235.5655236105592962
 30
0.0
 11
4458.6040999167953487
 21
235.5563489725061004
 31
0.0
  0
LINE
  5
8A79
  8
0
 10
4458.6026829582797291
 20
235.5570854398933136
 30
0.0
 11
4458.5984823081089417
 21
235.5496174552945945
 31
0.0
  0
LINE
  5
8A7A
  8
0
 10
4458.5984823081089417
 20
235.5496174552945945
 30
0.0
 11
4458.5984823081153081
 21
235.5463618959946075
 31
0.0
  0
LINE
  5
8A7B
  8
0
 10
4458.5984823081089417
 20
235.5496174552945945
 30
0.0
 11
4458.5824985917388403
 21
235.5579250279375003
 31
0.0
  0
LINE
  5
8A7C
  8
0
 10
4458.6093358897087455
 20
235.5409342620249049
 30
0.0
 11
4458.6057341197629285
 21
235.5428062900874977
 31
0.0
  0
LINE
  5
8A7D
  8
0
 10
4458.6057341197629285
 20
235.5428062900874977
 30
0.0
 11
4458.6110157006796726
 21
235.5529680177874923
 31
0.0
  0
LINE
  5
8A7E
  8
0
 10
4458.6110157006796726
 20
235.5529680177874923
 30
0.0
 11
4458.6175549536455947
 21
235.54956922629259
 31
0.0
  0
LINE
  5
8A7F
  8
0
 10
4458.6115446455269193
 20
235.5430418154759877
 30
0.0
 11
4458.6070663202035576
 21
235.54536943516581
 31
0.0
  0
LINE
  5
8A80
  8
0
 10
4458.5895287030480176
 20
235.5286886091010956
 30
0.0
 11
4458.5881791313922804
 21
235.5262893185567066
 31
0.0
  0
LINE
  5
8A81
  8
0
 10
4458.577833803460635
 20
235.5218602182607128
 30
0.0
 11
4458.5665951775499707
 21
235.5277015194542969
 31
0.0
  0
LINE
  5
8A82
  8
0
 10
4458.5665951775499707
 20
235.5277015194542969
 30
0.0
 11
4458.5718767584658053
 21
235.5378632471542915
 31
0.0
  0
LINE
  5
8A83
  8
0
 10
4458.5718767584658053
 20
235.5378632471542915
 30
0.0
 11
4458.5895287030480176
 21
235.5286886091010956
 31
0.0
  0
LINE
  5
8A84
  8
0
 10
4458.5881117445351265
 20
235.5294250764883088
 30
0.0
 11
4458.585663748681327
 21
235.5250729894125072
 31
0.0
  0
LINE
  5
8A85
  8
0
 10
4458.5814461583968296
 20
235.5232382479179023
 30
0.0
 11
4458.5679273779924188
 21
235.5302646645324955
 31
0.0
  0
LINE
  5
8A86
  8
0
 10
4458.5649332091761607
 20
235.5410341175260953
 30
0.0
 11
4458.5593156004970297
 21
235.5310470410146877
 31
0.0
  0
LINE
  5
8A87
  8
0
 10
4458.5593156004970297
 20
235.5310470410146877
 30
0.0
 11
4458.5419996836781138
 21
235.5400470278792966
 31
0.0
  0
LINE
  5
8A88
  8
0
 10
4458.5419996836781138
 20
235.5400470278792966
 30
0.0
 11
4458.5472812645939484
 21
235.5502087555794049
 31
0.0
  0
LINE
  5
8A89
  8
0
 10
4458.5472812645939484
 20
235.5502087555794049
 30
0.0
 11
4458.5649332091761607
 21
235.5410341175260953
 31
0.0
  0
LINE
  5
8A8A
  8
0
 10
4458.5635162506623601
 20
235.5417705849133938
 30
0.0
 11
4458.5593156004888442
 21
235.5343026003147031
 31
0.0
  0
LINE
  5
8A8B
  8
0
 10
4458.5593156004888442
 20
235.5343026003147031
 30
0.0
 11
4458.5593156004970297
 21
235.5310470410146877
 31
0.0
  0
LINE
  5
8A8C
  8
0
 10
4458.5593156004888442
 20
235.5343026003147031
 30
0.0
 11
4458.5433318841196524
 21
235.5426101729576089
 31
0.0
  0
LINE
  5
8A8D
  8
0
 10
4458.5401632944531229
 20
235.5526472109756071
 30
0.0
 11
4458.5345456857730824
 21
235.5426601344641995
 31
0.0
  0
LINE
  5
8A8E
  8
0
 10
4458.5345456857730824
 20
235.5426601344641995
 30
0.0
 11
4458.517229768955076
 21
235.5516601213288084
 31
0.0
  0
LINE
  5
8A8F
  8
0
 10
4458.517229768955076
 20
235.5516601213288084
 30
0.0
 11
4458.5225113498718201
 21
235.5618218490288029
 31
0.0
  0
LINE
  5
8A90
  8
0
 10
4458.5225113498718201
 20
235.5618218490288029
 30
0.0
 11
4458.5401632944531229
 21
235.5526472109756071
 31
0.0
  0
LINE
  5
8A91
  8
0
 10
4458.5387463359384128
 20
235.5533836783627919
 30
0.0
 11
4458.5345456857667159
 21
235.5459156937641012
 31
0.0
  0
LINE
  5
8A92
  8
0
 10
4458.5345456857667159
 20
235.5459156937641012
 30
0.0
 11
4458.5345456857730824
 21
235.5426601344641995
 31
0.0
  0
LINE
  5
8A93
  8
0
 10
4458.5345456857667159
 20
235.5459156937641012
 30
0.0
 11
4458.5185619693957051
 21
235.554223266407007
 31
0.0
  0
LINE
  5
8A94
  8
0
 10
4458.5153933797791979
 20
235.5642603043750114
 30
0.0
 11
4458.5097757710991573
 21
235.5542732278636038
 31
0.0
  0
LINE
  5
8A95
  8
0
 10
4458.5097757710991573
 20
235.5542732278636038
 30
0.0
 11
4458.4924598542811509
 21
235.5632732147282127
 31
0.0
  0
LINE
  5
8A96
  8
0
 10
4458.4924598542811509
 20
235.5632732147282127
 30
0.0
 11
4458.497741435197895
 21
235.5734349424282073
 31
0.0
  0
LINE
  5
8A97
  8
0
 10
4458.497741435197895
 20
235.5734349424282073
 30
0.0
 11
4458.5153933797791979
 21
235.5642603043750114
 31
0.0
  0
LINE
  5
8A98
  8
0
 10
4458.5139764212635782
 20
235.5649967717623099
 30
0.0
 11
4458.5097757710918813
 21
235.5575287871635908
 31
0.0
  0
LINE
  5
8A99
  8
0
 10
4458.5097757710918813
 20
235.5575287871635908
 30
0.0
 11
4458.5097757710991573
 21
235.5542732278636038
 31
0.0
  0
LINE
  5
8A9A
  8
0
 10
4458.5097757710918813
 20
235.5575287871635908
 30
0.0
 11
4458.49379205472178
 21
235.5658363598064966
 31
0.0
  0
LINE
  5
8A9B
  8
0
 10
4458.4906234651052728
 20
235.5758733978244948
 30
0.0
 11
4458.4850058564261417
 21
235.5658863213130019
 31
0.0
  0
LINE
  5
8A9C
  8
0
 10
4458.4850058564261417
 20
235.5658863213130019
 30
0.0
 11
4458.4725550715593272
 21
235.5723576448604888
 31
0.0
  0
LINE
  5
8A9D
  8
0
 10
4458.4744986667537887
 20
235.5842542981760062
 30
0.0
 11
4458.4906234651052728
 21
235.5758733978244948
 31
0.0
  0
LINE
  5
8A9E
  8
0
 10
4458.4892065065896531
 20
235.5766098652117932
 30
0.0
 11
4458.4850058564188657
 21
235.5691418806129889
 31
0.0
  0
LINE
  5
8A9F
  8
0
 10
4458.4850058564188657
 20
235.5691418806129889
 30
0.0
 11
4458.4850058564261417
 21
235.5658863213130019
 31
0.0
  0
LINE
  5
8AA0
  8
0
 10
4458.4850058564188657
 20
235.5691418806129889
 30
0.0
 11
4458.4728703226628568
 21
235.5754493516606942
 31
0.0
  0
LINE
  5
8AA1
  8
0
 10
4458.5013687574883079
 20
235.5351606320463986
 30
0.0
 11
4458.498520325748359
 21
235.5300966435511043
 31
0.0
  0
LINE
  5
8AA2
  8
0
 10
4458.4826908609002203
 20
235.5423613450381879
 30
0.0
 11
4458.4837168129070051
 21
235.5443352700995945
 31
0.0
  0
LINE
  5
8AA3
  8
0
 10
4458.4837168129070051
 20
235.5443352700995945
 30
0.0
 11
4458.5013687574883079
 21
235.5351606320463986
 31
0.0
  0
LINE
  5
8AA4
  8
0
 10
4458.4999517989726883
 20
235.5358970994336971
 30
0.0
 11
4458.4971658178237703
 21
235.530944136567598
 31
0.0
  0
LINE
  5
8AA5
  8
0
 10
4458.5249409704456411
 20
235.5224990574679111
 30
0.0
 11
4458.5232636920809455
 21
235.5195171645823962
 31
0.0
  0
LINE
  5
8AA6
  8
0
 10
4458.5046718229077669
 20
235.5266382138752022
 30
0.0
 11
4458.5072890258643383
 21
235.531673695521107
 31
0.0
  0
LINE
  5
8AA7
  8
0
 10
4458.5072890258643383
 20
235.531673695521107
 30
0.0
 11
4458.5249409704456411
 21
235.5224990574679111
 31
0.0
  0
LINE
  5
8AA8
  8
0
 10
4458.523524011930931
 20
235.5232355248552096
 30
0.0
 11
4458.5216763061489473
 21
235.5199506432875012
 31
0.0
  0
LINE
  5
8AA9
  8
0
 10
4458.5312370053243285
 20
235.5177891671746124
 30
0.0
 11
4458.5328592748055598
 21
235.5209104032201139
 31
0.0
  0
LINE
  5
8AAA
  8
0
 10
4458.5328592748055598
 20
235.5209104032201139
 30
0.0
 11
4458.5410580346169809
 21
235.5166490792963998
 31
0.0
  0
LINE
  5
8AAB
  8
0
 10
4458.5313730661673617
 20
235.5941489173075922
 30
0.0
 11
4458.5257554574882306
 21
235.584161840796213
 31
0.0
  0
LINE
  5
8AAC
  8
0
 10
4458.5257554574882306
 20
235.584161840796213
 30
0.0
 11
4458.5084395406702242
 21
235.5931618276609072
 31
0.0
  0
LINE
  5
8AAD
  8
0
 10
4458.5084395406702242
 20
235.5931618276609072
 30
0.0
 11
4458.5137211215869684
 21
235.6033235553609018
 31
0.0
  0
LINE
  5
8AAE
  8
0
 10
4458.5137211215869684
 20
235.6033235553609018
 30
0.0
 11
4458.5313730661673617
 21
235.5941489173075922
 31
0.0
  0
LINE
  5
8AAF
  8
0
 10
4458.5299561076526516
 20
235.5948853846948907
 30
0.0
 11
4458.5257554574818641
 21
235.5874174000962
 31
0.0
  0
LINE
  5
8AB0
  8
0
 10
4458.5257554574818641
 20
235.5874174000962
 30
0.0
 11
4458.5257554574882306
 21
235.584161840796213
 31
0.0
  0
LINE
  5
8AB1
  8
0
 10
4458.5257554574818641
 20
235.5874174000962
 30
0.0
 11
4458.5097717411117628
 21
235.5957249727391059
 31
0.0
  0
LINE
  5
8AB2
  8
0
 10
4458.5071307826410703
 20
235.6067488989081937
 30
0.0
 11
4458.5015131739619392
 21
235.5967618223967008
 31
0.0
  0
LINE
  5
8AB3
  8
0
 10
4458.5015131739619392
 20
235.5967618223967008
 30
0.0
 11
4458.4841972571439328
 21
235.605761809261395
 31
0.0
  0
LINE
  5
8AB4
  8
0
 10
4458.4841972571439328
 20
235.605761809261395
 30
0.0
 11
4458.4861918365922975
 21
235.609599367285
 31
0.0
  0
LINE
  5
8AB5
  8
0
 10
4458.4907009788012147
 20
235.6152883265521893
 30
0.0
 11
4458.5071307826410703
 21
235.6067488989081937
 31
0.0
  0
LINE
  5
8AB6
  8
0
 10
4458.5057138241281791
 20
235.6074853662954069
 30
0.0
 11
4458.5015131739555727
 21
235.6000173816966878
 31
0.0
  0
LINE
  5
8AB7
  8
0
 10
4458.5015131739555727
 20
235.6000173816966878
 30
0.0
 11
4458.5015131739619392
 21
235.5967618223967008
 31
0.0
  0
LINE
  5
8AB8
  8
0
 10
4458.5015131739555727
 20
235.6000173816966878
 30
0.0
 11
4458.4855294575863809
 21
235.6083249543395937
 31
0.0
  0
LINE
  5
8AB9
  8
0
 10
4458.5486407799080553
 20
235.6233680750929125
 30
0.0
 11
4458.5430231712289242
 21
235.6133809985813912
 31
0.0
  0
LINE
  5
8ABA
  8
0
 10
4458.5430231712289242
 20
235.6133809985813912
 30
0.0
 11
4458.5257072544100083
 21
235.6223809854461138
 31
0.0
  0
LINE
  5
8ABB
  8
0
 10
4458.5257072544100083
 20
235.6223809854461138
 30
0.0
 11
4458.5309888353267525
 21
235.6325427131461083
 31
0.0
  0
LINE
  5
8ABC
  8
0
 10
4458.5309888353267525
 20
235.6325427131461083
 30
0.0
 11
4458.5486407799080553
 21
235.6233680750929125
 31
0.0
  0
LINE
  5
8ABD
  8
0
 10
4458.5472238213942546
 20
235.6241045424800973
 30
0.0
 11
4458.5430231712216482
 21
235.6166365578814066
 31
0.0
  0
LINE
  5
8ABE
  8
0
 10
4458.5430231712216482
 20
235.6166365578814066
 30
0.0
 11
4458.5430231712289242
 21
235.6133809985813912
 31
0.0
  0
LINE
  5
8ABF
  8
0
 10
4458.5430231712216482
 20
235.6166365578814066
 30
0.0
 11
4458.5270394548515469
 21
235.6249441305243124
 31
0.0
  0
LINE
  5
8AC0
  8
0
 10
4458.5723129030848213
 20
235.6098033099912072
 30
0.0
 11
4458.5666952944065997
 21
235.5998162334797996
 31
0.0
  0
LINE
  5
8AC1
  8
0
 10
4458.5666952944065997
 20
235.5998162334797996
 30
0.0
 11
4458.5493793775867744
 21
235.6088162203444085
 31
0.0
  0
LINE
  5
8AC2
  8
0
 10
4458.5493793775867744
 20
235.6088162203444085
 30
0.0
 11
4458.554660958504428
 21
235.6189779480444031
 31
0.0
  0
LINE
  5
8AC3
  8
0
 10
4458.554660958504428
 20
235.6189779480444031
 30
0.0
 11
4458.5723129030848213
 21
235.6098033099912072
 31
0.0
  0
LINE
  5
8AC4
  8
0
 10
4458.5708959445710207
 20
235.610539777378392
 30
0.0
 11
4458.5666952944002333
 21
235.6030717927797014
 31
0.0
  0
LINE
  5
8AC5
  8
0
 10
4458.5666952944002333
 20
235.6030717927797014
 30
0.0
 11
4458.5666952944065997
 21
235.5998162334797996
 31
0.0
  0
LINE
  5
8AC6
  8
0
 10
4458.5666952944002333
 20
235.6030717927797014
 30
0.0
 11
4458.5507115780301319
 21
235.6113793654226924
 31
0.0
  0
LINE
  5
8AC7
  8
0
 10
4458.5959850262634063
 20
235.596238544889502
 30
0.0
 11
4458.5903674175842752
 21
235.5862514683780944
 31
0.0
  0
LINE
  5
8AC8
  8
0
 10
4458.5903674175842752
 20
235.5862514683780944
 30
0.0
 11
4458.5730515007653594
 21
235.5952514552427033
 31
0.0
  0
LINE
  5
8AC9
  8
0
 10
4458.5730515007653594
 20
235.5952514552427033
 30
0.0
 11
4458.5783330816821035
 21
235.6054131829426979
 31
0.0
  0
LINE
  5
8ACA
  8
0
 10
4458.5783330816821035
 20
235.6054131829426979
 30
0.0
 11
4458.5959850262634063
 21
235.596238544889502
 31
0.0
  0
LINE
  5
8ACB
  8
0
 10
4458.5945680677486962
 20
235.5969750122768005
 30
0.0
 11
4458.5903674175779088
 21
235.5895070276781098
 31
0.0
  0
LINE
  5
8ACC
  8
0
 10
4458.5903674175779088
 20
235.5895070276781098
 30
0.0
 11
4458.5903674175842752
 21
235.5862514683780944
 31
0.0
  0
LINE
  5
8ACD
  8
0
 10
4458.5903674175779088
 20
235.5895070276781098
 30
0.0
 11
4458.5743837012078075
 21
235.5978146003209019
 31
0.0
  0
LINE
  5
8ACE
  8
0
 10
4458.6192111337759343
 20
235.581801966433801
 30
0.0
 11
4458.6145167740678517
 21
235.5734562570310118
 31
0.0
  0
LINE
  5
8ACF
  8
0
 10
4458.6145167740678517
 20
235.5734562570310118
 30
0.0
 11
4458.5972008572498453
 21
235.5824562438957059
 31
0.0
  0
LINE
  5
8AD0
  8
0
 10
4458.5972008572498453
 20
235.5824562438957059
 30
0.0
 11
4458.6024824381665894
 21
235.5926179715957005
 31
0.0
  0
LINE
  5
8AD1
  8
0
 10
4458.6024824381665894
 20
235.5926179715957005
 30
0.0
 11
4458.6186573467766721
 21
235.5842110263239135
 31
0.0
  0
LINE
  5
8AD2
  8
0
 10
4458.6186810218277969
 20
235.5841150841382898
 30
0.0
 11
4458.6145167740623947
 21
235.5767118163309988
 31
0.0
  0
LINE
  5
8AD3
  8
0
 10
4458.6145167740623947
 20
235.5767118163309988
 30
0.0
 11
4458.6145167740678517
 21
235.5734562570310118
 31
0.0
  0
LINE
  5
8AD4
  8
0
 10
4458.6145167740623947
 20
235.5767118163309988
 30
0.0
 11
4458.5985330576922934
 21
235.5850193889739899
 31
0.0
  0
LINE
  5
8AD5
  8
0
 10
4458.5983176447643928
 20
235.6196346261428971
 30
0.0
 11
4458.5908573284614249
 21
235.6235121423860903
 31
0.0
  0
LINE
  5
8AD6
  8
0
 10
4458.5908573284614249
 20
235.6235121423860903
 30
0.0
 11
4458.5917791514666533
 21
235.6252857239159937
 31
0.0
  0
LINE
  5
8AD7
  8
0
 10
4458.5850280656577524
 20
235.6298986712191947
 30
0.0
 11
4458.5838202689483296
 21
235.6277514304927081
 31
0.0
  0
LINE
  5
8AD8
  8
0
 10
4458.5838202689483296
 20
235.6277514304927081
 30
0.0
 11
4458.5665043521303232
 21
235.6367514173574023
 31
0.0
  0
LINE
  5
8AD9
  8
0
 10
4458.5665043521303232
 20
235.6367514173574023
 30
0.0
 11
4458.5670278362586032
 21
235.6377585974528017
 31
0.0
  0
LINE
  5
8ADA
  8
0
 10
4458.5838202689428726
 20
235.6306142928631004
 30
0.0
 11
4458.5838202689483296
 21
235.6277514304927081
 31
0.0
  0
LINE
  5
8ADB
  8
0
 10
4458.5249686567303797
 20
235.6369328401945893
 30
0.0
 11
4458.5193510480512487
 21
235.6269457636830964
 31
0.0
  0
LINE
  5
8ADC
  8
0
 10
4458.5193510480512487
 20
235.6269457636830964
 30
0.0
 11
4458.5107467614070629
 21
235.6314178610944055
 31
0.0
  0
LINE
  5
8ADD
  8
0
 10
4458.5243813164779567
 20
235.6372381116165968
 30
0.0
 11
4458.5249686567303797
 21
235.6369328401945893
 31
0.0
  0
LINE
  5
8ADE
  8
0
 10
4458.5230707901109781
 20
235.6368143412840936
 30
0.0
 11
4458.5193510480448822
 21
235.6302013229831118
 31
0.0
  0
LINE
  5
8ADF
  8
0
 10
4458.5193510480448822
 20
235.6302013229831118
 30
0.0
 11
4458.5193510480512487
 21
235.6269457636830964
 31
0.0
  0
LINE
  5
8AE0
  8
0
 10
4458.5193510480448822
 20
235.6302013229831118
 30
0.0
 11
4458.5138772346936094
 21
235.6330463498208019
 31
0.0
  0
ARC
  5
8AE1
  8
0
 10
4458.5491021696880125
 20
235.5793733042638962
 30
0.0
 40
0.1276639236138459
 50
306.9511414312029842
 51
189.7248068672832062
  0
ARC
  5
8AE2
  8
0
 10
4458.9782355042307245
 20
235.918116364420996
 30
0.0
 40
0.0723423415008865
 50
138.3570370203181881
 51
278.7796144942163892
  0
ARC
  5
8AE3
  8
0
 10
4458.9806535953694038
 20
235.9194330168911904
 30
0.0
 40
0.0733202680377581
 50
276.7546838801882245
 51
140.3819676343761955
  0
LINE
  5
8AE4
  8
0
 10
4458.9914640934730414
 20
235.9100646952967111
 30
0.0
 11
4458.9804228453813266
 21
235.9060329938741916
 31
0.0
  0
LINE
  5
8AE5
  8
0
 10
4458.9804228453813266
 20
235.9060329938741916
 30
0.0
 11
4458.9734325508452457
 21
235.923722208759898
 31
0.0
  0
LINE
  5
8AE6
  8
0
 10
4458.9734325508452457
 20
235.923722208759898
 30
0.0
 11
4458.9844737989369605
 21
235.9277539101823891
 31
0.0
  0
LINE
  5
8AE7
  8
0
 10
4458.9844737989369605
 20
235.9277539101823891
 30
0.0
 11
4458.9914640934730414
 21
235.9100646952967111
 31
0.0
  0
LINE
  5
8AE8
  8
0
 10
4458.9903398152482623
 20
235.9129097255037948
 30
0.0
 11
4458.9804228453749602
 21
235.909288553174207
 31
0.0
  0
LINE
  5
8AE9
  8
0
 10
4458.9804228453749602
 20
235.909288553174207
 30
0.0
 11
4458.9804228453813266
 21
235.9060329938741916
 31
0.0
  0
LINE
  5
8AEA
  8
0
 10
4458.9804228453749602
 20
235.909288553174207
 30
0.0
 11
4458.9745568289827133
 21
235.924132737871588
 31
0.0
  0
LINE
  5
8AEB
  8
0
 10
4459.0012505058730312
 20
235.8852997945166976
 30
0.0
 11
4458.9902092577822259
 21
235.8812680930940928
 31
0.0
  0
LINE
  5
8AEC
  8
0
 10
4458.9902092577822259
 20
235.8812680930940928
 30
0.0
 11
4458.983218963246145
 21
235.8989573079797992
 31
0.0
  0
LINE
  5
8AED
  8
0
 10
4458.983218963246145
 20
235.8989573079797992
 30
0.0
 11
4458.9942602113378598
 21
235.902989009402404
 31
0.0
  0
LINE
  5
8AEE
  8
0
 10
4458.9942602113378598
 20
235.902989009402404
 30
0.0
 11
4459.0012505058730312
 21
235.8852997945166976
 31
0.0
  0
LINE
  5
8AEF
  8
0
 10
4459.0001262276491616
 20
235.8881448247238097
 30
0.0
 11
4458.9902092577749499
 21
235.8845236523941082
 31
0.0
  0
LINE
  5
8AF0
  8
0
 10
4458.9902092577749499
 20
235.8845236523941082
 30
0.0
 11
4458.9902092577822259
 21
235.8812680930940928
 31
0.0
  0
LINE
  5
8AF1
  8
0
 10
4458.9902092577749499
 20
235.8845236523941082
 30
0.0
 11
4458.9843432413836126
 21
235.8993678370914893
 31
0.0
  0
LINE
  5
8AF2
  8
0
 10
4458.9954678447211336
 20
235.8674449912082878
 30
0.0
 11
4458.9928067289120008
 21
235.874179049283498
 31
0.0
  0
LINE
  5
8AF3
  8
0
 10
4458.9928067289120008
 20
235.874179049283498
 30
0.0
 11
4459.0038479770037156
 21
235.8782107507059891
 31
0.0
  0
LINE
  5
8AF4
  8
0
 10
4459.0038479770037156
 20
235.8782107507059891
 30
0.0
 11
4459.0070243401605694
 21
235.8701728389760888
 31
0.0
  0
LINE
  5
8AF5
  8
0
 10
4458.9966705948882009
 20
235.8676569438507045
 30
0.0
 11
4458.9939310070512875
 21
235.874589578395188
 31
0.0
  0
LINE
  5
8AF6
  8
0
 10
4458.9720478487970468
 20
235.8739582143570033
 30
0.0
 11
4458.9610066007053319
 21
235.8699265129345122
 31
0.0
  0
LINE
  5
8AF7
  8
0
 10
4458.9610066007053319
 20
235.8699265129345122
 30
0.0
 11
4458.954016306169251
 21
235.8876157278201902
 31
0.0
  0
LINE
  5
8AF8
  8
0
 10
4458.954016306169251
 20
235.8876157278201902
 30
0.0
 11
4458.9650575542609658
 21
235.8916474292427949
 31
0.0
  0
LINE
  5
8AF9
  8
0
 10
4458.9650575542609658
 20
235.8916474292427949
 30
0.0
 11
4458.9720478487970468
 21
235.8739582143570033
 31
0.0
  0
LINE
  5
8AFA
  8
0
 10
4458.9709235705722676
 20
235.8768032445642007
 30
0.0
 11
4458.9610066006989655
 21
235.8731820722344992
 31
0.0
  0
LINE
  5
8AFB
  8
0
 10
4458.9610066006989655
 20
235.8731820722344992
 30
0.0
 11
4458.9610066007053319
 21
235.8699265129345122
 31
0.0
  0
LINE
  5
8AFC
  8
0
 10
4458.9610066006989655
 20
235.8731820722344992
 30
0.0
 11
4458.9551405843067187
 21
235.8880262569319086
 31
0.0
  0
LINE
  5
8AFD
  8
0
 10
4458.9611911819483794
 20
235.8983074551848915
 30
0.0
 11
4458.9501499338557551
 21
235.8942757537624004
 31
0.0
  0
LINE
  5
8AFE
  8
0
 10
4458.9501499338557551
 20
235.8942757537624004
 30
0.0
 11
4458.9431596393196742
 21
235.9119649686481068
 31
0.0
  0
LINE
  5
8AFF
  8
0
 10
4458.9431596393196742
 20
235.9119649686481068
 30
0.0
 11
4458.954200887411389
 21
235.9159966700705979
 31
0.0
  0
LINE
  5
8B00
  8
0
 10
4458.954200887411389
 20
235.9159966700705979
 30
0.0
 11
4458.9611911819483794
 21
235.8983074551848915
 31
0.0
  0
LINE
  5
8B01
  8
0
 10
4458.9600669037217813
 20
235.9011524853920037
 30
0.0
 11
4458.9501499338493886
 21
235.8975313130623874
 31
0.0
  0
LINE
  5
8B02
  8
0
 10
4458.9501499338493886
 20
235.8975313130623874
 30
0.0
 11
4458.9501499338557551
 21
235.8942757537624004
 31
0.0
  0
LINE
  5
8B03
  8
0
 10
4458.9501499338493886
 20
235.8975313130623874
 30
0.0
 11
4458.9442839174580513
 21
235.9123754977597969
 31
0.0
  0
LINE
  5
8B04
  8
0
 10
4458.950334515097893
 20
235.9226566960126945
 30
0.0
 11
4458.9392932670070877
 21
235.9186249945902034
 31
0.0
  0
LINE
  5
8B05
  8
0
 10
4458.9392932670070877
 20
235.9186249945902034
 30
0.0
 11
4458.9323029724700973
 21
235.9363142094759951
 31
0.0
  0
LINE
  5
8B06
  8
0
 10
4458.9323029724700973
 20
235.9363142094759951
 30
0.0
 11
4458.9433442205609026
 21
235.9403459108984009
 31
0.0
  0
LINE
  5
8B07
  8
0
 10
4458.9433442205609026
 20
235.9403459108984009
 30
0.0
 11
4458.950334515097893
 21
235.9226566960126945
 31
0.0
  0
LINE
  5
8B08
  8
0
 10
4458.9492102368722044
 20
235.9255017262198919
 30
0.0
 11
4458.9392932669989023
 21
235.9218805538901904
 31
0.0
  0
LINE
  5
8B09
  8
0
 10
4458.9392932669989023
 20
235.9218805538901904
 30
0.0
 11
4458.9392932670070877
 21
235.9186249945902034
 31
0.0
  0
LINE
  5
8B0A
  8
0
 10
4458.9392932669989023
 20
235.9218805538901904
 30
0.0
 11
4458.9334272506093839
 21
235.9367247385875999
 31
0.0
  0
LINE
  5
8B0B
  8
0
 10
4458.9816776810721421
 20
235.9348295960766961
 30
0.0
 11
4458.9706364329813368
 21
235.930797894654205
 31
0.0
  0
LINE
  5
8B0C
  8
0
 10
4458.9706364329813368
 20
235.930797894654205
 30
0.0
 11
4458.9636461384452559
 21
235.9484871095399114
 31
0.0
  0
LINE
  5
8B0D
  8
0
 10
4458.9636461384452559
 20
235.9484871095399114
 30
0.0
 11
4458.9746873865369707
 21
235.9525188109624025
 31
0.0
  0
LINE
  5
8B0E
  8
0
 10
4458.9746873865369707
 20
235.9525188109624025
 30
0.0
 11
4458.9816776810721421
 21
235.9348295960766961
 31
0.0
  0
LINE
  5
8B0F
  8
0
 10
4458.980553402847363
 20
235.9376746262838083
 30
0.0
 11
4458.9706364329740609
 21
235.9340534539541068
 31
0.0
  0
LINE
  5
8B10
  8
0
 10
4458.9706364329740609
 20
235.9340534539541068
 30
0.0
 11
4458.9706364329813368
 21
235.930797894654205
 31
0.0
  0
LINE
  5
8B11
  8
0
 10
4458.9706364329740609
 20
235.9340534539541068
 30
0.0
 11
4458.9647704165827236
 21
235.9488976386516015
 31
0.0
  0
LINE
  5
8B12
  8
0
 10
4458.9394778482474067
 20
235.947005936790589
 30
0.0
 11
4458.9284366001556918
 21
235.9429742353680126
 31
0.0
  0
LINE
  5
8B13
  8
0
 10
4458.9284366001556918
 20
235.9429742353680126
 30
0.0
 11
4458.9214463056187014
 21
235.9606634502538043
 31
0.0
  0
LINE
  5
8B14
  8
0
 10
4458.9214463056187014
 20
235.9606634502538043
 30
0.0
 11
4458.9324875537113257
 21
235.9646951516762954
 31
0.0
  0
LINE
  5
8B15
  8
0
 10
4458.9324875537113257
 20
235.9646951516762954
 30
0.0
 11
4458.9394778482474067
 21
235.947005936790589
 31
0.0
  0
LINE
  5
8B16
  8
0
 10
4458.938353570021718
 20
235.9498509669977011
 30
0.0
 11
4458.9284366001493254
 21
235.9462297946679996
 31
0.0
  0
LINE
  5
8B17
  8
0
 10
4458.9284366001493254
 20
235.9462297946679996
 30
0.0
 11
4458.9284366001556918
 21
235.9429742353680126
 31
0.0
  0
LINE
  5
8B18
  8
0
 10
4458.9284366001493254
 20
235.9462297946679996
 30
0.0
 11
4458.9225705837588976
 21
235.9610739793654943
 31
0.0
  0
LINE
  5
8B19
  8
0
 10
4458.9718912686721524
 20
235.9595944969067034
 30
0.0
 11
4458.9608500205804376
 21
235.9555627954842123
 31
0.0
  0
LINE
  5
8B1A
  8
0
 10
4458.9608500205804376
 20
235.9555627954842123
 30
0.0
 11
4458.9538597260443566
 21
235.9732520103698903
 31
0.0
  0
LINE
  5
8B1B
  8
0
 10
4458.9538597260443566
 20
235.9732520103698903
 30
0.0
 11
4458.9649009741369809
 21
235.9772837117924951
 31
0.0
  0
LINE
  5
8B1C
  8
0
 10
4458.9649009741369809
 20
235.9772837117924951
 30
0.0
 11
4458.9718912686721524
 21
235.9595944969067034
 31
0.0
  0
LINE
  5
8B1D
  8
0
 10
4458.9707669904473732
 20
235.9624395271139008
 30
0.0
 11
4458.9608500205740711
 21
235.9588183547841993
 31
0.0
  0
LINE
  5
8B1E
  8
0
 10
4458.9608500205740711
 20
235.9588183547841993
 30
0.0
 11
4458.9608500205804376
 21
235.9555627954842123
 31
0.0
  0
LINE
  5
8B1F
  8
0
 10
4458.9608500205740711
 20
235.9588183547841993
 30
0.0
 11
4458.9549840041818243
 21
235.9736625394816087
 31
0.0
  0
LINE
  5
8B20
  8
0
 10
4458.9621048562712531
 20
235.9843593976866885
 30
0.0
 11
4458.9510636081786288
 21
235.9803276962641974
 31
0.0
  0
LINE
  5
8B21
  8
0
 10
4458.9510636081786288
 20
235.9803276962641974
 30
0.0
 11
4458.9489937412727159
 21
235.9855655757694137
 31
0.0
  0
LINE
  5
8B22
  8
0
 10
4458.9599651629850996
 20
235.9897739755897135
 30
0.0
 11
4458.9621048562712531
 21
235.9843593976866885
 31
0.0
  0
LINE
  5
8B23
  8
0
 10
4458.9609805780455645
 20
235.9872044278938858
 30
0.0
 11
4458.9510636081731718
 21
235.9835832555642128
 31
0.0
  0
LINE
  5
8B24
  8
0
 10
4458.9510636081731718
 20
235.9835832555642128
 30
0.0
 11
4458.9510636081786288
 21
235.9803276962641974
 31
0.0
  0
LINE
  5
8B25
  8
0
 10
4458.9510636081731718
 20
235.9835832555642128
 30
0.0
 11
4458.9500791944037701
 21
235.9860743532427989
 31
0.0
  0
LINE
  5
8B26
  8
0
 10
4459.0048246552978526
 20
235.9708672623739005
 30
0.0
 11
4458.9937834072070473
 21
235.9668355609514094
 31
0.0
  0
LINE
  5
8B27
  8
0
 10
4458.9937834072070473
 20
235.9668355609514094
 30
0.0
 11
4458.9867931126700569
 21
235.9845247758372011
 31
0.0
  0
LINE
  5
8B28
  8
0
 10
4458.9867931126700569
 20
235.9845247758372011
 30
0.0
 11
4458.9978343607617717
 21
235.9885564772596069
 31
0.0
  0
LINE
  5
8B29
  8
0
 10
4458.9978343607617717
 20
235.9885564772596069
 30
0.0
 11
4459.0048246552978526
 21
235.9708672623739005
 31
0.0
  0
LINE
  5
8B2A
  8
0
 10
4459.0037003770730735
 20
235.9737122925810979
 30
0.0
 11
4458.9937834071997713
 21
235.9700911202513964
 31
0.0
  0
LINE
  5
8B2B
  8
0
 10
4458.9937834071997713
 20
235.9700911202513964
 30
0.0
 11
4458.9937834072070473
 21
235.9668355609514094
 31
0.0
  0
LINE
  5
8B2C
  8
0
 10
4458.9937834071997713
 20
235.9700911202513964
 30
0.0
 11
4458.987917390810253
 21
235.9849353049488059
 31
0.0
  0
LINE
  5
8B2D
  8
0
 10
4459.0135236445503324
 20
235.9457301475916893
 30
0.0
 11
4459.0024823964586176
 21
235.9416984461691982
 31
0.0
  0
LINE
  5
8B2E
  8
0
 10
4459.0024823964586176
 20
235.9416984461691982
 30
0.0
 11
4458.9954921019216272
 21
235.9593876610549046
 31
0.0
  0
LINE
  5
8B2F
  8
0
 10
4458.9954921019216272
 20
235.9593876610549046
 30
0.0
 11
4459.0065333500142515
 21
235.9634193624773957
 31
0.0
  0
LINE
  5
8B30
  8
0
 10
4459.0065333500142515
 20
235.9634193624773957
 30
0.0
 11
4459.0135236445503324
 21
235.9457301475916893
 31
0.0
  0
LINE
  5
8B31
  8
0
 10
4459.0123993663246438
 20
235.9485751777988014
 30
0.0
 11
4459.0024823964522511
 21
235.9449540054692136
 31
0.0
  0
LINE
  5
8B32
  8
0
 10
4459.0024823964522511
 20
235.9449540054692136
 30
0.0
 11
4459.0024823964586176
 21
235.9416984461691982
 31
0.0
  0
LINE
  5
8B33
  8
0
 10
4459.0024823964522511
 20
235.9449540054692136
 30
0.0
 11
4458.9966163800609138
 21
235.9597981901665946
 31
0.0
  0
LINE
  5
8B34
  8
0
 10
4459.0222226338019027
 20
235.9205930328593865
 30
0.0
 11
4459.0111813857101879
 21
235.9165613314368954
 31
0.0
  0
LINE
  5
8B35
  8
0
 10
4459.0111813857101879
 20
235.9165613314368954
 30
0.0
 11
4459.004191091174107
 21
235.9342505463226871
 31
0.0
  0
LINE
  5
8B36
  8
0
 10
4459.004191091174107
 20
235.9342505463226871
 30
0.0
 11
4459.0152323392649123
 21
235.9382822477452066
 31
0.0
  0
LINE
  5
8B37
  8
0
 10
4459.0152323392649123
 20
235.9382822477452066
 30
0.0
 11
4459.0222226338019027
 21
235.9205930328593865
 31
0.0
  0
LINE
  5
8B38
  8
0
 10
4459.0210983555762141
 20
235.9234380630666124
 30
0.0
 11
4459.0111813857029119
 21
235.9198168907369109
 31
0.0
  0
LINE
  5
8B39
  8
0
 10
4459.0111813857029119
 20
235.9198168907369109
 30
0.0
 11
4459.0111813857101879
 21
235.9165613314368954
 31
0.0
  0
LINE
  5
8B3A
  8
0
 10
4459.0111813857029119
 20
235.9198168907369109
 30
0.0
 11
4459.0053153693133936
 21
235.9346610754342919
 31
0.0
  0
LINE
  5
8B3B
  8
0
 10
4459.0309216230525635
 20
235.8954559181271975
 30
0.0
 11
4459.0198803749599392
 21
235.8914242167047064
 31
0.0
  0
LINE
  5
8B3C
  8
0
 10
4459.0198803749599392
 20
235.8914242167047064
 30
0.0
 11
4459.0128900804238583
 21
235.9091134315904128
 31
0.0
  0
LINE
  5
8B3D
  8
0
 10
4459.0128900804238583
 20
235.9091134315904128
 30
0.0
 11
4459.0239313285173921
 21
235.9131451330129039
 31
0.0
  0
LINE
  5
8B3E
  8
0
 10
4459.0239313285173921
 20
235.9131451330129039
 30
0.0
 11
4459.0309216230525635
 21
235.8954559181271975
 31
0.0
  0
LINE
  5
8B3F
  8
0
 10
4459.0297973448277844
 20
235.8983009483343096
 30
0.0
 11
4459.0198803749535728
 21
235.8946797760046934
 31
0.0
  0
LINE
  5
8B40
  8
0
 10
4459.0198803749535728
 20
235.8946797760046934
 30
0.0
 11
4459.0198803749599392
 21
235.8914242167047064
 31
0.0
  0
LINE
  5
8B41
  8
0
 10
4459.0198803749535728
 20
235.8946797760046934
 30
0.0
 11
4459.0140143585640544
 21
235.9095239607021028
 31
0.0
  0
LINE
  5
8B42
  8
0
 10
4459.0248808519090744
 20
235.8777281667119894
 30
0.0
 11
4459.0221133018003457
 21
235.8847315609619955
 31
0.0
  0
LINE
  5
8B43
  8
0
 10
4459.0221133018003457
 20
235.8847315609619955
 30
0.0
 11
4459.033154549891151
 21
235.8887632623846002
 31
0.0
  0
LINE
  5
8B44
  8
0
 10
4459.033154549891151
 20
235.8887632623846002
 30
0.0
 11
4459.0349651314490984
 21
235.8841815146392946
 31
0.0
  0
LINE
  5
8B45
  8
0
 10
4459.025933884625374
 20
235.8783189852441069
 30
0.0
 11
4459.0232375799387228
 21
235.8851420900737139
 31
0.0
  0
LINE
  5
8B46
  8
0
 10
4459.0517728957356667
 20
235.9016030752079871
 30
0.0
 11
4459.0510103425831403
 21
235.9013246296368038
 31
0.0
  0
LINE
  5
8B47
  8
0
 10
4459.0510103425831403
 20
235.9013246296368038
 30
0.0
 11
4459.0440200480470594
 21
235.9190138445225955
 31
0.0
  0
LINE
  5
8B48
  8
0
 10
4459.0440200480470594
 20
235.9190138445225955
 30
0.0
 11
4459.0539044312772603
 21
235.9226231178217859
 31
0.0
  0
LINE
  5
8B49
  8
0
 10
4459.0525690945014503
 20
235.9051493657526066
 30
0.0
 11
4459.0510103425767738
 21
235.9045801889367908
 31
0.0
  0
LINE
  5
8B4A
  8
0
 10
4459.0510103425767738
 20
235.9045801889367908
 30
0.0
 11
4459.0510103425831403
 21
235.9013246296368038
 31
0.0
  0
LINE
  5
8B4B
  8
0
 10
4459.0510103425767738
 20
235.9045801889367908
 30
0.0
 11
4459.045144326186346
 21
235.9194243736342003
 31
0.0
  0
LINE
  5
8B4C
  8
0
 10
4459.0532416123196526
 20
235.929769433108703
 30
0.0
 11
4459.042841254105042
 21
235.9259717520257027
 31
0.0
  0
LINE
  5
8B4D
  8
0
 10
4459.042841254105042
 20
235.9259717520257027
 30
0.0
 11
4459.0358509595680516
 21
235.9436609669114944
 31
0.0
  0
LINE
  5
8B4E
  8
0
 10
4459.0358509595680516
 20
235.9436609669114944
 30
0.0
 11
4459.0468922076615854
 21
235.9476926683340139
 31
0.0
  0
LINE
  5
8B4F
  8
0
 10
4459.0468922076615854
 20
235.9476926683340139
 30
0.0
 11
4459.0527162445387148
 21
235.9329547142594095
 31
0.0
  0
LINE
  5
8B50
  8
0
 10
4459.0527375041001505
 20
235.9328409178135075
 30
0.0
 11
4459.0428412540977661
 21
235.9292273113256897
 31
0.0
  0
LINE
  5
8B51
  8
0
 10
4459.0428412540977661
 20
235.9292273113256897
 30
0.0
 11
4459.042841254105042
 21
235.9259717520257027
 31
0.0
  0
LINE
  5
8B52
  8
0
 10
4459.0428412540977661
 20
235.9292273113256897
 30
0.0
 11
4459.0369752377082477
 21
235.9440714960230991
 31
0.0
  0
LINE
  5
8B53
  8
0
 10
4459.0448190755214455
 20
235.9549105148585113
 30
0.0
 11
4459.0354957563477001
 21
235.95150611357559
 31
0.0
  0
LINE
  5
8B54
  8
0
 10
4459.0354957563477001
 20
235.95150611357559
 30
0.0
 11
4459.0285054618116192
 21
235.9691953284612964
 31
0.0
  0
LINE
  5
8B55
  8
0
 10
4459.0285054618116192
 20
235.9691953284612964
 30
0.0
 11
4459.0329535592345565
 21
235.9708195470784915
 31
0.0
  0
LINE
  5
8B56
  8
0
 10
4459.0432588702069552
 20
235.9575963666860901
 30
0.0
 11
4459.0354957563413336
 21
235.9547616728756054
 31
0.0
  0
LINE
  5
8B57
  8
0
 10
4459.0354957563413336
 20
235.9547616728756054
 30
0.0
 11
4459.0354957563477001
 21
235.95150611357559
 31
0.0
  0
LINE
  5
8B58
  8
0
 10
4459.0354957563413336
 20
235.9547616728756054
 30
0.0
 11
4459.0296297399509058
 21
235.9696058575729865
 31
0.0
  0
LINE
  5
8B59
  8
0
 10
4458.9308033732768308
 20
235.8859426829320114
 30
0.0
 11
4458.9252754195958914
 21
235.8839241558110018
 31
0.0
  0
LINE
  5
8B5A
  8
0
 10
4458.9158662232212009
 20
235.8917697144541989
 30
0.0
 11
4458.9127718306490351
 21
235.899600196395113
 31
0.0
  0
LINE
  5
8B5B
  8
0
 10
4458.9127718306490351
 20
235.899600196395113
 30
0.0
 11
4458.9238130787407499
 21
235.9036318978176894
 31
0.0
  0
LINE
  5
8B5C
  8
0
 10
4458.9238130787407499
 20
235.9036318978176894
 30
0.0
 11
4458.9308033732768308
 21
235.8859426829320114
 31
0.0
  0
LINE
  5
8B5D
  8
0
 10
4458.9296790950520517
 20
235.8887877131390951
 30
0.0
 11
4458.9223769135369366
 21
235.8861213283472011
 31
0.0
  0
LINE
  5
8B5E
  8
0
 10
4458.9178931930873659
 20
235.8898959468162957
 30
0.0
 11
4458.9138961087883217
 21
235.9000107255068883
 31
0.0
  0
LINE
  5
8B5F
  8
0
 10
4458.919549133073815
 20
235.9092328025998881
 30
0.0
 11
4458.9085078849830097
 21
235.905201101177397
 31
0.0
  0
LINE
  5
8B60
  8
0
 10
4458.9085078849830097
 20
235.905201101177397
 30
0.0
 11
4458.9062533622791307
 21
235.9109062594322097
 31
0.0
  0
LINE
  5
8B61
  8
0
 10
4458.906183769713607
 20
235.9245941670619118
 30
0.0
 11
4458.9125588385377341
 21
235.9269220174855946
 31
0.0
  0
LINE
  5
8B62
  8
0
 10
4458.9125588385377341
 20
235.9269220174855946
 30
0.0
 11
4458.919549133073815
 21
235.9092328025998881
 31
0.0
  0
LINE
  5
8B63
  8
0
 10
4458.9184248548490359
 20
235.9120778328070003
 30
0.0
 11
4458.9085078849757338
 21
235.9084566604772988
 31
0.0
  0
LINE
  5
8B64
  8
0
 10
4458.9085078849757338
 20
235.9084566604772988
 30
0.0
 11
4458.9085078849830097
 21
235.905201101177397
 31
0.0
  0
LINE
  5
8B65
  8
0
 10
4458.9085078849757338
 20
235.9084566604772988
 30
0.0
 11
4458.9059650854806023
 21
235.9148913143961011
 31
0.0
  0
ARC
  5
8B66
  8
0
 10
4458.9799443052179413
 20
235.9590536896837989
 30
0.0
 40
0.0929146593119756
 50
219.4454912329777017
 51
320.0622445121283022
  0
ARC
  5
8B67
  8
0
 10
4458.9799993509786873
 20
235.9272829705263064
 30
0.0
 40
0.1253275304978258
 50
188.6311537183102018
 51
350.8839834611057995
  0
ARC
  5
8B68
  8
0
 10
4458.9784376627312668
 20
235.9198909427734918
 30
0.0
 40
0.1228779736119558
 50
84.0750873186176051
 51
185.330876116585614
  0
ARC
  5
8B69
  8
0
 10
4458.9825175767227847
 20
235.9204884702701861
 30
0.0
 40
0.121928002172087
 50
353.8503348751589783
 51
85.9534099929881847
  0
ARC
  5
8B6A
  8
0
 10
4458.9827058223609129
 20
235.9265541455704067
 30
0.0
 40
0.1269571199190625
 50
268.8298460181587757
 51
10.43511602780017
  0
ARC
  5
8B6B
  8
0
 10
4458.9805071438222512
 20
235.9261492194482059
 30
0.0
 40
0.1291927747409147
 50
10.43511602780017
 51
188.2092868792398122
  0
ARC
  5
8B6C
  8
0
 10
4458.9774599333004517
 20
235.925709605523906
 30
0.0
 40
0.1261140164899482
 50
188.2092868792414038
 51
271.2054922307974039
  0
ARC
  5
8B6D
  8
0
 10
4458.3400897776336933
 20
235.2926810397227086
 30
0.0
 40
0.1120830224936187
 50
39.0611598818939783
 51
81.6043438606766642
  0
ARC
  5
8B6E
  8
0
 10
4458.3592581526991125
 20
235.4225571552807139
 30
0.0
 40
0.0192
 50
259.7828514141006053
 51
261.6043438606766927
  0
ARC
  5
8B6F
  8
0
 10
4458.389342567006679
 20
235.3326522876650984
 30
0.0
 40
0.0486516586192756
 50
310.6625124025321156
 51
39.0611598818939783
  0
ARC
  5
8B70
  8
0
 10
4458.3653408177297024
 20
235.3743960338163959
 30
0.0
 40
0.096376961280975
 50
257.9029593753201084
 51
305.3080980844958958
  0
ARC
  5
8B71
  8
0
 10
4458.3617717956758497
 20
235.3898784377913955
 30
0.0
 40
0.1109721387823567
 50
218.588481978411096
 51
261.3821129651781803
  0
ARC
  5
8B72
  8
0
 10
4458.3129735759148389
 20
235.3516162226399047
 30
0.0
 40
0.0489670660574978
 50
106.1709792219250943
 51
219.2075219992360928
  0
ARC
  5
8B73
  8
0
 10
4458.3367685139519381
 20
235.2977792892667139
 30
0.0
 40
0.1075884052189467
 50
79.7828514141008753
 51
110.3603370277321005
  0
ARC
  5
8B74
  8
0
 10
4458.3359123538866697
 20
235.3424108751532913
 30
0.0
 40
0.0369086135046815
 50
247.3138443538659885
 51
275.4807713844840009
  0
ARC
  5
8B75
  8
0
 10
4458.3343251159658394
 20
235.3477964984494122
 30
0.0
 40
0.0414170855314769
 50
100.7317917556433002
 51
252.219202964186394
  0
ARC
  5
8B76
  8
0
 10
4458.3305297997367234
 20
235.3429817787688876
 30
0.0
 40
0.0456756724210247
 50
18.6966062324095006
 51
94.9195889459819142
  0
ARC
  5
8B77
  8
0
 10
4458.336064337402604
 20
235.345238094615695
 30
0.0
 40
0.0397115789407038
 50
274.8727815585747862
 51
18.1726984784194308
  0
ARC
  5
8B78
  8
0
 10
4458.632142541243411
 20
235.8357648554622017
 30
0.0
 40
0.1120830224936187
 50
7.9095528106252164
 51
50.4527367894531977
  0
ARC
  5
8B79
  8
0
 10
4458.7157323473502402
 20
235.9369971443323948
 30
0.0
 40
0.0192
 50
228.6312443428427059
 51
230.4527367894530983
  0
ARC
  5
8B7A
  8
0
 10
4458.6949704529688461
 20
235.8444936257677114
 30
0.0
 40
0.0486516586192756
 50
279.5109053312481819
 51
7.9095528106252164
  0
ARC
  5
8B7B
  8
0
 10
4458.6960239425216059
 20
235.8926341956733097
 30
0.0
 40
0.096376961280975
 50
226.7513523040676944
 51
274.1564910132565842
  0
ARC
  5
8B7C
  8
0
 10
4458.7009786833750695
 20
235.9077303307531963
 30
0.0
 40
0.1109721387823567
 50
187.4368749071448974
 51
230.2305058939242031
  0
ARC
  5
8B7D
  8
0
 10
4458.639423883130803
 20
235.9002290024083095
 30
0.0
 40
0.0489670660574978
 50
75.0193721506852143
 51
188.0559149279696953
  0
ARC
  5
8B7E
  8
0
 10
4458.6319375456077978
 20
235.8418460492304973
 30
0.0
 40
0.1075884052189467
 50
48.6312443428438286
 51
79.2087299564962848
  0
ARC
  5
8B7F
  8
0
 10
4458.6542929569859552
 20
235.8804847222270951
 30
0.0
 40
0.0369086135046815
 50
216.1622372826120966
 51
244.3291643132035915
  0
ARC
  5
8B80
  8
0
 10
4458.655720602879228
 20
235.885914831775608
 30
0.0
 40
0.0414170855314769
 50
69.5801846843714884
 51
221.0675958929134026
  0
ARC
  5
8B81
  8
0
 10
4458.6499818900647369
 20
235.8837577211774885
 30
0.0
 40
0.0456756724210247
 50
347.5449991611512246
 51
63.7679818747173499
  0
ARC
  5
8B82
  8
0
 10
4458.6558855576904534
 20
235.8828256391149978
 30
0.0
 40
0.0397115789407038
 50
243.7211744872928989
 51
347.0210914071682282
  0
ARC
  5
8B83
  8
0
 10
4458.3322487123941755
 20
235.4099378219032133
 30
0.0
 40
0.0402166733716893
 50
230.8011070917793859
 51
310.3118980518761987
  0
ARC
  5
8B84
  8
0
 10
4458.6554041430626967
 20
235.950123439704214
 30
0.0
 40
0.0418693493127771
 50
230.9776880138826982
 51
307.9870660996887182
  0
ARC
  5
8B85
  8
0
 10
4459.5170690386376009
 20
233.6695233834109899
 30
0.0
 40
0.0652335778324958
 50
189.8280208762162999
 51
353.4257548677804266
  0
ARC
  5
8B86
  8
0
 10
4459.5172443174697037
 20
233.6633520680553033
 30
0.0
 40
0.0646423638709044
 50
358.8500456391686839
 51
184.4037301048205961
  0
ARC
  5
8B87
  8
0
 10
4459.5162826661444342
 20
233.6595516751696096
 30
0.0
 40
0.018501567971953
 50
100.7933369658905036
 51
250.9433813393854962
  0
ARC
  5
8B88
  8
0
 10
4459.5168663087979439
 20
233.6612412708155944
 30
0.0
 40
0.0202891283750659
 50
250.943381339385013
 51
353.5338767978739725
  0
ARC
  5
8B89
  8
0
 10
4459.5175754183228491
 20
233.658865548092308
 30
0.0
 40
0.019451164043982
 50
0.2676038460270811
 51
104.1573823181793017
  0
ARC
  5
8B8A
  8
0
 10
4459.5187289726600284
 20
233.6725215709332133
 30
0.0
 40
0.0674338293342164
 50
46.3299543569155787
 51
192.0979282104075878
  0
ARC
  5
8B8B
  8
0
 10
4459.5236820313493808
 20
233.6777100787884081
 30
0.0
 40
0.0602607265094935
 50
344.9422077224622853
 51
46.3299543569155787
  0
ARC
  5
8B8C
  8
0
 10
4459.8536939496680134
 20
233.4813662111299948
 30
0.0
 40
0.0652335778324958
 50
189.8280208762162999
 51
353.4257548677804266
  0
ARC
  5
8B8D
  8
0
 10
4459.8538692284982972
 20
233.4751948957745071
 30
0.0
 40
0.0646423638709044
 50
358.8500456391686839
 51
184.4037301048205961
  0
ARC
  5
8B8E
  8
0
 10
4459.8529075771739372
 20
233.4713945028886997
 30
0.0
 40
0.018501567971953
 50
100.7933369658905036
 51
250.9433813393854962
  0
ARC
  5
8B8F
  8
0
 10
4459.8534912198283564
 20
233.4730840985347129
 30
0.0
 40
0.0202891283750659
 50
250.943381339385013
 51
353.5338767978739725
  0
ARC
  5
8B90
  8
0
 10
4459.8542003293523521
 20
233.4707083758113981
 30
0.0
 40
0.019451164043982
 50
0.2676038460270811
 51
104.1573823181793017
  0
ARC
  5
8B91
  8
0
 10
4459.8553538836904409
 20
233.4843643986523034
 30
0.0
 40
0.0674338293342164
 50
46.3299543569155787
 51
192.0979282104075878
  0
ARC
  5
8B92
  8
0
 10
4459.8603069423788838
 20
233.4895529065074982
 30
0.0
 40
0.0602607265094935
 50
344.9422077224622853
 51
46.3299543569155787
  0
ARC
  5
8B93
  8
0
 10
4460.0017715357898851
 20
233.8210427929315927
 30
0.0
 40
0.0652335778324958
 50
189.8280208762162999
 51
353.4257548677804266
  0
ARC
  5
8B94
  8
0
 10
4460.0019468146210784
 20
233.8148714775759913
 30
0.0
 40
0.0646423638709044
 50
358.8500456391686839
 51
184.4037301048205961
  0
ARC
  5
8B95
  8
0
 10
4460.0009851632958089
 20
233.8110710846902975
 30
0.0
 40
0.018501567971953
 50
100.7933369658905036
 51
250.9433813393854962
  0
ARC
  5
8B96
  8
0
 10
4460.0015688059511376
 20
233.8127606803363108
 30
0.0
 40
0.0202891283750659
 50
250.943381339385013
 51
353.5338767978739725
  0
ARC
  5
8B97
  8
0
 10
4460.0022779154742238
 20
233.810384957612996
 30
0.0
 40
0.019451164043982
 50
0.2676038460270811
 51
104.1573823181793017
  0
ARC
  5
8B98
  8
0
 10
4460.0034314698141316
 20
233.8240409804539013
 30
0.0
 40
0.0674338293342164
 50
46.3299543569155787
 51
192.0979282104075878
  0
ARC
  5
8B99
  8
0
 10
4460.008384528501665
 20
233.829229488309096
 30
0.0
 40
0.0602607265094935
 50
344.9422077224622853
 51
46.3299543569155787
  0
ARC
  5
8B9A
  8
0
 10
4459.6767627031240409
 20
233.9754358707268977
 30
0.0
 40
0.0652335778324958
 50
189.8280208762162999
 51
353.4257548677804266
  0
ARC
  5
8B9B
  8
0
 10
4459.6769379819561436
 20
233.9692645553712964
 30
0.0
 40
0.0646423638709044
 50
358.8500456391686839
 51
184.4037301048205961
  0
ARC
  5
8B9C
  8
0
 10
4459.6759763306308741
 20
233.9654641624854889
 30
0.0
 40
0.018501567971953
 50
100.7933369658905036
 51
250.9433813393854962
  0
ARC
  5
8B9D
  8
0
 10
4459.6765599732852934
 20
233.9671537581315022
 30
0.0
 40
0.0202891283750659
 50
250.943381339385013
 51
353.5338767978739725
  0
ARC
  5
8B9E
  8
0
 10
4459.6772690828092891
 20
233.9647780354081874
 30
0.0
 40
0.019451164043982
 50
0.2676038460270811
 51
104.1573823181793017
  0
ARC
  5
8B9F
  8
0
 10
4459.6784226371473778
 20
233.9784340582490927
 30
0.0
 40
0.0674338293342164
 50
46.3299543569155787
 51
192.0979282104075878
  0
ARC
  5
8BA0
  8
0
 10
4459.6833756958358208
 20
233.9836225661042874
 30
0.0
 40
0.0602607265094935
 50
344.9422077224622853
 51
46.3299543569155787
  0
ARC
  5
8BA1
  8
0
 10
4460.0500916156661333
 20
234.1582458230743953
 30
0.0
 40
0.0652335778324958
 50
189.8280208762162999
 51
353.4257548677804266
  0
ARC
  5
8BA2
  8
0
 10
4460.0502668944973266
 20
234.1520745077187939
 30
0.0
 40
0.0646423638709044
 50
358.8500456391686839
 51
184.4037301048205961
  0
ARC
  5
8BA3
  8
0
 10
4460.0493052431729666
 20
234.1482741148331002
 30
0.0
 40
0.018501567971953
 50
100.7933369658905036
 51
250.9433813393854962
  0
ARC
  5
8BA4
  8
0
 10
4460.0498888858255668
 20
234.1499637104791134
 30
0.0
 40
0.0202891283750659
 50
250.943381339385013
 51
353.5338767978739725
  0
ARC
  5
8BA5
  8
0
 10
4460.0505979953495626
 20
234.1475879877557986
 30
0.0
 40
0.019451164043982
 50
0.2676038460270811
 51
104.1573823181793017
  0
ARC
  5
8BA6
  8
0
 10
4460.0517515496885608
 20
234.1612440105965902
 30
0.0
 40
0.0674338293342164
 50
46.3299543569155787
 51
192.0979282104075878
  0
ARC
  5
8BA7
  8
0
 10
4460.0567046083760943
 20
234.1664325184518987
 30
0.0
 40
0.0602607265094935
 50
344.9422077224622853
 51
46.3299543569155787
  0
ARC
  5
8BA8
  8
0
 10
4460.4132908315614259
 20
234.1082894997263963
 30
0.0
 40
0.0652335778324958
 50
189.8280208762162999
 51
353.4257548677804266
  0
ARC
  5
8BA9
  8
0
 10
4460.4134661103917097
 20
234.102118184370795
 30
0.0
 40
0.0646423638709044
 50
358.8500456391686839
 51
184.4037301048205961
  0
ARC
  5
8BAA
  8
0
 10
4460.4125044590673497
 20
234.0983177914851012
 30
0.0
 40
0.018501567971953
 50
100.7933369658905036
 51
250.9433813393854962
  0
ARC
  5
8BAB
  8
0
 10
4460.4130881017208594
 20
234.100007387131086
 30
0.0
 40
0.0202891283750659
 50
250.943381339385013
 51
353.5338767978739725
  0
ARC
  5
8BAC
  8
0
 10
4460.4137972112457646
 20
234.0976316644077997
 30
0.0
 40
0.019451164043982
 50
0.2676038460270811
 51
104.1573823181793017
  0
ARC
  5
8BAD
  8
0
 10
4460.4149507655829439
 20
234.111287687248705
 30
0.0
 40
0.0674338293342164
 50
46.3299543569155787
 51
192.0979282104075878
  0
ARC
  5
8BAE
  8
0
 10
4460.4199038242713868
 20
234.1164761951038997
 30
0.0
 40
0.0602607265094935
 50
344.9422077224622853
 51
46.3299543569155787
  0
ARC
  5
8BAF
  8
0
 10
4460.3882061481190249
 20
233.7430884376238964
 30
0.0
 40
0.0652335778324958
 50
189.8280208762162999
 51
353.4257548677804266
  0
ARC
  5
8BB0
  8
0
 10
4460.3883814269502182
 20
233.7369171222682098
 30
0.0
 40
0.0646423638709044
 50
358.8500456391686839
 51
184.4037301048205961
  0
ARC
  5
8BB1
  8
0
 10
4460.3874197756240392
 20
233.7331167293826013
 30
0.0
 40
0.018501567971953
 50
100.7933369658905036
 51
250.9433813393854962
  0
ARC
  5
8BB2
  8
0
 10
4460.3880034182793679
 20
233.7348063250285009
 30
0.0
 40
0.0202891283750659
 50
250.943381339385013
 51
353.5338767978739725
  0
ARC
  5
8BB3
  8
0
 10
4460.3887125278033636
 20
233.7324306023052998
 30
0.0
 40
0.019451164043982
 50
0.2676038460270811
 51
104.1573823181793017
  0
ARC
  5
8BB4
  8
0
 10
4460.3898660821414524
 20
233.7460866251460914
 30
0.0
 40
0.0674338293342164
 50
46.3299543569155787
 51
192.0979282104075878
  0
ARC
  5
8BB5
  8
0
 10
4460.3948191408289858
 20
233.7512751330013998
 30
0.0
 40
0.0602607265094935
 50
344.9422077224622853
 51
46.3299543569155787
  0
ARC
  5
8BB6
  8
0
 10
4460.8119836209771165
 20
234.1502215688213937
 30
0.0
 40
0.0652335778324958
 50
189.8280208762162999
 51
353.4257548677804266
  0
ARC
  5
8BB7
  8
0
 10
4460.8121588998074003
 20
234.1440502534657924
 30
0.0
 40
0.0646423638709044
 50
358.8500456391686839
 51
184.4037301048205961
  0
ARC
  5
8BB8
  8
0
 10
4460.8111972484821308
 20
234.1402498605800986
 30
0.0
 40
0.018501567971953
 50
100.7933369658905036
 51
250.9433813393854962
  0
ARC
  5
8BB9
  8
0
 10
4460.8117808911365501
 20
234.1419394562261118
 30
0.0
 40
0.0202891283750659
 50
250.943381339385013
 51
353.5338767978739725
  0
ARC
  5
8BBA
  8
0
 10
4460.8124900006605458
 20
234.139563733502797
 30
0.0
 40
0.019451164043982
 50
0.2676038460270811
 51
104.1573823181793017
  0
ARC
  5
8BBB
  8
0
 10
4460.813643554997725
 20
234.1532197563437023
 30
0.0
 40
0.0674338293342164
 50
46.3299543569155787
 51
192.0979282104075878
  0
ARC
  5
8BBC
  8
0
 10
4460.8185966136870775
 20
234.1584082641988118
 30
0.0
 40
0.0602607265094935
 50
344.9422077224622853
 51
46.3299543569155787
  0
ARC
  5
8BBD
  8
0
 10
4460.3465472097177553
 20
234.4426215082386875
 30
0.0
 40
0.0652335778324958
 50
189.8280208762162999
 51
353.4257548677804266
  0
ARC
  5
8BBE
  8
0
 10
4460.3467224885489486
 20
234.4364501928830862
 30
0.0
 40
0.0646423638709044
 50
358.8500456391686839
 51
184.4037301048205961
  0
ARC
  5
8BBF
  8
0
 10
4460.3457608372236791
 20
234.4326497999973924
 30
0.0
 40
0.018501567971953
 50
100.7933369658905036
 51
250.9433813393854962
  0
ARC
  5
8BC0
  8
0
 10
4460.3463444798790078
 20
234.4343393956434056
 30
0.0
 40
0.0202891283750659
 50
250.943381339385013
 51
353.5338767978739725
  0
ARC
  5
8BC1
  8
0
 10
4460.3470535894030036
 20
234.4319636729200909
 30
0.0
 40
0.019451164043982
 50
0.2676038460270811
 51
104.1573823181793017
  0
ARC
  5
8BC2
  8
0
 10
4460.3482071437410923
 20
234.4456196957609961
 30
0.0
 40
0.0674338293342164
 50
46.3299543569155787
 51
192.0979282104075878
  0
ARC
  5
8BC3
  8
0
 10
4460.3531602024286258
 20
234.4508082036161909
 30
0.0
 40
0.0602607265094935
 50
344.9422077224622853
 51
46.3299543569155787
  0
ARC
  5
8BC4
  8
0
 10
4460.7123279571842431
 20
234.5042954975569103
 30
0.0
 40
0.0652335778324958
 50
189.8280208762162999
 51
353.4257548677804266
  0
ARC
  5
8BC5
  8
0
 10
4460.7125032360163459
 20
234.4981241822013089
 30
0.0
 40
0.0646423638709044
 50
358.8500456391686839
 51
184.4037301048205961
  0
ARC
  5
8BC6
  8
0
 10
4460.7115415846910764
 20
234.4943237893155867
 30
0.0
 40
0.018501567971953
 50
100.7933369658905036
 51
250.9433813393854962
  0
ARC
  5
8BC7
  8
0
 10
4460.7121252273445862
 20
234.4960133849616
 30
0.0
 40
0.0202891283750659
 50
250.943381339385013
 51
353.5338767978739725
  0
ARC
  5
8BC8
  8
0
 10
4460.7128343368685819
 20
234.4936376622383136
 30
0.0
 40
0.019451164043982
 50
0.2676038460270811
 51
104.1573823181793017
  0
ARC
  5
8BC9
  8
0
 10
4460.7139878912075801
 20
234.5072936850791905
 30
0.0
 40
0.0674338293342164
 50
46.3299543569155787
 51
192.0979282104075878
  0
ARC
  5
8BCA
  8
0
 10
4460.7189409498960231
 20
234.5124821929344137
 30
0.0
 40
0.0602607265094935
 50
344.9422077224622853
 51
46.3299543569155787
  0
ARC
  5
8BCB
  8
0
 10
4460.5369552495330936
 20
234.8016780937985004
 30
0.0
 40
0.0652335778324958
 50
189.8280208762162999
 51
353.4257548677804266
  0
ARC
  5
8BCC
  8
0
 10
4460.5371305283633774
 20
234.7955067784428991
 30
0.0
 40
0.0646423638709044
 50
358.8500456391686839
 51
184.4037301048205961
  0
ARC
  5
8BCD
  8
0
 10
4460.5361688770390174
 20
234.7917063855572053
 30
0.0
 40
0.018501567971953
 50
100.7933369658905036
 51
250.9433813393854962
  0
ARC
  5
8BCE
  8
0
 10
4460.5367525196934366
 20
234.7933959812031901
 30
0.0
 40
0.0202891283750659
 50
250.943381339385013
 51
353.5338767978739725
  0
ARC
  5
8BCF
  8
0
 10
4460.5374616292174323
 20
234.7910202584799038
 30
0.0
 40
0.019451164043982
 50
0.2676038460270811
 51
104.1573823181793017
  0
ARC
  5
8BD0
  8
0
 10
4460.5386151835537021
 20
234.804676281320809
 30
0.0
 40
0.0674338293342164
 50
46.3299543569155787
 51
192.0979282104075878
  0
ARC
  5
8BD1
  8
0
 10
4460.5435682422421451
 20
234.8098647891760038
 30
0.0
 40
0.0602607265094935
 50
344.9422077224622853
 51
46.3299543569155787
  0
ARC
  5
8BD2
  8
0
 10
4461.0839752600068095
 20
234.6631455264798944
 30
0.0
 40
0.0652335778324958
 50
189.8280208762162999
 51
353.4257548677804266
  0
ARC
  5
8BD3
  8
0
 10
4461.0841505388370933
 20
234.6569742111242931
 30
0.0
 40
0.0646423638709044
 50
358.8500456391686839
 51
184.4037301048205961
  0
ARC
  5
8BD4
  8
0
 10
4461.0831888875127333
 20
234.6531738182385993
 30
0.0
 40
0.018501567971953
 50
100.7933369658905036
 51
250.9433813393854962
  0
ARC
  5
8BD5
  8
0
 10
4461.0837725301671526
 20
234.6548634138846126
 30
0.0
 40
0.0202891283750659
 50
250.943381339385013
 51
353.5338767978739725
  0
ARC
  5
8BD6
  8
0
 10
4461.0844816396911483
 20
234.6524876911612978
 30
0.0
 40
0.019451164043982
 50
0.2676038460270811
 51
104.1573823181793017
  0
ARC
  5
8BD7
  8
0
 10
4461.085635194029237
 20
234.6661437140020894
 30
0.0
 40
0.0674338293342164
 50
46.3299543569155787
 51
192.0979282104075878
  0
ARC
  5
8BD8
  8
0
 10
4461.09058825271768
 20
234.6713322218573126
 30
0.0
 40
0.0602607265094935
 50
344.9422077224622853
 51
46.3299543569155787
  0
ARC
  5
8BD9
  8
0
 10
4460.8704696738350322
 20
234.9696384302457943
 30
0.0
 40
0.0652335778324958
 50
189.8280208762162999
 51
353.4257548677804266
  0
ARC
  5
8BDA
  8
0
 10
4460.8706449526671349
 20
234.963467114890193
 30
0.0
 40
0.0646423638709044
 50
358.8500456391686839
 51
184.4037301048205961
  0
ARC
  5
8BDB
  8
0
 10
4460.8696833013418654
 20
234.9596667220044992
 30
0.0
 40
0.018501567971953
 50
100.7933369658905036
 51
250.9433813393854962
  0
ARC
  5
8BDC
  8
0
 10
4460.8702669439962847
 20
234.9613563176505124
 30
0.0
 40
0.0202891283750659
 50
250.943381339385013
 51
353.5338767978739725
  0
ARC
  5
8BDD
  8
0
 10
4460.8709760535202804
 20
234.9589805949271977
 30
0.0
 40
0.019451164043982
 50
0.2676038460270811
 51
104.1573823181793017
  0
ARC
  5
8BDE
  8
0
 10
4460.8721296078583691
 20
234.972636617768103
 30
0.0
 40
0.0674338293342164
 50
46.3299543569155787
 51
192.0979282104075878
  0
ARC
  5
8BDF
  8
0
 10
4460.8770826665468121
 20
234.9778251256232977
 30
0.0
 40
0.0602607265094935
 50
344.9422077224622853
 51
46.3299543569155787
  0
ARC
  5
8BE0
  8
0
 10
4460.6023810998722183
 20
235.1994530558455949
 30
0.0
 40
0.0652335778324958
 50
189.8280208762162999
 51
353.4257548677804266
  0
ARC
  5
8BE1
  8
0
 10
4460.6025563787015926
 20
235.1932817404899936
 30
0.0
 40
0.0646423638709044
 50
358.8500456391686839
 51
184.4037301048205961
  0
ARC
  5
8BE2
  8
0
 10
4460.6015947273781421
 20
235.1894813476042998
 30
0.0
 40
0.018501567971953
 50
100.7933369658905036
 51
250.9433813393854962
  0
ARC
  5
8BE3
  8
0
 10
4460.6021783700325614
 20
235.191170943250313
 30
0.0
 40
0.0202891283750659
 50
250.943381339385013
 51
353.5338767978739725
  0
ARC
  5
8BE4
  8
0
 10
4460.6028874795565571
 20
235.1887952205269983
 30
0.0
 40
0.019451164043982
 50
0.2676038460270811
 51
104.1573823181793017
  0
ARC
  5
8BE5
  8
0
 10
4460.6040410338946458
 20
235.2024512433677899
 30
0.0
 40
0.0674338293342164
 50
46.3299543569155787
 51
192.0979282104075878
  0
ARC
  5
8BE6
  8
0
 10
4460.6089940925821793
 20
235.207639751223013
 30
0.0
 40
0.0602607265094935
 50
344.9422077224622853
 51
46.3299543569155787
  0
ARC
  5
8BE7
  8
0
 10
4461.177315616728265
 20
235.2323287047823044
 30
0.0
 40
0.0652335778324958
 50
189.8280208762162999
 51
353.4257548677804266
  0
ARC
  5
8BE8
  8
0
 10
4461.1774908955585488
 20
235.226157389426703
 30
0.0
 40
0.0646423638709044
 50
358.8500456391686839
 51
184.4037301048205961
  0
ARC
  5
8BE9
  8
0
 10
4461.1765292442341888
 20
235.2223569965410093
 30
0.0
 40
0.018501567971953
 50
100.7933369658905036
 51
250.9433813393854962
  0
ARC
  5
8BEA
  8
0
 10
4461.177112886888608
 20
235.2240465921869941
 30
0.0
 40
0.0202891283750659
 50
250.943381339385013
 51
353.5338767978739725
  0
ARC
  5
8BEB
  8
0
 10
4461.1778219964126038
 20
235.2216708694637077
 30
0.0
 40
0.019451164043982
 50
0.2676038460270811
 51
104.1573823181793017
  0
ARC
  5
8BEC
  8
0
 10
4461.178975550749783
 20
235.235326892304613
 30
0.0
 40
0.0674338293342164
 50
46.3299543569155787
 51
192.0979282104075878
  0
ARC
  5
8BED
  8
0
 10
4461.1839286094391355
 20
235.2405154001598078
 30
0.0
 40
0.0602607265094935
 50
344.9422077224622853
 51
46.3299543569155787
  0
ARC
  5
8BEE
  8
0
 10
4460.8706040306369687
 20
235.4582364963330008
 30
0.0
 40
0.0652335778324958
 50
189.8280208762162999
 51
353.4257548677804266
  0
ARC
  5
8BEF
  8
0
 10
4460.8707793094672525
 20
235.4520651809773995
 30
0.0
 40
0.0646423638709044
 50
358.8500456391686839
 51
184.4037301048205961
  0
ARC
  5
8BF0
  8
0
 10
4460.869817658141983
 20
235.448264788091592
 30
0.0
 40
0.018501567971953
 50
100.7933369658905036
 51
250.9433813393854962
  0
ARC
  5
8BF1
  8
0
 10
4460.8704013007973117
 20
235.4499543837376905
 30
0.0
 40
0.0202891283750659
 50
250.943381339385013
 51
353.5338767978739725
  0
ARC
  5
8BF2
  8
0
 10
4460.8711104103213074
 20
235.4475786610144041
 30
0.0
 40
0.019451164043982
 50
0.2676038460270811
 51
104.1573823181793017
  0
ARC
  5
8BF3
  8
0
 10
4460.8722639646593962
 20
235.4612346838551957
 30
0.0
 40
0.0674338293342164
 50
46.3299543569155787
 51
192.0979282104075878
  0
ARC
  5
8BF4
  8
0
 10
4460.8772170233469296
 20
235.4664231917105042
 30
0.0
 40
0.0602607265094935
 50
344.9422077224622853
 51
46.3299543569155787
  0
ARC
  5
8BF5
  8
0
 10
4460.5364178223289855
 20
235.5978444812585053
 30
0.0
 40
0.0652335778324958
 50
189.8280208762162999
 51
353.4257548677804266
  0
ARC
  5
8BF6
  8
0
 10
4460.5365931011601788
 20
235.591673165902904
 30
0.0
 40
0.0646423638709044
 50
358.8500456391686839
 51
184.4037301048205961
  0
ARC
  5
8BF7
  8
0
 10
4460.5356314498349093
 20
235.5878727730172102
 30
0.0
 40
0.018501567971953
 50
100.7933369658905036
 51
250.9433813393854962
  0
ARC
  5
8BF8
  8
0
 10
4460.5362150924893285
 20
235.589562368663195
 30
0.0
 40
0.0202891283750659
 50
250.943381339385013
 51
353.5338767978739725
  0
ARC
  5
8BF9
  8
0
 10
4460.5369242020124148
 20
235.5871866459399087
 30
0.0
 40
0.019451164043982
 50
0.2676038460270811
 51
104.1573823181793017
  0
ARC
  5
8BFA
  8
0
 10
4460.5380777563523225
 20
235.6008426687808139
 30
0.0
 40
0.0674338293342164
 50
46.3299543569155787
 51
192.0979282104075878
  0
ARC
  5
8BFB
  8
0
 10
4460.5430308150389465
 20
235.6060311766360087
 30
0.0
 40
0.0602607265094935
 50
344.9422077224622853
 51
46.3299543569155787
  0
ARC
  5
8BFC
  8
0
 10
4461.0838132257040343
 20
235.8011730612053043
 30
0.0
 40
0.0652335778324958
 50
189.8280208762162999
 51
353.4257548677804266
  0
ARC
  5
8BFD
  8
0
 10
4461.0839885045352275
 20
235.795001745849703
 30
0.0
 40
0.0646423638709044
 50
358.8500456391686839
 51
184.4037301048205961
  0
ARC
  5
8BFE
  8
0
 10
4461.0830268532108676
 20
235.7912013529638955
 30
0.0
 40
0.018501567971953
 50
100.7933369658905036
 51
250.9433813393854962
  0
ARC
  5
8BFF
  8
0
 10
4461.0836104958643773
 20
235.792890948609994
 30
0.0
 40
0.0202891283750659
 50
250.943381339385013
 51
353.5338767978739725
  0
ARC
  5
8C00
  8
0
 10
4461.0843196053892825
 20
235.7905152258867076
 30
0.0
 40
0.019451164043982
 50
0.2676038460270811
 51
104.1573823181793017
  0
ARC
  5
8C01
  8
0
 10
4461.0854731597273712
 20
235.8041712487274992
 30
0.0
 40
0.0674338293342164
 50
46.3299543569155787
 51
192.0979282104075878
  0
ARC
  5
8C02
  8
0
 10
4461.0904262184149047
 20
235.809359756582694
 30
0.0
 40
0.0602607265094935
 50
344.9422077224622853
 51
46.3299543569155787
  0
ARC
  5
8C03
  8
0
 10
4460.7133896446257495
 20
235.9243901705237931
 30
0.0
 40
0.0652335778324958
 50
189.8280208762162999
 51
353.4257548677804266
  0
ARC
  5
8C04
  8
0
 10
4460.7135649234569428
 20
235.9182188551681065
 30
0.0
 40
0.0646423638709044
 50
358.8500456391686839
 51
184.4037301048205961
  0
ARC
  5
8C05
  8
0
 10
4460.7126032721307638
 20
235.914418462282498
 30
0.0
 40
0.018501567971953
 50
100.7933369658905036
 51
250.9433813393854962
  0
ARC
  5
8C06
  8
0
 10
4460.7131869147860925
 20
235.9161080579283976
 30
0.0
 40
0.0202891283750659
 50
250.943381339385013
 51
353.5338767978739725
  0
ARC
  5
8C07
  8
0
 10
4460.7138960243100883
 20
235.9137323352051965
 30
0.0
 40
0.019451164043982
 50
0.2676038460270811
 51
104.1573823181793017
  0
ARC
  5
8C08
  8
0
 10
4460.715049578648177
 20
235.9273883580459881
 30
0.0
 40
0.0674338293342164
 50
46.3299543569155787
 51
192.0979282104075878
  0
ARC
  5
8C09
  8
0
 10
4460.7200026373357105
 20
235.9325768659012965
 30
0.0
 40
0.0602607265094935
 50
344.9422077224622853
 51
46.3299543569155787
  0
ARC
  5
8C0A
  8
0
 10
4460.3463631409013033
 20
235.9564207399565134
 30
0.0
 40
0.0652335778324958
 50
189.8280208762162999
 51
353.4257548677804266
  0
ARC
  5
8C0B
  8
0
 10
4460.3465384197306776
 20
235.9502494246009121
 30
0.0
 40
0.0646423638709044
 50
358.8500456391686839
 51
184.4037301048205961
  0
ARC
  5
8C0C
  8
0
 10
4460.3455767684072271
 20
235.9464490317151899
 30
0.0
 40
0.018501567971953
 50
100.7933369658905036
 51
250.9433813393854962
  0
ARC
  5
8C0D
  8
0
 10
4460.3461604110616463
 20
235.9481386273612031
 30
0.0
 40
0.0202891283750659
 50
250.943381339385013
 51
353.5338767978739725
  0
ARC
  5
8C0E
  8
0
 10
4460.3468695205847325
 20
235.9457629046378884
 30
0.0
 40
0.019451164043982
 50
0.2676038460270811
 51
104.1573823181793017
  0
ARC
  5
8C0F
  8
0
 10
4460.3480230749228213
 20
235.9594189274787084
 30
0.0
 40
0.0674338293342164
 50
46.3299543569155787
 51
192.0979282104075878
  0
ARC
  5
8C10
  8
0
 10
4460.3529761336112642
 20
235.9646074353339884
 30
0.0
 40
0.0602607265094935
 50
344.9422077224622853
 51
46.3299543569155787
  0
ARC
  5
8C11
  8
0
 10
4460.8122504535831467
 20
236.3142527047318993
 30
0.0
 40
0.0652335778324958
 50
189.8280208762162999
 51
353.4257548677804266
  0
ARC
  5
8C12
  8
0
 10
4460.81242573241434
 20
236.3080813893762979
 30
0.0
 40
0.0646423638709044
 50
358.8500456391686839
 51
184.4037301048205961
  0
ARC
  5
8C13
  8
0
 10
4460.811464081088161
 20
236.3042809964906041
 30
0.0
 40
0.018501567971953
 50
100.7933369658905036
 51
250.9433813393854962
  0
ARC
  5
8C14
  8
0
 10
4460.8120477237425803
 20
236.3059705921365889
 30
0.0
 40
0.0202891283750659
 50
250.943381339385013
 51
353.5338767978739725
  0
ARC
  5
8C15
  8
0
 10
4460.812756833266576
 20
236.3035948694133026
 30
0.0
 40
0.019451164043982
 50
0.2676038460270811
 51
104.1573823181793017
  0
ARC
  5
8C16
  8
0
 10
4460.8139103876055742
 20
236.3172508922540942
 30
0.0
 40
0.0674338293342164
 50
46.3299543569155787
 51
192.0979282104075878
  0
ARC
  5
8C17
  8
0
 10
4460.8188634462940172
 20
236.322439400109289
 30
0.0
 40
0.0602607265094935
 50
344.9422077224622853
 51
46.3299543569155787
  0
ARC
  5
8C18
  8
0
 10
4460.4130586630089965
 20
236.3207685178996087
 30
0.0
 40
0.0652335778324958
 50
189.8280208762162999
 51
353.4257548677804266
  0
ARC
  5
8C19
  8
0
 10
4460.4132339418401898
 20
236.3145972025440074
 30
0.0
 40
0.0646423638709044
 50
358.8500456391686839
 51
184.4037301048205961
  0
ARC
  5
8C1A
  8
0
 10
4460.4122722905149203
 20
236.3107968096583136
 30
0.0
 40
0.018501567971953
 50
100.7933369658905036
 51
250.9433813393854962
  0
ARC
  5
8C1B
  8
0
 10
4460.4128559331693396
 20
236.3124864053042984
 30
0.0
 40
0.0202891283750659
 50
250.943381339385013
 51
353.5338767978739725
  0
ARC
  5
8C1C
  8
0
 10
4460.4135650426933353
 20
236.310110682581012
 30
0.0
 40
0.019451164043982
 50
0.2676038460270811
 51
104.1573823181793017
  0
ARC
  5
8C1D
  8
0
 10
4460.414718597031424
 20
236.3237667054218889
 30
0.0
 40
0.0674338293342164
 50
46.3299543569155787
 51
192.0979282104075878
  0
ARC
  5
8C1E
  8
0
 10
4460.419671655719867
 20
236.3289552132771121
 30
0.0
 40
0.0602607265094935
 50
344.9422077224622853
 51
46.3299543569155787
  0
ARC
  5
8C1F
  8
0
 10
4460.0502799839014187
 20
236.241639478784009
 30
0.0
 40
0.0652335778324958
 50
189.8280208762162999
 51
353.4257548677804266
  0
ARC
  5
8C20
  8
0
 10
4460.050455262732612
 20
236.2354681634284077
 30
0.0
 40
0.0646423638709044
 50
358.8500456391686839
 51
184.4037301048205961
  0
ARC
  5
8C21
  8
0
 10
4460.0494936114073425
 20
236.2316677705427139
 30
0.0
 40
0.018501567971953
 50
100.7933369658905036
 51
250.9433813393854962
  0
ARC
  5
8C22
  8
0
 10
4460.0500772540617618
 20
236.2333573661886987
 30
0.0
 40
0.0202891283750659
 50
250.943381339385013
 51
353.5338767978739725
  0
ARC
  5
8C23
  8
0
 10
4460.0507863635857575
 20
236.2309816434654124
 30
0.0
 40
0.019451164043982
 50
0.2676038460270811
 51
104.1573823181793017
  0
ARC
  5
8C24
  8
0
 10
4460.0519399179229367
 20
236.2446376663062892
 30
0.0
 40
0.0674338293342164
 50
46.3299543569155787
 51
192.0979282104075878
  0
ARC
  5
8C25
  8
0
 10
4460.0568929766122892
 20
236.2498261741615124
 30
0.0
 40
0.0602607265094935
 50
344.9422077224622853
 51
46.3299543569155787
  0
ARC
  5
8C26
  8
0
 10
4459.6771870019028938
 20
236.4241863756992075
 30
0.0
 40
0.0652335778324958
 50
189.8280208762162999
 51
353.4257548677804266
  0
ARC
  5
8C27
  8
0
 10
4459.6773622807331776
 20
236.4180150603436061
 30
0.0
 40
0.0646423638709044
 50
358.8500456391686839
 51
184.4037301048205961
  0
ARC
  5
8C28
  8
0
 10
4459.6764006294079081
 20
236.4142146674579124
 30
0.0
 40
0.018501567971953
 50
100.7933369658905036
 51
250.9433813393854962
  0
ARC
  5
8C29
  8
0
 10
4459.6769842720623274
 20
236.4159042631038972
 30
0.0
 40
0.0202891283750659
 50
250.943381339385013
 51
353.5338767978739725
  0
ARC
  5
8C2A
  8
0
 10
4459.6776933815863231
 20
236.4135285403806108
 30
0.0
 40
0.019451164043982
 50
0.2676038460270811
 51
104.1573823181793017
  0
ARC
  5
8C2B
  8
0
 10
4459.6788469359253213
 20
236.4271845632214877
 30
0.0
 40
0.0674338293342164
 50
46.3299543569155787
 51
192.0979282104075878
  0
ARC
  5
8C2C
  8
0
 10
4459.6837999946128548
 20
236.4323730710767109
 30
0.0
 40
0.0602607265094935
 50
344.9422077224622853
 51
46.3299543569155787
  0
ARC
  5
8C2D
  8
0
 10
4460.0010795982661875
 20
236.6085411329750059
 30
0.0
 40
0.0652335778324958
 50
189.8280208762162999
 51
353.4257548677804266
  0
ARC
  5
8C2E
  8
0
 10
4460.0012548770955618
 20
236.6023698176194046
 30
0.0
 40
0.0646423638709044
 50
358.8500456391686839
 51
184.4037301048205961
  0
ARC
  5
8C2F
  8
0
 10
4460.0002932257721113
 20
236.5985694247337108
 30
0.0
 40
0.018501567971953
 50
100.7933369658905036
 51
250.9433813393854962
  0
ARC
  5
8C30
  8
0
 10
4460.0008768684256211
 20
236.6002590203796956
 30
0.0
 40
0.0202891283750659
 50
250.943381339385013
 51
353.5338767978739725
  0
ARC
  5
8C31
  8
0
 10
4460.0015859779496168
 20
236.5978832976564092
 30
0.0
 40
0.019451164043982
 50
0.2676038460270811
 51
104.1573823181793017
  0
ARC
  5
8C32
  8
0
 10
4460.0027395322877055
 20
236.6115393204972861
 30
0.0
 40
0.0674338293342164
 50
46.3299543569155787
 51
192.0979282104075878
  0
ARC
  5
8C33
  8
0
 10
4460.0076925909761485
 20
236.6167278283525093
 30
0.0
 40
0.0602607265094935
 50
344.9422077224622853
 51
46.3299543569155787
  0
ARC
  5
8C34
  8
0
 10
4460.3885960515553961
 20
236.7209963680290059
 30
0.0
 40
0.0652335778324958
 50
189.8280208762162999
 51
353.4257548677804266
  0
ARC
  5
8C35
  8
0
 10
4460.3887713303865894
 20
236.7148250526732909
 30
0.0
 40
0.0646423638709044
 50
358.8500456391686839
 51
184.4037301048205961
  0
ARC
  5
8C36
  8
0
 10
4460.3878096790613199
 20
236.7110246597877108
 30
0.0
 40
0.018501567971953
 50
100.7933369658905036
 51
250.9433813393854962
  0
ARC
  5
8C37
  8
0
 10
4460.3883933217148297
 20
236.7127142554336103
 30
0.0
 40
0.0202891283750659
 50
250.943381339385013
 51
353.5338767978739725
  0
ARC
  5
8C38
  8
0
 10
4460.3891024312388254
 20
236.7103385327104093
 30
0.0
 40
0.019451164043982
 50
0.2676038460270811
 51
104.1573823181793017
  0
ARC
  5
8C39
  8
0
 10
4460.3902559855769141
 20
236.7239945555512008
 30
0.0
 40
0.0674338293342164
 50
46.3299543569155787
 51
192.0979282104075878
  0
ARC
  5
8C3A
  8
0
 10
4460.3952090442662666
 20
236.7291830634063956
 30
0.0
 40
0.0602607265094935
 50
344.9422077224622853
 51
46.3299543569155787
  0
ARC
  5
8C3B
  8
0
 10
4459.8542866925272392
 20
236.983655052368988
 30
0.0
 40
0.0652335778324958
 50
189.8280208762162999
 51
353.4257548677804266
  0
ARC
  5
8C3C
  8
0
 10
4459.8544619713584325
 20
236.9774837370133866
 30
0.0
 40
0.0646423638709044
 50
358.8500456391686839
 51
184.4037301048205961
  0
ARC
  5
8C3D
  8
0
 10
4459.853500320033163
 20
236.9736833441276076
 30
0.0
 40
0.018501567971953
 50
100.7933369658905036
 51
250.9433813393854962
  0
ARC
  5
8C3E
  8
0
 10
4459.8540839626875822
 20
236.9753729397737061
 30
0.0
 40
0.0202891283750659
 50
250.943381339385013
 51
353.5338767978739725
  0
ARC
  5
8C3F
  8
0
 10
4459.854793072211578
 20
236.9729972170503913
 30
0.0
 40
0.019451164043982
 50
0.2676038460270811
 51
104.1573823181793017
  0
ARC
  5
8C40
  8
0
 10
4459.8559466265487572
 20
236.9866532398912113
 30
0.0
 40
0.0674338293342164
 50
46.3299543569155787
 51
192.0979282104075878
  0
ARC
  5
8C41
  8
0
 10
4459.8608996852381097
 20
236.9918417477464061
 30
0.0
 40
0.0602607265094935
 50
344.9422077224622853
 51
46.3299543569155787
  0
ARC
  5
8C42
  8
0
 10
4459.5165215271026682
 20
236.7597779507503049
 30
0.0
 40
0.0652335778324958
 50
189.8280208762162999
 51
353.4257548677804266
  0
ARC
  5
8C43
  8
0
 10
4459.5166968059338615
 20
236.7536066353947035
 30
0.0
 40
0.0646423638709044
 50
358.8500456391686839
 51
184.4037301048205961
  0
ARC
  5
8C44
  8
0
 10
4459.515735154608592
 20
236.749806242508896
 30
0.0
 40
0.018501567971953
 50
100.7933369658905036
 51
250.9433813393854962
  0
ARC
  5
8C45
  8
0
 10
4459.5163187972630112
 20
236.7514958381549945
 30
0.0
 40
0.0202891283750659
 50
250.943381339385013
 51
353.5338767978739725
  0
ARC
  5
8C46
  8
0
 10
4459.5170279067870069
 20
236.7491201154317082
 30
0.0
 40
0.019451164043982
 50
0.2676038460270811
 51
104.1573823181793017
  0
ARC
  5
8C47
  8
0
 10
4459.5181814611260052
 20
236.7627761382724998
 30
0.0
 40
0.0674338293342164
 50
46.3299543569155787
 51
192.0979282104075878
  0
ARC
  5
8C48
  8
0
 10
4459.5231345198144481
 20
236.7679646461278082
 30
0.0
 40
0.0602607265094935
 50
344.9422077224622853
 51
46.3299543569155787
  0
ARC
  5
8C49
  8
0
 10
4459.0084492546748152
 20
233.6695233830685083
 30
0.0
 40
0.0652335778324958
 50
186.5742452093855093
 51
350.1719792009503749
  0
ARC
  5
8C4A
  8
0
 10
4459.0082739758527168
 20
233.6633520677125944
 30
0.0
 40
0.0646423638709044
 50
355.5962699723402238
 51
181.149954437994495
  0
ARC
  5
8C4B
  8
0
 10
4459.0092356271816243
 20
233.659551674828208
 30
0.0
 40
0.018501567971953
 50
289.0566187377968959
 51
79.2066631112943611
  0
ARC
  5
8C4C
  8
0
 10
4459.0086519845262956
 20
233.661241270473397
 30
0.0
 40
0.0202891283750659
 50
186.4661232792902865
 51
289.0566187377968959
  0
ARC
  5
8C4D
  8
0
 10
4459.0079428750059378
 20
233.6588655477492011
 30
0.0
 40
0.019451164043982
 50
75.8426177589944643
 51
179.7323962311359082
  0
ARC
  5
8C4E
  8
0
 10
4459.0067893206487497
 20
233.6725215705884864
 30
0.0
 40
0.0674338293342164
 50
347.9020718667513847
 51
133.6700457202441896
  0
ARC
  5
8C4F
  8
0
 10
4459.0018362619530308
 20
233.677710078437002
 30
0.0
 40
0.0602607265094935
 50
133.6700457202452981
 51
195.0577923547039916
  0
ARC
  5
8C50
  8
0
 10
4458.6718243438990612
 20
233.4813662103341869
 30
0.0
 40
0.0652335778324958
 50
186.5742452093855093
 51
350.1719792009503749
  0
ARC
  5
8C51
  8
0
 10
4458.6716490650769629
 20
233.4751948949783014
 30
0.0
 40
0.0646423638709044
 50
355.5962699723402238
 51
181.149954437994495
  0
ARC
  5
8C52
  8
0
 10
4458.6726107164067798
 20
233.4713945020938866
 30
0.0
 40
0.018501567971953
 50
289.0566187377968959
 51
79.2066631112943611
  0
ARC
  5
8C53
  8
0
 10
4458.6720270737514511
 20
233.4730840977391892
 30
0.0
 40
0.0202891283750659
 50
186.4661232792902865
 51
289.0566187377968959
  0
ARC
  5
8C54
  8
0
 10
4458.6713179642292744
 20
233.4707083750149081
 30
0.0
 40
0.019451164043982
 50
75.8426177589944643
 51
179.7323962311359082
  0
ARC
  5
8C55
  8
0
 10
4458.6701644098720863
 20
233.4843643978541934
 30
0.0
 40
0.0674338293342164
 50
347.9020718667513847
 51
133.6700457202441896
  0
ARC
  5
8C56
  8
0
 10
4458.6652113511772768
 20
233.4895529057027943
 30
0.0
 40
0.0602607265094935
 50
133.6700457202452981
 51
195.0577923547039916
  0
ARC
  5
8C57
  8
0
 10
4458.5237467573178947
 20
233.8210427919364065
 30
0.0
 40
0.0652335778324958
 50
186.5742452093855093
 51
350.1719792009503749
  0
ARC
  5
8C58
  8
0
 10
4458.5235714784957963
 20
233.8148714765804925
 30
0.0
 40
0.0646423638709044
 50
355.5962699723402238
 51
181.149954437994495
  0
ARC
  5
8C59
  8
0
 10
4458.5245331298274323
 20
233.8110710836961061
 30
0.0
 40
0.018501567971953
 50
289.0566187377968959
 51
79.2066631112943611
  0
ARC
  5
8C5A
  8
0
 10
4458.5239494871702846
 20
233.8127606793412951
 30
0.0
 40
0.0202891283750659
 50
186.4661232792902865
 51
289.0566187377968959
  0
ARC
  5
8C5B
  8
0
 10
4458.5232403776490173
 20
233.8103849566170993
 30
0.0
 40
0.019451164043982
 50
75.8426177589944643
 51
179.7323962311359082
  0
ARC
  5
8C5C
  8
0
 10
4458.5220868232918292
 20
233.824040979456413
 30
0.0
 40
0.0674338293342164
 50
347.9020718667513847
 51
133.6700457202441896
  0
ARC
  5
8C5D
  8
0
 10
4458.5171337645979293
 20
233.8292294873049002
 30
0.0
 40
0.0602607265094935
 50
133.6700457202452981
 51
195.0577923547039916
  0
ARC
  5
8C5E
  8
0
 10
4458.8487555897772836
 20
233.9754358701692922
 30
0.0
 40
0.0652335778324958
 50
186.5742452093855093
 51
350.1719792009503749
  0
ARC
  5
8C5F
  8
0
 10
4458.8485803109542758
 20
233.9692645548134919
 30
0.0
 40
0.0646423638709044
 50
355.5962699723402238
 51
181.149954437994495
  0
ARC
  5
8C60
  8
0
 10
4458.8495419622840927
 20
233.9654641619289919
 30
0.0
 40
0.018501567971953
 50
289.0566187377968959
 51
79.2066631112943611
  0
ARC
  5
8C61
  8
0
 10
4458.848958319626945
 20
233.9671537575742946
 30
0.0
 40
0.0202891283750659
 50
186.4661232792902865
 51
289.0566187377968959
  0
ARC
  5
8C62
  8
0
 10
4458.8482492101056778
 20
233.9647780348500135
 30
0.0
 40
0.019451164043982
 50
75.8426177589944643
 51
179.7323962311359082
  0
ARC
  5
8C63
  8
0
 10
4458.8470956557503087
 20
233.9784340576892987
 30
0.0
 40
0.0674338293342164
 50
347.9020718667513847
 51
133.6700457202441896
  0
ARC
  5
8C64
  8
0
 10
4458.8421425970545897
 20
233.9836225655377859
 30
0.0
 40
0.0602607265094935
 50
133.6700457202452981
 51
195.0577923547039916
  0
ARC
  5
8C65
  8
0
 10
4458.4754266769878086
 20
234.158245822014095
 30
0.0
 40
0.0652335778324958
 50
186.5742452093855093
 51
350.1719792009503749
  0
ARC
  5
8C66
  8
0
 10
4458.4752513981666198
 20
234.1520745066582094
 30
0.0
 40
0.0646423638709044
 50
355.5962699723402238
 51
181.149954437994495
  0
ARC
  5
8C67
  8
0
 10
4458.4762130494964367
 20
234.1482741137737946
 30
0.0
 40
0.018501567971953
 50
289.0566187377968959
 51
79.2066631112943611
  0
ARC
  5
8C68
  8
0
 10
4458.4756294068401985
 20
234.149963709419012
 30
0.0
 40
0.0202891283750659
 50
186.4661232792902865
 51
289.0566187377968959
  0
ARC
  5
8C69
  8
0
 10
4458.4749202973189313
 20
234.1475879866947878
 30
0.0
 40
0.019451164043982
 50
75.8426177589944643
 51
179.7323962311359082
  0
ARC
  5
8C6A
  8
0
 10
4458.4737667429626526
 20
234.1612440095341015
 30
0.0
 40
0.0674338293342164
 50
347.9020718667513847
 51
133.6700457202441896
  0
ARC
  5
8C6B
  8
0
 10
4458.4688136842678432
 20
234.1664325173825887
 30
0.0
 40
0.0602607265094935
 50
133.6700457202452981
 51
195.0577923547039916
  0
ARC
  5
8C6C
  8
0
 10
4458.1122274611607281
 20
234.1082894981769869
 30
0.0
 40
0.0652335778324958
 50
186.5742452093855093
 51
350.1719792009503749
  0
ARC
  5
8C6D
  8
0
 10
4458.1120521823386298
 20
234.1021181828211013
 30
0.0
 40
0.0646423638709044
 50
355.5962699723402238
 51
181.149954437994495
  0
ARC
  5
8C6E
  8
0
 10
4458.1130138336702657
 20
234.0983177899366865
 30
0.0
 40
0.018501567971953
 50
289.0566187377968959
 51
79.2066631112943611
  0
ARC
  5
8C6F
  8
0
 10
4458.112430191013118
 20
234.1000073855819039
 30
0.0
 40
0.0202891283750659
 50
186.4661232792902865
 51
289.0566187377968959
  0
ARC
  5
8C70
  8
0
 10
4458.1117210814918508
 20
234.0976316628577081
 30
0.0
 40
0.019451164043982
 50
75.8426177589944643
 51
179.7323962311359082
  0
ARC
  5
8C71
  8
0
 10
4458.1105675271346627
 20
234.1112876856969933
 30
0.0
 40
0.0674338293342164
 50
347.9020718667513847
 51
133.6700457202441896
  0
ARC
  5
8C72
  8
0
 10
4458.1056144684407627
 20
234.1164761935455942
 30
0.0
 40
0.0602607265094935
 50
133.6700457202452981
 51
195.0577923547039916
  0
ARC
  5
8C73
  8
0
 10
4458.1373121450960753
 20
233.7430884361081951
 30
0.0
 40
0.0652335778324958
 50
186.5742452093855093
 51
350.1719792009503749
  0
ARC
  5
8C74
  8
0
 10
4458.1371368662721579
 20
233.7369171207523095
 30
0.0
 40
0.0646423638709044
 50
355.5962699723402238
 51
181.149954437994495
  0
ARC
  5
8C75
  8
0
 10
4458.1380985176028844
 20
233.7331167278678947
 30
0.0
 40
0.018501567971953
 50
289.0566187377968959
 51
79.2066631112943611
  0
ARC
  5
8C76
  8
0
 10
4458.1375148749457367
 20
233.7348063235131121
 30
0.0
 40
0.0202891283750659
 50
186.4661232792902865
 51
289.0566187377968959
  0
ARC
  5
8C77
  8
0
 10
4458.1368057654253789
 20
233.7324306007888879
 30
0.0
 40
0.019451164043982
 50
75.8426177589944643
 51
179.7323962311359082
  0
ARC
  5
8C78
  8
0
 10
4458.1356522110681908
 20
233.7460866236282016
 30
0.0
 40
0.0674338293342164
 50
347.9020718667513847
 51
133.6700457202441896
  0
ARC
  5
8C79
  8
0
 10
4458.1306991523742909
 20
233.7512751314766888
 30
0.0
 40
0.0602607265094935
 50
133.6700457202452981
 51
195.0577923547039916
  0
ARC
  5
8C7A
  8
0
 10
4457.7135346716886488
 20
234.1502215667348992
 30
0.0
 40
0.0652335778324958
 50
186.5742452093855093
 51
350.1719792009503749
  0
ARC
  5
8C7B
  8
0
 10
4457.7133593928683695
 20
234.1440502513790989
 30
0.0
 40
0.0646423638709044
 50
355.5962699723402238
 51
181.149954437994495
  0
ARC
  5
8C7C
  8
0
 10
4457.7143210441972769
 20
234.1402498584947125
 30
0.0
 40
0.018501567971953
 50
289.0566187377968959
 51
79.2066631112943611
  0
ARC
  5
8C7D
  8
0
 10
4457.7137374015410387
 20
234.1419394541399015
 30
0.0
 40
0.0202891283750659
 50
186.4661232792902865
 51
289.0566187377968959
  0
ARC
  5
8C7E
  8
0
 10
4457.7130282920197715
 20
234.1395637314157057
 30
0.0
 40
0.019451164043982
 50
75.8426177589944643
 51
179.7323962311359082
  0
ARC
  5
8C7F
  8
0
 10
4457.7118747376644023
 20
234.1532197542549909
 30
0.0
 40
0.0674338293342164
 50
347.9020718667513847
 51
133.6700457202441896
  0
ARC
  5
8C80
  8
0
 10
4457.7069216789677739
 20
234.1584082621035066
 30
0.0
 40
0.0602607265094935
 50
133.6700457202452981
 51
195.0577923547039916
  0
ARC
  5
8C81
  8
0
 10
4458.1789710825541988
 20
234.4426215067790906
 30
0.0
 40
0.0652335778324958
 50
186.5742452093855093
 51
350.1719792009503749
  0
ARC
  5
8C82
  8
0
 10
4458.1787958037321005
 20
234.4364501914232051
 30
0.0
 40
0.0646423638709044
 50
355.5962699723402238
 51
181.149954437994495
  0
ARC
  5
8C83
  8
0
 10
4458.1797574550619174
 20
234.432649798538904
 30
0.0
 40
0.018501567971953
 50
289.0566187377968959
 51
79.2066631112943611
  0
ARC
  5
8C84
  8
0
 10
4458.1791738124056792
 20
234.434339394184093
 30
0.0
 40
0.0202891283750659
 50
186.4661232792902865
 51
289.0566187377968959
  0
ARC
  5
8C85
  8
0
 10
4458.1784647028853215
 20
234.4319636714598118
 30
0.0
 40
0.019451164043982
 50
75.8426177589944643
 51
179.7323962311359082
  0
ARC
  5
8C86
  8
0
 10
4458.1773111485281333
 20
234.4456196942990971
 30
0.0
 40
0.0674338293342164
 50
347.9020718667513847
 51
133.6700457202441896
  0
ARC
  5
8C87
  8
0
 10
4458.1723580898333239
 20
234.4508082021476127
 30
0.0
 40
0.0602607265094935
 50
133.6700457202452981
 51
195.0577923547039916
  0
ARC
  5
8C88
  8
0
 10
4457.8131903350040375
 20
234.5042954956047083
 30
0.0
 40
0.0652335778324958
 50
186.5742452093855093
 51
350.1719792009503749
  0
ARC
  5
8C89
  8
0
 10
4457.8130150561810296
 20
234.4981241802487943
 30
0.0
 40
0.0646423638709044
 50
355.5962699723402238
 51
181.149954437994495
  0
ARC
  5
8C8A
  8
0
 10
4457.8139767075117561
 20
234.4943237873644932
 30
0.0
 40
0.018501567971953
 50
289.0566187377968959
 51
79.2066631112943611
  0
ARC
  5
8C8B
  8
0
 10
4457.8133930648564274
 20
234.4960133830097107
 30
0.0
 40
0.0202891283750659
 50
186.4661232792902865
 51
289.0566187377968959
  0
ARC
  5
8C8C
  8
0
 10
4457.8126839553342506
 20
234.4936376602854011
 30
0.0
 40
0.019451164043982
 50
75.8426177589944643
 51
179.7323962311359082
  0
ARC
  5
8C8D
  8
0
 10
4457.8115304009770625
 20
234.5072936831246864
 30
0.0
 40
0.0674338293342164
 50
347.9020718667513847
 51
133.6700457202441896
  0
ARC
  5
8C8E
  8
0
 10
4457.8065773422831626
 20
234.512482190973202
 30
0.0
 40
0.0602607265094935
 50
133.6700457202452981
 51
195.0577923547039916
  0
ARC
  5
8C8F
  8
0
 10
4457.9885630422559188
 20
234.8016780920825113
 30
0.0
 40
0.0652335778324958
 50
186.5742452093855093
 51
350.1719792009503749
  0
ARC
  5
8C90
  8
0
 10
4457.9883877634338205
 20
234.7955067767265973
 30
0.0
 40
0.0646423638709044
 50
355.5962699723402238
 51
181.149954437994495
  0
ARC
  5
8C91
  8
0
 10
4457.989349414764547
 20
234.7917063838422109
 30
0.0
 40
0.018501567971953
 50
289.0566187377968959
 51
79.2066631112943611
  0
ARC
  5
8C92
  8
0
 10
4457.9887657721073992
 20
234.7933959794873999
 30
0.0
 40
0.0202891283750659
 50
186.4661232792902865
 51
289.0566187377968959
  0
ARC
  5
8C93
  8
0
 10
4457.9880566625870415
 20
234.7910202567632041
 30
0.0
 40
0.019451164043982
 50
75.8426177589944643
 51
179.7323962311359082
  0
ARC
  5
8C94
  8
0
 10
4457.9869031082298534
 20
234.8046762796024893
 30
0.0
 40
0.0674338293342164
 50
347.9020718667513847
 51
133.6700457202441896
  0
ARC
  5
8C95
  8
0
 10
4457.9819500495350439
 20
234.809864787451005
 30
0.0
 40
0.0602607265094935
 50
133.6700457202452981
 51
195.0577923547039916
  0
ARC
  5
8C96
  8
0
 10
4457.4415430319686493
 20
234.6631455240271862
 30
0.0
 40
0.0652335778324958
 50
186.5742452093855093
 51
350.1719792009503749
  0
ARC
  5
8C97
  8
0
 10
4457.441367753146551
 20
234.6569742086713006
 30
0.0
 40
0.0646423638709044
 50
355.5962699723402238
 51
181.149954437994495
  0
ARC
  5
8C98
  8
0
 10
4457.4423294044763679
 20
234.6531738157868858
 30
0.0
 40
0.018501567971953
 50
289.0566187377968959
 51
79.2066631112943611
  0
ARC
  5
8C99
  8
0
 10
4457.4417457618201297
 20
234.6548634114321032
 30
0.0
 40
0.0202891283750659
 50
186.4661232792902865
 51
289.0566187377968959
  0
ARC
  5
8C9A
  8
0
 10
4457.4410366522988625
 20
234.6524876887079074
 30
0.0
 40
0.019451164043982
 50
75.8426177589944643
 51
179.7323962311359082
  0
ARC
  5
8C9B
  8
0
 10
4457.4398830979425838
 20
234.6661437115471074
 30
0.0
 40
0.0674338293342164
 50
347.9020718667513847
 51
133.6700457202452981
  0
ARC
  5
8C9C
  8
0
 10
4457.4349300392468649
 20
234.6713322193957083
 30
0.0
 40
0.0602607265094935
 50
133.6700457202452981
 51
195.0577923547039916
  0
ARC
  5
8C9D
  8
0
 10
4457.6550486177266066
 20
234.9696384280806001
 30
0.0
 40
0.0652335778324958
 50
186.5742452093855093
 51
350.1719792009503749
  0
ARC
  5
8C9E
  8
0
 10
4457.6548733389035988
 20
234.9634671127246861
 30
0.0
 40
0.0646423638709044
 50
355.5962699723402238
 51
181.149954437994495
  0
ARC
  5
8C9F
  8
0
 10
4457.6558349902343252
 20
234.9596667198404134
 30
0.0
 40
0.018501567971953
 50
289.0566187377968959
 51
79.2066631112943611
  0
ARC
  5
8CA0
  8
0
 10
4457.655251347578087
 20
234.9613563154854887
 30
0.0
 40
0.0202891283750659
 50
186.4661232792902865
 51
289.0566187377968959
  0
ARC
  5
8CA1
  8
0
 10
4457.6545422380559103
 20
234.9589805927612929
 30
0.0
 40
0.019451164043982
 50
75.8426177589944643
 51
179.7323962311359082
  0
ARC
  5
8CA2
  8
0
 10
4457.6533886836996317
 20
234.9726366156006065
 30
0.0
 40
0.0674338293342164
 50
347.9020718667513847
 51
133.6700457202452981
  0
ARC
  5
8CA3
  8
0
 10
4457.6484356250057317
 20
234.9778251234492075
 30
0.0
 40
0.0602607265094935
 50
133.6700457202452981
 51
195.0577923547039916
  0
ARC
  5
8CA4
  8
0
 10
4457.9231371913811017
 20
235.1994530540414985
 30
0.0
 40
0.0652335778324958
 50
186.5742452093855093
 51
350.1719792009503749
  0
ARC
  5
8CA5
  8
0
 10
4457.9229619125590034
 20
235.1932817386856129
 30
0.0
 40
0.0646423638709044
 50
355.5962699723402238
 51
181.149954437994495
  0
ARC
  5
8CA6
  8
0
 10
4457.9239235638879109
 20
235.1894813458011981
 30
0.0
 40
0.018501567971953
 50
289.0566187377968959
 51
79.2066631112943611
  0
ARC
  5
8CA7
  8
0
 10
4457.9233399212316726
 20
235.1911709414463871
 30
0.0
 40
0.0202891283750659
 50
186.4661232792902865
 51
289.0566187377968959
  0
ARC
  5
8CA8
  8
0
 10
4457.9226308117113149
 20
235.1887952187221913
 30
0.0
 40
0.019451164043982
 50
75.8426177589944643
 51
179.7323962311359082
  0
ARC
  5
8CA9
  8
0
 10
4457.9214772573550363
 20
235.2024512415613913
 30
0.0
 40
0.0674338293342164
 50
347.9020718667513847
 51
133.6700457202452981
  0
ARC
  5
8CAA
  8
0
 10
4457.9165241986602268
 20
235.2076397494099922
 30
0.0
 40
0.0602607265094935
 50
133.6700457202452981
 51
195.0577923547039916
  0
ARC
  5
8CAB
  8
0
 10
4457.3482026744795803
 20
235.2323287022038869
 30
0.0
 40
0.0652335778324958
 50
186.5742452093855093
 51
350.1719792009503749
  0
ARC
  5
8CAC
  8
0
 10
4457.3480273956583915
 20
235.2261573868480866
 30
0.0
 40
0.0646423638709044
 50
355.5962699723402238
 51
181.149954437994495
  0
ARC
  5
8CAD
  8
0
 10
4457.3489890469872989
 20
235.2223569939635865
 30
0.0
 40
0.018501567971953
 50
289.0566187377968959
 51
79.2066631112943611
  0
ARC
  5
8CAE
  8
0
 10
4457.3484054043310607
 20
235.224046589608804
 30
0.0
 40
0.0202891283750659
 50
186.4661232792902865
 51
289.0566187377968959
  0
ARC
  5
8CAF
  8
0
 10
4457.3476962948097935
 20
235.2216708668846934
 30
0.0
 40
0.019451164043982
 50
75.8426177589944643
 51
179.7323962311359082
  0
ARC
  5
8CB0
  8
0
 10
4457.3465427404544243
 20
235.2353268897238934
 30
0.0
 40
0.0674338293342164
 50
347.9020718667513847
 51
133.6700457202452981
  0
ARC
  5
8CB1
  8
0
 10
4457.3415896817587054
 20
235.2405153975724943
 30
0.0
 40
0.0602607265094935
 50
133.6700457202452981
 51
195.0577923547039916
  0
ARC
  5
8CB2
  8
0
 10
4457.6549142602680149
 20
235.4582364941676076
 30
0.0
 40
0.0652335778324958
 50
186.5742452093855093
 51
350.1719792009503749
  0
ARC
  5
8CB3
  8
0
 10
4457.6547389814450071
 20
235.4520651788118073
 30
0.0
 40
0.0646423638709044
 50
355.5962699723402238
 51
181.149954437994495
  0
ARC
  5
8CB4
  8
0
 10
4457.6557006327757335
 20
235.4482647859273072
 30
0.0
 40
0.018501567971953
 50
289.0566187377968959
 51
79.2066631112943611
  0
ARC
  5
8CB5
  8
0
 10
4457.6551169901185858
 20
235.4499543815724962
 30
0.0
 40
0.0202891283750659
 50
186.4661232792902865
 51
289.0566187377968959
  0
ARC
  5
8CB6
  8
0
 10
4457.6544078805982281
 20
235.4475786588483004
 30
0.0
 40
0.019451164043982
 50
75.8426177589944643
 51
179.7323962311359082
  0
ARC
  5
8CB7
  8
0
 10
4457.6532543262419495
 20
235.4612346816876141
 30
0.0
 40
0.0674338293342164
 50
347.9020718667513847
 51
133.6700457202452981
  0
ARC
  5
8CB8
  8
0
 10
4457.648301267545321
 20
235.4664231895361866
 30
0.0
 40
0.0602607265094935
 50
133.6700457202452981
 51
195.0577923547039916
  0
ARC
  5
8CB9
  8
0
 10
4457.9891004683868232
 20
235.5978444795431983
 30
0.0
 40
0.0652335778324958
 50
186.5742452093855093
 51
350.1719792009503749
  0
ARC
  5
8CBA
  8
0
 10
4457.9889251895656344
 20
235.591673164187398
 30
0.0
 40
0.0646423638709044
 50
355.5962699723402238
 51
181.149954437994495
  0
ARC
  5
8CBB
  8
0
 10
4457.9898868408954513
 20
235.5878727713030116
 30
0.0
 40
0.018501567971953
 50
289.0566187377968959
 51
79.2066631112943611
  0
ARC
  5
8CBC
  8
0
 10
4457.9893031982392131
 20
235.5895623669482006
 30
0.0
 40
0.0202891283750659
 50
186.4661232792902865
 51
289.0566187377968959
  0
ARC
  5
8CBD
  8
0
 10
4457.9885940887179459
 20
235.5871866442238911
 30
0.0
 40
0.019451164043982
 50
75.8426177589944643
 51
179.7323962311359082
  0
ARC
  5
8CBE
  8
0
 10
4457.9874405343616672
 20
235.60084266706329
 30
0.0
 40
0.0674338293342164
 50
347.9020718667513847
 51
133.6700457202452981
  0
ARC
  5
8CBF
  8
0
 10
4457.9824874756668578
 20
235.6060311749118057
 30
0.0
 40
0.0602607265094935
 50
133.6700457202452981
 51
195.0577923547039916
  0
ARC
  5
8CC0
  8
0
 10
4457.4417050647380165
 20
235.801173058752795
 30
0.0
 40
0.0652335778324958
 50
186.5742452093855093
 51
350.1719792009503749
  0
ARC
  5
8CC1
  8
0
 10
4457.4415297859159182
 20
235.7950017433969094
 30
0.0
 40
0.0646423638709044
 50
355.5962699723402238
 51
181.149954437994495
  0
ARC
  5
8CC2
  8
0
 10
4457.4424914372448256
 20
235.7912013505124946
 30
0.0
 40
0.018501567971953
 50
289.0566187377968959
 51
79.2066631112943611
  0
ARC
  5
8CC3
  8
0
 10
4457.4419077945885874
 20
235.7928909461577121
 30
0.0
 40
0.0202891283750659
 50
186.4661232792902865
 51
289.0566187377968959
  0
ARC
  5
8CC4
  8
0
 10
4457.4411986850682297
 20
235.7905152234334878
 30
0.0
 40
0.019451164043982
 50
75.8426177589944643
 51
179.7323962311359082
  0
ARC
  5
8CC5
  8
0
 10
4457.4400451307119511
 20
235.8041712462728015
 30
0.0
 40
0.0674338293342164
 50
347.9020718667513847
 51
133.6700457202452981
  0
ARC
  5
8CC6
  8
0
 10
4457.4350920720162321
 20
235.8093597541212887
 30
0.0
 40
0.0602607265094935
 50
133.6700457202452981
 51
195.0577923547039916
  0
ARC
  5
8CC7
  8
0
 10
4457.8121286456516827
 20
235.9243901685701132
 30
0.0
 40
0.0652335778324958
 50
186.5742452093855093
 51
350.1719792009503749
  0
ARC
  5
8CC8
  8
0
 10
4457.8119533668277654
 20
235.918218853214313
 30
0.0
 40
0.0646423638709044
 50
355.5962699723402238
 51
181.149954437994495
  0
ARC
  5
8CC9
  8
0
 10
4457.8129150181575824
 20
235.9144184603298129
 30
0.0
 40
0.018501567971953
 50
289.0566187377968959
 51
79.2066631112943611
  0
ARC
  5
8CCA
  8
0
 10
4457.8123313755022536
 20
235.9161080559750872
 30
0.0
 40
0.0202891283750659
 50
186.4661232792902865
 51
289.0566187377968959
  0
ARC
  5
8CCB
  8
0
 10
4457.8116222659809864
 20
235.9137323332508913
 30
0.0
 40
0.019451164043982
 50
75.8426177589944643
 51
179.7323962311359082
  0
ARC
  5
8CCC
  8
0
 10
4457.8104687116237983
 20
235.927388356090205
 30
0.0
 40
0.0674338293342164
 50
347.9020718667513847
 51
133.6700457202452981
  0
ARC
  5
8CCD
  8
0
 10
4457.8055156529298984
 20
235.9325768639386922
 30
0.0
 40
0.0602607265094935
 50
133.6700457202452981
 51
195.0577923547039916
  0
ARC
  5
8CCE
  8
0
 10
4458.1791551493333827
 20
235.9564207384972008
 30
0.0
 40
0.0652335778324958
 50
186.5742452093855093
 51
350.1719792009503749
  0
ARC
  5
8CCF
  8
0
 10
4458.1789798705103749
 20
235.9502494231412868
 30
0.0
 40
0.0646423638709044
 50
355.5962699723402238
 51
181.149954437994495
  0
ARC
  5
8CD0
  8
0
 10
4458.1799415218401919
 20
235.9464490302569004
 30
0.0
 40
0.018501567971953
 50
289.0566187377968959
 51
79.2066631112943611
  0
ARC
  5
8CD1
  8
0
 10
4458.1793578791839536
 20
235.9481386259020894
 30
0.0
 40
0.0202891283750659
 50
186.4661232792902865
 51
289.0566187377968959
  0
ARC
  5
8CD2
  8
0
 10
4458.1786487696626864
 20
235.9457629031778936
 30
0.0
 40
0.019451164043982
 50
75.8426177589944643
 51
179.7323962311359082
  0
ARC
  5
8CD3
  8
0
 10
4458.1774952153073173
 20
235.9594189260172072
 30
0.0
 40
0.0674338293342164
 50
347.9020718667513847
 51
133.6700457202452981
  0
ARC
  5
8CD4
  8
0
 10
4458.1725421566115983
 20
235.9646074338656945
 30
0.0
 40
0.0602607265094935
 50
133.6700457202452981
 51
195.0577923547039916
  0
ARC
  5
8CD5
  8
0
 10
4457.7132678361676881
 20
236.3142527026450921
 30
0.0
 40
0.0652335778324958
 50
186.5742452093855093
 51
350.1719792009503749
  0
ARC
  5
8CD6
  8
0
 10
4457.7130925573455897
 20
236.3080813872892918
 30
0.0
 40
0.0646423638709044
 50
355.5962699723402238
 51
181.149954437994495
  0
ARC
  5
8CD7
  8
0
 10
4457.7140542086763162
 20
236.3042809944047917
 30
0.0
 40
0.018501567971953
 50
289.0566187377968959
 51
79.2066631112943611
  0
ARC
  5
8CD8
  8
0
 10
4457.7134705660191685
 20
236.3059705900500092
 30
0.0
 40
0.0202891283750659
 50
186.4661232792902865
 51
289.0566187377968959
  0
ARC
  5
8CD9
  8
0
 10
4457.7127614564979012
 20
236.3035948673258986
 30
0.0
 40
0.019451164043982
 50
75.8426177589944643
 51
179.7323962311359082
  0
ARC
  5
8CDA
  8
0
 10
4457.7116079021434416
 20
236.3172508901650986
 30
0.0
 40
0.0674338293342164
 50
347.9020718667513847
 51
133.6700457202452981
  0
ARC
  5
8CDB
  8
0
 10
4457.7066548434468132
 20
236.3224393980136995
 30
0.0
 40
0.0602607265094935
 50
133.6700457202452981
 51
195.0577923547039916
  0
ARC
  5
8CDC
  8
0
 10
4458.1124596267336528
 20
236.3207685163505118
 30
0.0
 40
0.0652335778324958
 50
186.5742452093855093
 51
350.1719792009503749
  0
ARC
  5
8CDD
  8
0
 10
4458.112284347910645
 20
236.3145972009945979
 30
0.0
 40
0.0646423638709044
 50
355.5962699723402238
 51
181.149954437994495
  0
ARC
  5
8CDE
  8
0
 10
4458.113245999242281
 20
236.3107968081102115
 30
0.0
 40
0.018501567971953
 50
289.0566187377968959
 51
79.2066631112943611
  0
ARC
  5
8CDF
  8
0
 10
4458.1126623565851332
 20
236.3124864037554005
 30
0.0
 40
0.0202891283750659
 50
186.4661232792902865
 51
289.0566187377968959
  0
ARC
  5
8CE0
  8
0
 10
4458.111953247063866
 20
236.3101106810312046
 30
0.0
 40
0.019451164043982
 50
75.8426177589944643
 51
179.7323962311359082
  0
ARC
  5
8CE1
  8
0
 10
4458.1107996927075874
 20
236.3237667038704046
 30
0.0
 40
0.0674338293342164
 50
347.9020718667513847
 51
133.6700457202452981
  0
ARC
  5
8CE2
  8
0
 10
4458.1058466340127779
 20
236.3289552117190055
 30
0.0
 40
0.0602607265094935
 50
133.6700457202452981
 51
195.0577923547039916
  0
ARC
  5
8CE3
  8
0
 10
4458.475238305948551
 20
236.2416394777233961
 30
0.0
 40
0.0652335778324958
 50
186.5742452093855093
 51
350.1719792009503749
  0
ARC
  5
8CE4
  8
0
 10
4458.4750630271264527
 20
236.2354681623675958
 30
0.0
 40
0.0646423638709044
 50
355.5962699723402238
 51
181.149954437994495
  0
ARC
  5
8CE5
  8
0
 10
4458.4760246784562696
 20
236.2316677694832094
 30
0.0
 40
0.018501567971953
 50
289.0566187377968959
 51
79.2066631112943611
  0
ARC
  5
8CE6
  8
0
 10
4458.4754410357991219
 20
236.2333573651283984
 30
0.0
 40
0.0202891283750659
 50
186.4661232792902865
 51
289.0566187377968959
  0
ARC
  5
8CE7
  8
0
 10
4458.4747319262787641
 20
236.2309816424042026
 30
0.0
 40
0.019451164043982
 50
75.8426177589944643
 51
179.7323962311359082
  0
ARC
  5
8CE8
  8
0
 10
4458.473578371921576
 20
236.2446376652434878
 30
0.0
 40
0.0674338293342164
 50
347.9020718667513847
 51
133.6700457202452981
  0
ARC
  5
8CE9
  8
0
 10
4458.4686253132258571
 20
236.2498261730920035
 30
0.0
 40
0.0602607265094935
 50
133.6700457202452981
 51
195.0577923547039916
  0
ARC
  5
8CEA
  8
0
 10
4458.8483312877006028
 20
236.4241863751410904
 30
0.0
 40
0.0652335778324958
 50
186.5742452093855093
 51
350.1719792009503749
  0
ARC
  5
8CEB
  8
0
 10
4458.848156008879414
 20
236.4180150597852901
 30
0.0
 40
0.0646423638709044
 50
355.5962699723402238
 51
181.149954437994495
  0
ARC
  5
8CEC
  8
0
 10
4458.849117660209231
 20
236.41421466690079
 30
0.0
 40
0.018501567971953
 50
289.0566187377968959
 51
79.2066631112943611
  0
ARC
  5
8CED
  8
0
 10
4458.8485340175529927
 20
236.4159042625460074
 30
0.0
 40
0.0202891283750659
 50
186.4661232792902865
 51
289.0566187377968959
  0
ARC
  5
8CEE
  8
0
 10
4458.8478249080317255
 20
236.4135285398218116
 30
0.0
 40
0.019451164043982
 50
75.8426177589944643
 51
179.7323962311359082
  0
ARC
  5
8CEF
  8
0
 10
4458.8466713536754469
 20
236.4271845626610968
 30
0.0
 40
0.0674338293342164
 50
347.9020718667513847
 51
133.6700457202452981
  0
ARC
  5
8CF0
  8
0
 10
4458.8417182949797279
 20
236.4323730705096978
 30
0.0
 40
0.0602607265094935
 50
133.6700457202452981
 51
195.0577923547039916
  0
ARC
  5
8CF1
  8
0
 10
4458.5244386910899266
 20
236.6085411319807008
 30
0.0
 40
0.0652335778324958
 50
186.5742452093855093
 51
350.1719792009503749
  0
ARC
  5
8CF2
  8
0
 10
4458.5242634122669187
 20
236.6023698166249005
 30
0.0
 40
0.0646423638709044
 50
355.5962699723402238
 51
181.149954437994495
  0
ARC
  5
8CF3
  8
0
 10
4458.5252250635967357
 20
236.5985694237404005
 30
0.0
 40
0.018501567971953
 50
289.0566187377968959
 51
79.2066631112943611
  0
ARC
  5
8CF4
  8
0
 10
4458.524641420939588
 20
236.6002590193855895
 30
0.0
 40
0.0202891283750659
 50
186.4661232792902865
 51
289.0566187377968959
  0
ARC
  5
8CF5
  8
0
 10
4458.5239323114201397
 20
236.5978832966613936
 30
0.0
 40
0.019451164043982
 50
75.8426177589944643
 51
179.7323962311359082
  0
ARC
  5
8CF6
  8
0
 10
4458.5227787570629516
 20
236.6115393195007073
 30
0.0
 40
0.0674338293342164
 50
347.9020718667513847
 51
133.6700457202452981
  0
ARC
  5
8CF7
  8
0
 10
4458.5178256983672327
 20
236.6167278273493082
 30
0.0
 40
0.0602607265094935
 50
133.6700457202452981
 51
195.0577923547039916
  0
ARC
  5
8CF8
  8
0
 10
4458.1369222376479229
 20
236.720996366512793
 30
0.0
 40
0.0652335778324958
 50
186.5742452093855093
 51
350.1719792009503749
  0
ARC
  5
8CF9
  8
0
 10
4458.1367469588258245
 20
236.7148250511569074
 30
0.0
 40
0.0646423638709044
 50
355.5962699723402238
 51
181.149954437994495
  0
ARC
  5
8CFA
  8
0
 10
4458.137708610156551
 20
236.7110246582724926
 30
0.0
 40
0.018501567971953
 50
289.0566187377968959
 51
79.2066631112943611
  0
ARC
  5
8CFB
  8
0
 10
4458.1371249675003128
 20
236.71271425391771
 30
0.0
 40
0.0202891283750659
 50
186.4661232792902865
 51
289.0566187377968959
  0
ARC
  5
8CFC
  8
0
 10
4458.136415857978136
 20
236.7103385311934005
 30
0.0
 40
0.019451164043982
 50
75.8426177589944643
 51
179.7323962311359082
  0
ARC
  5
8CFD
  8
0
 10
4458.1352623036227669
 20
236.7239945540327994
 30
0.0
 40
0.0674338293342164
 50
347.9020718667513847
 51
133.6700457202452981
  0
ARC
  5
8CFE
  8
0
 10
4458.130309244927048
 20
236.7291830618812867
 30
0.0
 40
0.0602607265094935
 50
133.6700457202452981
 51
195.0577923547039916
  0
ARC
  5
8CFF
  8
0
 10
4458.6712315963231958
 20
236.983655051572299
 30
0.0
 40
0.0652335778324958
 50
186.5742452093855093
 51
350.1719792009503749
  0
ARC
  5
8D00
  8
0
 10
4458.6710563175010975
 20
236.9774837362164135
 30
0.0
 40
0.0646423638709044
 50
355.5962699723402238
 51
181.149954437994495
  0
ARC
  5
8D01
  8
0
 10
4458.672017968830005
 20
236.9736833433321124
 30
0.0
 40
0.018501567971953
 50
289.0566187377968959
 51
79.2066631112943611
  0
ARC
  5
8D02
  8
0
 10
4458.6714343261737667
 20
236.9753729389773014
 30
0.0
 40
0.0202891283750659
 50
186.4661232792902865
 51
289.0566187377968959
  0
ARC
  5
8D03
  8
0
 10
4458.670725216653409
 20
236.9729972162529918
 30
0.0
 40
0.019451164043982
 50
75.8426177589944643
 51
179.7323962311359082
  0
ARC
  5
8D04
  8
0
 10
4458.6695716622971304
 20
236.9866532390923908
 30
0.0
 40
0.0674338293342164
 50
347.9020718667513847
 51
133.6700457202452981
  0
ARC
  5
8D05
  8
0
 10
4458.6646186036023209
 20
236.9918417469409064
 30
0.0
 40
0.0602607265094935
 50
133.6700457202452981
 51
195.0577923547039916
  0
ARC
  5
8D06
  8
0
 10
4459.0089967620479001
 20
236.7597779504085054
 30
0.0
 40
0.0652335778324958
 50
186.5742452093855093
 51
350.1719792009503749
  0
ARC
  5
8D07
  8
0
 10
4459.0088214832258018
 20
236.7536066350527051
 30
0.0
 40
0.0646423638709044
 50
355.5962699723402238
 51
181.149954437994495
  0
ARC
  5
8D08
  8
0
 10
4459.0097831345574377
 20
236.7498062421682903
 30
0.0
 40
0.018501567971953
 50
289.0566187377968959
 51
79.2066631112943611
  0
ARC
  5
8D09
  8
0
 10
4459.0091994918993805
 20
236.7514958378135077
 30
0.0
 40
0.0202891283750659
 50
186.4661232792902865
 51
289.0566187377968959
  0
ARC
  5
8D0A
  8
0
 10
4459.0084903823790228
 20
236.7491201150893119
 30
0.0
 40
0.019451164043982
 50
75.8426177589944643
 51
179.7323962311359082
  0
ARC
  5
8D0B
  8
0
 10
4459.0073368280218347
 20
236.7627761379285118
 30
0.0
 40
0.0674338293342164
 50
347.9020718667513847
 51
133.6700457202452981
  0
ARC
  5
8D0C
  8
0
 10
4459.0023837693270252
 20
236.7679646457771128
 30
0.0
 40
0.0602607265094935
 50
133.6700457202452981
 51
195.0577923547039916
  0
ARC
  5
8D0D
  8
0
 10
4459.2629618729506547
 20
236.4873336385875007
 30
0.0
 40
0.0652335778324958
 50
189.8280208762162999
 51
353.4257548677804266
  0
ARC
  5
8D0E
  8
0
 10
4459.2631371517818479
 20
236.4811623232318993
 30
0.0
 40
0.0646423638709044
 50
358.8500456391686839
 51
184.4037301048205961
  0
ARC
  5
8D0F
  8
0
 10
4459.2621755004583974
 20
236.4773619303460919
 30
0.0
 40
0.018501567971953
 50
100.7933369658905036
 51
250.9433813393854962
  0
ARC
  5
8D10
  8
0
 10
4459.2627591431100882
 20
236.4790515259921904
 30
0.0
 40
0.0202891283750659
 50
250.943381339385013
 51
353.5338767978739725
  0
ARC
  5
8D11
  8
0
 10
4459.2634682526349934
 20
236.476675803268904
 30
0.0
 40
0.019451164043982
 50
0.2676038460270811
 51
104.1573823181793017
  0
ARC
  5
8D12
  8
0
 10
4459.2646218069730821
 20
236.4903318261096956
 30
0.0
 40
0.0674338293342164
 50
46.3299543569155787
 51
192.0979282104075878
  0
ARC
  5
8D13
  8
0
 10
4459.2695748656606156
 20
236.4955203339650041
 30
0.0
 40
0.0602607265094935
 50
344.9422077224622853
 51
46.3299543569155787
  0
ARC
  5
8D14
  8
0
 10
4459.2629618729506547
 20
237.072544042986209
 30
0.0
 40
0.0652335778324958
 50
189.8280208762162999
 51
353.4257548677804266
  0
ARC
  5
8D15
  8
0
 10
4459.2631371517818479
 20
237.0663727276306076
 30
0.0
 40
0.0646423638709044
 50
358.8500456391686839
 51
184.4037301048205961
  0
ARC
  5
8D16
  8
0
 10
4459.2621755004583974
 20
237.0625723347449139
 30
0.0
 40
0.018501567971953
 50
100.7933369658905036
 51
250.9433813393854962
  0
ARC
  5
8D17
  8
0
 10
4459.2627591431100882
 20
237.0642619303908987
 30
0.0
 40
0.0202891283750659
 50
250.943381339385013
 51
353.5338767978739725
  0
ARC
  5
8D18
  8
0
 10
4459.2634682526349934
 20
237.0618862076676123
 30
0.0
 40
0.019451164043982
 50
0.2676038460270811
 51
104.1573823181793017
  0
ARC
  5
8D19
  8
0
 10
4459.2646218069730821
 20
237.0755422305084892
 30
0.0
 40
0.0674338293342164
 50
46.3299543569155787
 51
192.0979282104075878
  0
ARC
  5
8D1A
  8
0
 10
4459.2695748656606156
 20
237.0807307383637124
 30
0.0
 40
0.0602607265094935
 50
344.9422077224622853
 51
46.3299543569155787
  0
ARC
  5
8D1B
  8
0
 10
4459.2635455156050739
 20
233.9118442456880871
 30
0.0
 40
0.0652335778324958
 50
189.8280208762162999
 51
353.4257548677804266
  0
ARC
  5
8D1C
  8
0
 10
4459.2637207944362672
 20
233.9056729303325142
 30
0.0
 40
0.0646423638709044
 50
358.8500456391686839
 51
184.4037301048205961
  0
ARC
  5
8D1D
  8
0
 10
4459.2627591431100882
 20
233.901872537446792
 30
0.0
 40
0.018501567971953
 50
100.7933369658905036
 51
250.9433813393854962
  0
ARC
  5
8D1E
  8
0
 10
4459.2633427857654169
 20
233.9035621330928052
 30
0.0
 40
0.0202891283750659
 50
250.943381339385013
 51
353.5338767978739725
  0
ARC
  5
8D1F
  8
0
 10
4459.2640518952894126
 20
233.9011864103694904
 30
0.0
 40
0.019451164043982
 50
0.2676038460270811
 51
104.1573823181793017
  0
ARC
  5
8D20
  8
0
 10
4459.2652054496284109
 20
233.9148424332103957
 30
0.0
 40
0.0674338293342164
 50
46.3299543569155787
 51
192.0979282104075878
  0
ARC
  5
8D21
  8
0
 10
4459.2701585083159443
 20
233.9200309410655905
 30
0.0
 40
0.0602607265094935
 50
344.9422077224622853
 51
46.3299543569155787
  0
ARC
  5
8D22
  8
0
 10
4459.2250816732439489
 20
233.5698553440919909
 30
0.0
 40
0.013054581023601
 50
88.1710803781396351
 51
134.3328569876904055
  0
ARC
  5
8D23
  8
0
 10
4459.3890335994647103
 20
233.4722144173302922
 30
0.0
 40
0.2034682854643595
 50
148.2794940973313089
 51
179.3862071059768937
  0
LINE
  5
8D24
  8
0
 10
4459.1855770089123325
 20
233.4743938131504137
 30
0.0
 11
4459.1843259323859456
 21
232.7523480281612933
 31
0.0
  0
ARC
  5
8D25
  8
0
 10
4459.3004366129780465
 20
233.5698553440919909
 30
0.0
 40
0.013054581023601
 50
45.6671430123038817
 51
91.8289196218082111
  0
ARC
  5
8D26
  8
0
 10
4459.1364846867581946
 20
233.4722144173302922
 30
0.0
 40
0.2034682854643614
 50
0.6137928940231068
 51
31.7205059026686698
  0
LINE
  5
8D27
  8
0
 10
4459.3399412773123913
 20
233.4743938131504137
 30
0.0
 11
4459.3414128238382546
 21
232.7523421426203072
 31
0.0
  0
LINE
  5
8D28
  8
0
 10
4459.3000199727794097
 20
233.5829032748339955
 30
0.0
 11
4459.2254983134425856
 21
233.5829032748339955
 31
0.0
  0
LINE
  5
8D29
  8
0
 10
4458.8956331752106053
 20
228.479388128250406
 30
0.0
 11
4458.8956331752106053
 21
228.3838427687504122
 31
0.0
  0
LINE
  5
8D2A
  8
0
 10
4458.8956331752106053
 20
228.3838427687504122
 30
0.0
 11
4458.8586370240118413
 21
228.3644781814504086
 31
0.0
  0
LINE
  5
8D2B
  8
0
 10
4458.8954788351111347
 20
228.3282965524504107
 30
0.0
 11
4458.8580356555112303
 21
228.3478279478503907
 31
0.0
  0
ARC
  5
8D2C
  8
0
 10
4458.8759130032030953
 20
228.4793735760513016
 30
0.0
 40
0.0197201773767375
 50
0.0422805357588062
 51
87.3817950004266493
  0
ARC
  5
8D2D
  8
0
 10
4458.8621131324271119
 20
228.3560166555047886
 30
0.0
 40
0.0091477183517588
 50
112.3335163645403014
 51
243.5294958815854898
  0
LINE
  5
8D2E
  8
0
 10
4458.8956331752106053
 20
228.2568671267227103
 30
0.0
 11
4458.8956331752106053
 21
228.2410765804137043
 31
0.0
  0
LINE
  5
8D2F
  8
0
 10
4458.895633209845073
 20
228.3123967383027946
 30
0.0
 11
4458.8587299678611089
 21
228.2930807817004109
 31
0.0
  0
LINE
  5
8D30
  8
0
 10
4458.8956331752106053
 20
228.2568671267227103
 30
0.0
 11
4458.8581285993614074
 21
228.276430548100393
 31
0.0
  0
ARC
  5
8D31
  8
0
 10
4458.8622060762763795
 20
228.2846192557547056
 30
0.0
 40
0.0091477183517588
 50
112.3335163645403014
 51
243.5294958815854898
  0
LINE
  5
8D32
  8
0
 10
4458.8956331752106053
 20
228.2410765804137043
 30
0.0
 11
4458.8587541991109902
 21
228.2217733251004006
 31
0.0
  0
LINE
  5
8D33
  8
0
 10
4458.8956331752106053
 20
228.1855723098111071
 30
0.0
 11
4458.8581528306112887
 21
228.2051230915004112
 31
0.0
  0
ARC
  5
8D34
  8
0
 10
4458.8622303075262607
 20
228.213311799154809
 30
0.0
 40
0.0091477183517588
 50
112.3335163645403014
 51
243.5294958815854898
  0
LINE
  5
8D35
  8
0
 10
4458.895633209845073
 20
228.3123967383027946
 30
0.0
 11
4458.8954788351111347
 21
228.3282965524504107
 31
0.0
  0
LINE
  5
8D36
  8
0
 10
4459.6298851109950192
 20
228.420011665897988
 30
0.0
 11
4459.6668812622110636
 21
228.4006470785899126
 31
0.0
  0
LINE
  5
8D37
  8
0
 10
4459.6300394511117702
 20
228.3644654495898862
 30
0.0
 11
4459.6674826307107651
 21
228.3839968449898947
 31
0.0
  0
ARC
  5
8D38
  8
0
 10
4459.663405153795793
 20
228.3921855526442926
 30
0.0
 40
0.0091477183517588
 50
296.4705041184145102
 51
67.6664836354596844
  0
LINE
  5
8D39
  8
0
 10
4459.6298851110113901
 20
228.2930360238621859
 30
0.0
 11
4459.6298851110113901
 21
228.2772454775532083
 31
0.0
  0
LINE
  5
8D3A
  8
0
 10
4459.6298850763778319
 20
228.3485656354424123
 30
0.0
 11
4459.666788318361796
 21
228.3292496788400001
 31
0.0
  0
LINE
  5
8D3B
  8
0
 10
4459.6298851110113901
 20
228.2930360238621859
 30
0.0
 11
4459.667389686860588
 21
228.312599445239897
 31
0.0
  0
ARC
  5
8D3C
  8
0
 10
4459.6633122099456159
 20
228.3207881528942949
 30
0.0
 40
0.0091477183517588
 50
296.4705041184145102
 51
67.6664836354596844
  0
LINE
  5
8D3D
  8
0
 10
4459.6298851110113901
 20
228.2772454775532083
 30
0.0
 11
4459.6667640871110052
 21
228.2579422222399046
 31
0.0
  0
LINE
  5
8D3E
  8
0
 10
4459.6299222760108023
 20
228.2217605932399067
 30
0.0
 11
4459.6673654556116162
 21
228.2412919886398868
 31
0.0
  0
ARC
  5
8D3F
  8
0
 10
4459.6632879786948251
 20
228.249480696294313
 30
0.0
 40
0.0091477183517588
 50
296.4705041184145102
 51
67.6664836354596844
  0
LINE
  5
8D40
  8
0
 10
4459.6298850763778319
 20
228.3485656354424123
 30
0.0
 11
4459.6300394511117702
 21
228.3644654495898862
 31
0.0
  0
LINE
  5
8D41
  8
0
 10
4459.6296651814118377
 20
228.2214802989622058
 30
0.0
 11
4459.6296651814118377
 21
228.2056897526531998
 31
0.0
  0
LINE
  5
8D42
  8
0
 10
4459.6296651814118377
 20
228.2056897526531998
 30
0.0
 11
4459.6665441575114528
 21
228.1863864973398961
 31
0.0
  0
LINE
  5
8D43
  8
0
 10
4459.6298851437113626
 20
228.1503002204543122
 30
0.0
 11
4459.6671455260111543
 21
228.1697362637399067
 31
0.0
  0
ARC
  5
8D44
  8
0
 10
4459.6630680490961822
 20
228.1779249713943045
 30
0.0
 40
0.0091477183517588
 50
296.4705041184145102
 51
67.6664836354596844
  0
ARC
  5
8D45
  8
0
 10
4458.400835085955805
 20
229.0902849291022108
 30
0.0
 40
1.0573660438946491
 50
297.3401344621170779
 51
297.9015324168883012
  0
ARC
  5
8D46
  8
0
 10
4458.8907180228352445
 20
228.1427831835036955
 30
0.0
 40
0.0092851876502857
 50
117.3401344621178026
 51
237.622547293466198
  0
ARC
  5
8D47
  8
0
 10
4458.9231035631328268
 20
228.1938590457367013
 30
0.0
 40
0.0697630093974697
 50
237.622547293466198
 51
246.8108876366096922
  0
ARC
  5
8D48
  8
0
 10
4458.91531821451008
 20
228.105372380250401
 30
0.0
 40
0.0196850393999997
 50
179.9999997647940972
 51
270.0
  0
LINE
  5
8D49
  8
0
 10
4458.8956331752106053
 20
228.1297321772055966
 30
0.0
 11
4458.8956331752106053
 21
228.105372380250401
 31
0.0
  0
LINE
  5
8D4A
  8
0
 10
4458.8956331752106053
 20
228.1855723098111071
 30
0.0
 11
4458.8956331752106053
 21
228.1558343944824117
 31
0.0
  0
ARC
  5
8D4B
  8
0
 10
4459.6102001043118435
 20
228.105372380250401
 30
0.0
 40
0.0196850393999988
 50
270.0
 51
0.0000000000032569
  0
LINE
  5
8D4C
  8
0
 10
4459.6298851437113626
 20
228.105372380250401
 30
0.0
 11
4459.6298851437113626
 21
228.1503002204543122
 31
0.0
  0
LINE
  5
8D4D
  8
0
 10
4459.6298851112678676
 20
228.479388126564487
 30
0.0
 11
4459.6298851109950192
 21
228.420011665897988
 31
0.0
  0
ARC
  5
8D4E
  8
0
 10
4459.6496052832762871
 20
228.4793735742748879
 30
0.0
 40
0.0197201773767375
 50
92.6180920066424136
 51
179.9577192011333864
  0
LINE
  5
8D4F
  8
0
 10
4458.8956331752106053
 20
228.3838427687504122
 30
0.0
 11
4459.6298851109950192
 21
228.420011665897988
 31
0.0
  0
LINE
  5
8D50
  8
0
 10
4458.8954788351111347
 20
228.3282965524504107
 30
0.0
 11
4459.6300394511117702
 21
228.3644654495898862
 31
0.0
  0
LINE
  5
8D51
  8
0
 10
4458.895633209845073
 20
228.3123967383027946
 30
0.0
 11
4459.6298850763778319
 21
228.3485656354424123
 31
0.0
  0
LINE
  5
8D52
  8
0
 10
4458.8956331752106053
 20
228.2568671267227103
 30
0.0
 11
4459.6298851110113901
 21
228.2930360238621859
 31
0.0
  0
LINE
  5
8D53
  8
0
 10
4458.8956331752106053
 20
228.2410765804137043
 30
0.0
 11
4459.6298851110113901
 21
228.2772454775532083
 31
0.0
  0
LINE
  5
8D54
  8
0
 10
4458.8956331752106053
 20
228.1855723098111071
 30
0.0
 11
4459.6299222760108023
 21
228.2217605932399067
 31
0.0
  0
LINE
  5
8D55
  8
0
 10
4458.8956331752106053
 20
228.1558343944824117
 30
0.0
 11
4459.6296651814118377
 21
228.2056897526531998
 31
0.0
  0
LINE
  5
8D56
  8
0
 10
4459.6298851437113626
 20
228.1503002204543122
 30
0.0
 11
4458.8956331752106053
 21
228.105372380250401
 31
0.0
  0
ARC
  5
8D57
  8
0
 10
4459.2919375122328347
 20
235.0090333119865136
 30
0.0
 40
2.5629436744627339
 50
90.6523098952809931
 51
119.6195728188350955
  0
LINE
  5
8D58
  8
0
 10
4459.3039894346529763
 20
232.7017420500866933
 30
0.0
 11
4459.2280524963789503
 21
232.7017420500866933
 31
0.0
  0
LINE
  5
8D5A
  8
0
 10
4459.6102001043118435
 20
228.0856873408515071
 30
0.0
 11
4458.91531821451008
 21
228.0856873408515924
 31
0.0
  0
LINE
  5
8D5B
  8
0
 10
4458.7195647489434123
 20
228.4990731676504083
 30
0.0
 11
4459.8059535372785831
 21
228.4990731676504083
 31
0.0
  0
LINE
  5
8D5C
  8
0
 10
4459.8374861437960135
 20
233.0762240997327126
 30
0.0
 11
4459.8281859542048551
 21
228.5187439581061142
 31
0.0
  0
ARC
  5
8D5D
  8
0
 10
4459.8053613479060004
 20
228.5221416855040957
 30
0.0
 40
0.0230761176158533
 50
271.4705106639436281
 51
351.5329861742936828
  0
ENDSEC
  0
EOF
