  0
SECTION
  2
HEADER
  9
$ACADVER
  1
AC1009
  9
$INSBASE
 10
4464.2810658321668598
 20
230.8164678294614873
 30
0.0
  9
$EXTMIN
 10
4461.8793335506716176
 20
228.7542818294614904
 30
0.0
  9
$EXTMAX
 10
4466.683018740776788
 20
231.3025168294616094
 30
0.0
  9
$LIMMIN
 10
0.0
 20
0.0
  9
$LIMMAX
 10
11.6929133858000007
 20
8.2677165353999982
  9
$ORTHOMODE
 70
     0
  9
$REGENMODE
 70
     1
  9
$FILLMODE
 70
     1
  9
$QTEXTMODE
 70
     0
  9
$MIRRTEXT
 70
     0
  9
$DRAGMODE
 70
     2
  9
$LTSCALE
 40
0.6431102362
  9
$OSMODE
 70
  4095
  9
$ATTMODE
 70
     1
  9
$TEXTSIZE
 40
0.2
  9
$TRACEWID
 40
0.05
  9
$TEXTSTYLE
  7
STANDARD
  9
$CLAYER
  8
0
  9
$CELTYPE
  6
BYLAYER
  9
$CECOLOR
 62
   256
  9
$DIMSCALE
 40
1.0
  9
$DIMASZ
 40
0.1875
  9
$DIMEXO
 40
0.0625
  9
$DIMDLI
 40
0.4443307087
  9
$DIMRND
 40
0.0
  9
$DIMDLE
 40
0.0
  9
$DIMEXE
 40
0.125
  9
$DIMTP
 40
0.01
  9
$DIMTM
 40
0.01
  9
$DIMTXT
 40
2.0
  9
$DIMCEN
 40
0.1052362205
  9
$DIMTSZ
 40
0.0
  9
$DIMTOL
 70
     1
  9
$DIMLIM
 70
     0
  9
$DIMTIH
 70
     1
  9
$DIMTOH
 70
     1
  9
$DIMSE1
 70
     0
  9
$DIMSE2
 70
     0
  9
$DIMTAD
 70
     0
  9
$DIMZIN
 70
     0
  9
$DIMBLK
  1

  9
$DIMASO
 70
     1
  9
$DIMSHO
 70
     1
  9
$DIMPOST
  1
\X
  9
$DIMAPOST
  1

  9
$DIMALT
 70
     1
  9
$DIMALTD
 70
     2
  9
$DIMALTF
 40
25.3999999999999986
  9
$DIMLFAC
 40
1.0
  9
$DIMTOFL
 70
     0
  9
$DIMTVP
 40
0.0
  9
$DIMTIX
 70
     0
  9
$DIMSOXD
 70
     0
  9
$DIMSAH
 70
     0
  9
$DIMBLK1
  1

  9
$DIMBLK2
  1

  9
$DIMSTYLE
  2
STANDARD
  9
$DIMCLRD
 70
     0
  9
$DIMCLRE
 70
     0
  9
$DIMCLRT
 70
     0
  9
$DIMTFAC
 40
1.0
  9
$DIMGAP
 40
0.09
  9
$LUNITS
 70
     2
  9
$LUPREC
 70
     4
  9
$SKETCHINC
 40
0.1
  9
$FILLETRAD
 40
0.0
  9
$AUNITS
 70
     0
  9
$AUPREC
 70
     0
  9
$MENU
  1
.
  9
$ELEVATION
 40
0.0
  9
$PELEVATION
 40
0.0
  9
$THICKNESS
 40
0.0
  9
$LIMCHECK
 70
     0
  9
$BLIPMODE
 70
     0
  9
$CHAMFERA
 40
0.0
  9
$CHAMFERB
 40
0.0
  9
$SKPOLY
 70
     0
  9
$TDCREATE
 40
2458059.843368056230247
  9
$TDUPDATE
 40
2459054.1387962969020009
  9
$TDINDWG
 40
0.3178890046
  9
$TDUSRTIMER
 40
0.3178890046
  9
$USRTIMER
 70
     1
  9
$ANGBASE
 50
0.0
  9
$ANGDIR
 70
     0
  9
$PDMODE
 70
     0
  9
$PDSIZE
 40
0.3125
  9
$PLINEWID
 40
0.0
  9
$COORDS
 70
     1
  9
$SPLFRAME
 70
     0
  9
$SPLINETYPE
 70
     6
  9
$SPLINESEGS
 70
     8
  9
$ATTDIA
 70
     1
  9
$ATTREQ
 70
     1
  9
$HANDLING
 70
     1
  9
$HANDSEED
  5
8218
  9
$SURFTAB1
 70
     6
  9
$SURFTAB2
 70
     6
  9
$SURFTYPE
 70
     6
  9
$SURFU
 70
     6
  9
$SURFV
 70
     6
  9
$UCSNAME
  2

  9
$UCSORG
 10
0.0
 20
0.0
 30
0.0
  9
$UCSXDIR
 10
1.0
 20
0.0
 30
0.0
  9
$UCSYDIR
 10
0.0
 20
1.0
 30
0.0
  9
$PUCSNAME
  2

  9
$PUCSORG
 10
0.0
 20
0.0
 30
0.0
  9
$PUCSXDIR
 10
1.0
 20
0.0
 30
0.0
  9
$PUCSYDIR
 10
0.0
 20
1.0
 30
0.0
  9
$USERI1
 70
     0
  9
$USERI2
 70
     0
  9
$USERI3
 70
     0
  9
$USERI4
 70
     0
  9
$USERI5
 70
     0
  9
$USERR1
 40
0.0
  9
$USERR2
 40
0.0
  9
$USERR3
 40
0.0
  9
$USERR4
 40
0.0
  9
$USERR5
 40
0.0
  9
$WORLDVIEW
 70
     1
  9
$SHADEDGE
 70
     3
  9
$SHADEDIF
 70
    70
  9
$TILEMODE
 70
     1
  9
$MAXACTVP
 70
    64
  9
$PLIMCHECK
 70
     0
  9
$PEXTMIN
 10
1.0000000000000000E+20
 20
1.0000000000000000E+20
 30
1.0000000000000000E+20
  9
$PEXTMAX
 10
-1.0000000000000000E+20
 20
-1.0000000000000000E+20
 30
-1.0000000000000000E+20
  9
$PLIMMIN
 10
0.0
 20
0.0
  9
$PLIMMAX
 10
12.0
 20
9.0
  9
$UNITMODE
 70
     0
  9
$VISRETAIN
 70
     1
  9
$PLINEGEN
 70
     0
  9
$PSLTSCALE
 70
     1
  0
ENDSEC
  0
SECTION
  2
TABLES
  0
TABLE
  2
VPORT
 70
     1
  0
VPORT
  2
*ACTIVE
 70
     0
 10
0.0
 20
0.0
 11
1.0
 21
1.0
 12
29.8253655988496611
 22
0.5710156488732282
 13
0.0
 23
0.0
 14
1.0
 24
1.0
 15
0.0
 25
0.0
 16
0.0
 26
0.0
 36
53.1033482859890427
 17
4434.4558105468740905
 27
229.4573836805882934
 37
0.0
 40
2.5783322637795898
 41
2.6528599605522678
 42
50.0
 43
0.0
 44
0.0
 50
0.0
 51
0.0
 71
     0
 72
   100
 73
     1
 74
     1
 75
     0
 76
     0
 77
     0
 78
     0
  0
ENDTAB
  0
TABLE
  2
LTYPE
 70
     2
  0
LTYPE
  2
CONTINUOUS
 70
     0
  3
Solid line
 72
    65
 73
     0
 40
0.0
  0
LTYPE
  2
PHANTOM2
 70
     0
  3
___ _ _ ___ _ _ ___ _ _ ___ _ _
 72
    65
 73
     6
 40
1.25
 49
0.625
 49
-0.125
 49
0.125
 49
-0.125
 49
0.125
 49
-0.125
  0
ENDTAB
  0
TABLE
  2
LAYER
 70
     2
  0
LAYER
  2
0
 70
     0
 62
   255
  6
CONTINUOUS
  0
LAYER
  2
DEFPOINTS
 70
     0
 62
     7
  6
CONTINUOUS
  0
ENDTAB
  0
TABLE
  2
STYLE
 70
     1
  0
STYLE
  2
STANDARD
 70
     0
 40
0.0
 41
0.8
 50
0.0
 71
     0
 42
0.2
  3
txt
  4

  0
ENDTAB
  0
TABLE
  2
VIEW
 70
     0
  0
ENDTAB
  0
TABLE
  2
UCS
 70
     0
  0
ENDTAB
  0
TABLE
  2
APPID
 70
     9
  0
APPID
  2
ACAD
 70
     0
  0
APPID
  2
ACAD_MLEADERVER
 70
     0
  0
APPID
  2
ACAD_EXEMPT_FROM_CAD_STANDARDS
 70
     0
  0
APPID
  2
ACAD_NAV_VCDISPLAY
 70
     0
  0
APPID
  2
ACAECLAYERSTANDARD
 70
     0
  0
APPID
  2
ACCMTRANSPARENCY
 70
     0
  0
APPID
  2
ACAD_DSTYLE_DIMJAG
 70
     0
  0
APPID
  2
ACAD_DSTYLE_DIMTALN
 70
     0
  0
APPID
  2
ACDBATTR
 70
     0
  0
ENDTAB
  0
TABLE
  2
DIMSTYLE
 70
     1
  0
DIMSTYLE
  2
STANDARD
 70
     0
  3

  4

  5

  6

  7

 40
1.0
 41
0.1875
 42
0.0625
 43
0.38
 44
0.125
 45
0.0
 46
0.0
 47
0.01
 48
0.01
140
0.15625
141
0.09
142
0.0
143
25.3999999999999986
144
1.0
145
0.0
146
1.0
147
0.09
 71
     1
 72
     0
 73
     1
 74
     1
 75
     0
 76
     0
 77
     0
 78
     4
170
     0
171
     2
172
     0
173
     0
174
     0
175
     0
176
     0
177
     0
178
     0
  0
ENDTAB
  0
ENDSEC
  0
SECTION
  2
BLOCKS
  0
BLOCK
  8
0
  2
$MODEL_SPACE
 70
     0
 10
0.0
 20
0.0
 30
0.0
  3
$MODEL_SPACE
  1

  0
ENDBLK
  5
21
  8
0
  0
BLOCK
 67
     1
  8
0
  2
$PAPER_SPACE
 70
     0
 10
0.0
 20
0.0
 30
0.0
  3
$PAPER_SPACE
  1

  0
ENDBLK
  5
1D
 67
     1
  8
0
  0
ENDSEC
  0
SECTION
  2
ENTITIES
  0
ATTDEF
  5
3930
  8
DEFPOINTS
 10
4464.2761811694281278
 20
230.8135939599966946
 30
0.0
 40
0.001
  1
K-15344T
  3

  2
MODELNUMBER
 70
     0
1001
ACDBATTR
1070
     0
1070
     1
  0
ATTDEF
  5
3931
  8
DEFPOINTS
 10
4464.2761811694281278
 20
230.811927293330001
 30
0.0
 40
0.001
  1
RAIN DUET
  3

  2
TRADENAME
 70
     0
1001
ACDBATTR
1070
     0
1070
     1
  0
ATTDEF
  5
3932
  8
DEFPOINTS
 10
4464.2761811694281278
 20
230.8102606266633074
 30
0.0
 40
0.001
  1
HANDSHOWER
  3

  2
PRODUCT
 70
     0
1001
ACDBATTR
1070
     0
1070
     1
  0
ARC
  5
809D
  8
0
 10
4465.5118333183563664
 20
230.6919511630840987
 30
0.0
 40
1.8045596772778449
 50
176.5560744657636008
 51
179.9977789998266928
  0
ARC
  5
809E
  8
0
 10
4461.0697792038881744
 20
231.0110842343804052
 30
0.0
 40
2.6491480646455088
 50
355.4375067431049047
 51
357.2181511258111755
  0
ARC
  5
809F
  8
0
 10
4463.7990663389109613
 20
230.8768354390795992
 30
0.0
 40
0.0834542233153071
 50
156.2703627690326016
 51
176.0995834031504046
  0
ARC
  5
80A0
  8
0
 10
4464.3233266377237669
 20
230.6486673936697116
 30
0.0
 40
0.6552137516655363
 50
93.6981028223791839
 51
156.4536557385551987
  0
ARC
  5
80A1
  8
0
 10
4463.5880376795348639
 20
230.7444107086593874
 30
0.0
 40
0.130237799504155
 50
333.5900177065993262
 51
336.2803960008030799
  0
ARC
  5
80A2
  8
0
 10
4463.5609695580787957
 20
230.9302908964577057
 30
0.0
 40
0.2830129450586563
 50
273.915495265431673
 51
300.5173023085669115
  0
ARC
  5
80A3
  8
0
 10
4464.2725127253761457
 20
224.8895128079423955
 30
0.0
 40
5.7998820842764509
 50
96.8546073629371591
 51
107.5078848835712932
  0
ARC
  5
80A4
  8
0
 10
4462.9681107426249582
 20
228.8800010198609982
 30
0.0
 40
1.602428827599109
 50
105.9526974658996039
 51
122.2351023386020046
  0
ARC
  5
80A5
  8
0
 10
4462.3796208285366447
 20
229.8017469253464071
 30
0.0
 40
0.5088943841355811
 50
121.5449570436963
 51
151.7168504679382863
  0
ARC
  5
80A6
  8
0
 10
4462.4570661636053046
 20
229.8287310392416032
 30
0.0
 40
0.5675376253294676
 50
157.8320464929047944
 51
171.0310199160738023
  0
ARC
  5
80A7
  8
0
 10
4462.9216562211731798
 20
229.7287667758803025
 30
0.0
 40
1.042363646818999
 50
169.5845406935735866
 51
179.4919623583265889
  0
ARC
  5
80A8
  8
0
 10
4462.8608734625313446
 20
229.7415809755140117
 30
0.0
 40
0.9815464105236074
 50
180.2084944497709955
 51
196.8263937080920982
  0
ARC
  5
80A9
  8
0
 10
4463.3250231316587815
 20
231.4964872242717888
 30
0.0
 40
2.5681363425707402
 50
244.4634264196483002
 51
253.9722653180234033
  0
ARC
  5
80AA
  8
0
 10
4462.5521663649251423
 20
229.8788175582290023
 30
0.0
 40
0.7753277274860939
 50
224.5717362919955917
 51
244.4634264196483002
  0
ARC
  5
80AB
  8
0
 10
4462.2499522460893786
 20
229.5810878699498971
 30
0.0
 40
0.3510915421987248
 50
200.619042378293301
 51
224.5717362919955917
  0
ARC
  5
80AC
  8
0
 10
4464.2812793426492135
 20
236.7274681251641084
 30
0.0
 40
7.9125460714863394
 50
269.0410497273111901
 51
269.9984539427106256
  0
ARC
  5
80AD
  8
0
 10
4464.2781118741777391
 20
236.5382256200732058
 30
0.0
 40
7.7232770603155076
 50
265.9800492189634724
 51
269.0410486238272938
  0
ARC
  5
80AE
  8
0
 10
4464.2012334493929302
 20
235.4442870596332114
 30
0.0
 40
6.62664044492504
 50
261.872753228356089
 51
265.9800492189634724
  0
ARC
  5
80AF
  8
0
 10
4463.87765817428226
 20
233.1784535139152865
 30
0.0
 40
4.3378192165274463
 50
253.0904650895076031
 51
261.872753228356089
  0
LINE
  5
80B0
  8
0
 10
4464.2141909224692427
 20
228.815206471408402
 30
0.0
 11
4464.2165734407681157
 21
228.7825969623766014
 31
0.0
  0
ARC
  5
80B1
  8
0
 10
4464.2451949016121944
 20
228.7864404620952996
 30
0.0
 40
0.0288783744521202
 50
187.6483421816481041
 51
220.9423443031633099
  0
ARC
  5
80B2
  8
0
 10
4464.2644541114923413
 20
237.2149844572500967
 30
0.0
 40
7.92222497037569
 50
262.2699665164882958
 51
270.1201407667759895
  0
ARC
  5
80B3
  8
0
 10
4463.5916586979492422
 20
232.8201607391256971
 30
0.0
 40
3.4776637963267838
 50
246.2408706702906898
 51
263.5148293715975001
  0
ARC
  5
80B4
  8
0
 10
4462.4310450143502749
 20
230.1824347331892113
 30
0.0
 40
0.5960825634492763
 50
212.0627235461371924
 51
246.5050967419674919
  0
ARC
  5
80B5
  8
0
 10
4462.1050501927029472
 20
229.9491393035372937
 30
0.0
 40
0.1975133742097613
 50
183.1935483567430083
 51
204.8914308072585868
  0
ARC
  5
80B6
  8
0
 10
4462.1574123786422206
 20
229.9473693997796033
 30
0.0
 40
0.2497395779053267
 50
172.8797810631710945
 51
182.1188192579004976
  0
ARC
  5
80B7
  8
0
 10
4463.0505288818148983
 20
230.6919511630840987
 30
0.0
 40
1.8045596772778449
 50
0.0022210001732764
 51
3.4439255342363539
  0
ARC
  5
80B8
  8
0
 10
4467.4925829962830903
 20
231.0110842343804052
 30
0.0
 40
2.6491480646455088
 50
182.7818488741887961
 51
184.5624932568948964
  0
ARC
  5
80B9
  8
0
 10
4464.7632958612612128
 20
230.8768354390795992
 30
0.0
 40
0.0834542233153071
 50
3.9004165968495932
 51
23.7296372309673416
  0
ARC
  5
80BA
  8
0
 10
4464.2390763482480907
 20
230.6487007222515899
 30
0.0
 40
0.6551630474979354
 50
23.5450971856258207
 51
86.3253875875303436
  0
ARC
  5
80BB
  8
0
 10
4464.9743245206364008
 20
230.7444107086593874
 30
0.0
 40
0.130237799504155
 50
203.7196039991968917
 51
206.4099822934007022
  0
ARC
  5
80BC
  8
0
 10
4465.0013926420933785
 20
230.9302908964577057
 30
0.0
 40
0.2830129450586563
 50
239.4826976914332022
 51
266.084504734568327
  0
ARC
  5
80BD
  8
0
 10
4464.289849474795119
 20
224.8895128079423955
 30
0.0
 40
5.7998820842764509
 50
72.4921151164286641
 51
83.1453926370628551
  0
ARC
  5
80BE
  8
0
 10
4465.594251457545397
 20
228.8800010198609982
 30
0.0
 40
1.602428827599109
 50
57.7648976613980025
 51
74.0473025341004103
  0
ARC
  5
80BF
  8
0
 10
4466.18274137163462
 20
229.8017469253464071
 30
0.0
 40
0.5088943841355811
 50
28.2831495320616995
 51
58.4550429563036786
  0
ARC
  5
80C0
  8
0
 10
4466.1052960365668696
 20
229.8287310392416032
 30
0.0
 40
0.5675376253294676
 50
8.9689800839262084
 51
22.1679535070951808
  0
ARC
  5
80C1
  8
0
 10
4465.6420190894277766
 20
229.7289498905913945
 30
0.0
 40
1.0410390701389971
 50
0.4986055720452306
 51
10.4186125232690703
  0
ARC
  5
80C2
  8
0
 10
4465.7019501920140101
 20
229.7414772177388045
 30
0.0
 40
0.9810746782897815
 50
343.171605299693681
 51
359.7974648997252984
  0
ARC
  5
80C3
  8
0
 10
4465.2373390685115737
 20
231.4964872242717888
 30
0.0
 40
2.5681363425707402
 50
286.0277346819765967
 51
295.5365735803517282
  0
ARC
  5
80C4
  8
0
 10
4466.0101958352461224
 20
229.8788175582290023
 30
0.0
 40
0.7753277274860939
 50
295.5365735803517282
 51
315.4282637080032146
  0
ARC
  5
80C5
  8
0
 10
4466.3124099540837051
 20
229.5810878699498971
 30
0.0
 40
0.3510915421987248
 50
315.4282637080032146
 51
339.3809576217067274
  0
ARC
  5
80C6
  8
0
 10
4464.281083370125998
 20
236.7274273011834111
 30
0.0
 40
7.91250524464437
 50
269.9998730047136064
 51
270.9589515088118219
  0
ARC
  5
80C7
  8
0
 10
4464.2842503259917066
 20
236.5382256200732058
 30
0.0
 40
7.7232770603155076
 50
270.9589513761727062
 51
274.0199507810365276
  0
ARC
  5
80C8
  8
0
 10
4464.3611287507801535
 20
235.4442870596332114
 30
0.0
 40
6.62664044492504
 50
274.0199507810365276
 51
278.1272467716440246
  0
ARC
  5
80C9
  8
0
 10
4464.6847040258899142
 20
233.1784535139152865
 30
0.0
 40
4.3378192165274463
 50
278.1272467716440246
 51
286.9095349104924821
  0
LINE
  5
80CA
  8
0
 10
4464.3480972917923282
 20
228.8152058444225077
 30
0.0
 11
4464.3448001134684091
 21
228.781659343876612
 31
0.0
  0
ARC
  5
80CB
  8
0
 10
4464.3230506900035834
 20
228.7823394674254018
 30
0.0
 40
0.0217600548949409
 50
322.4101849704669007
 51
358.2088943882280887
  0
LINE
  5
80CC
  8
0
 10
4464.4699232552720787
 20
228.8171807352321991
 30
0.0
 11
4464.4708934163672893
 21
228.8053918278766048
 31
0.0
  0
ARC
  5
80CD
  8
0
 10
4464.4882564940444354
 20
228.8062487864268064
 30
0.0
 40
0.017384212503384
 50
182.8255531048613136
 51
211.9102995107195113
  0
ARC
  5
80CE
  8
0
 10
4464.5720346692405656
 20
228.8091636462646079
 30
0.0
 40
0.0280607408904308
 50
297.1804752970999743
 51
354.1992875914683054
  0
ARC
  5
80CF
  8
0
 10
4464.5353848094891873
 20
228.9161597475429062
 30
0.0
 40
0.1409255953065294
 50
248.3382132593283131
 51
290.5497842502477965
  0
ARC
  5
80D0
  8
0
 10
4464.4961450427817908
 20
228.8058412283052121
 30
0.0
 40
0.0242886679730725
 50
201.1954456173438075
 51
238.2537748656743872
  0
LINE
  5
80D1
  8
0
 10
4464.5999517237678447
 20
228.8063275845765929
 30
0.0
 11
4464.6009580286654455
 21
228.8214448935354994
 31
0.0
  0
ARC
  5
80D2
  8
0
 10
4464.6923335119126932
 20
228.9523601980586136
 30
0.0
 40
0.1385471748249399
 50
248.7387571448018093
 51
297.4197830659650776
  0
LINE
  5
80D3
  8
0
 10
4464.8050968003490198
 20
228.8325311347884963
 30
0.0
 11
4464.8076141398678374
 21
228.8075114086765893
 31
0.0
  0
ARC
  5
80D4
  8
0
 10
4464.83785826327221
 20
228.8130822629480008
 30
0.0
 40
0.0307529090946116
 50
190.4366845076224877
 51
238.8620544585315031
  0
ARC
  5
80D5
  8
0
 10
4464.8686434704768544
 20
228.9315607321649111
 30
0.0
 40
0.1521412314977284
 50
252.1293104361151904
 51
291.3839955648849127
  0
ARC
  5
80D6
  8
0
 10
4464.9107184582653645
 20
228.8121607591828877
 30
0.0
 40
0.0259875898264983
 50
301.0351093710712007
 51
358.0188487431711906
  0
LINE
  5
80D7
  8
0
 10
4464.936690514111433
 20
228.811262349424112
 30
0.0
 11
4464.938040326655937
 21
228.8428071785812108
 31
0.0
  0
LINE
  5
80D8
  8
0
 10
4465.4703264401859997
 20
228.912369480820189
 30
0.0
 11
4465.4690620238588963
 21
228.8856674867782033
 31
0.0
  0
ARC
  5
80D9
  8
0
 10
4465.4412578268093057
 20
228.8902437396043013
 30
0.0
 40
0.0281782799952654
 50
314.120907624121287
 51
350.6535652642116929
  0
ARC
  5
80DA
  8
0
 10
4465.4280258461640187
 20
228.9038881181058969
 30
0.0
 40
0.0471849729354466
 50
275.6606409041045254
 51
314.1209076241224238
  0
ARC
  5
80DB
  8
0
 10
4465.4001881103758933
 20
229.0264318273318906
 30
0.0
 40
0.1725847430510696
 50
265.839135672637326
 51
280.8516213709320937
  0
ARC
  5
80DC
  8
0
 10
4465.386519682369908
 20
228.9243359391865908
 30
0.0
 40
0.0700433470226304
 50
236.9389772525011892
 51
270.9376406061796274
  0
ARC
  5
80DD
  8
0
 10
4465.3665173949393647
 20
228.883964420044606
 30
0.0
 40
0.0258376202887118
 50
189.6900197233451877
 51
225.1921080399544906
  0
LINE
  5
80DE
  8
0
 10
4465.8928943252667523
 20
229.004812046476701
 30
0.0
 11
4465.891800972852252
 21
228.9959116367346894
 31
0.0
  0
ARC
  5
80DF
  8
0
 10
4465.8759551472021485
 20
229.0003346128881105
 30
0.0
 40
0.0164515321039175
 50
309.6781500936601219
 51
344.4042193852695846
  0
ARC
  5
80E0
  8
0
 10
4465.8405168273484378
 20
229.0430534125003987
 30
0.0
 40
0.0719562197834606
 50
290.8428353156933781
 51
309.6781500936601219
  0
ARC
  5
80E1
  8
0
 10
4465.8216469447061172
 20
229.1350855316808008
 30
0.0
 40
0.165371558589011
 50
276.3863436474924242
 51
285.6002265769465112
  0
ARC
  5
80E2
  8
0
 10
4465.8233449862482303
 20
229.0929646025024908
 30
0.0
 40
0.1233595639204418
 50
246.6205617546494011
 51
277.7787943055217283
  0
ARC
  5
80E3
  8
0
 10
4464.2978976614122075
 20
237.215087698152189
 30
0.0
 40
7.9223286756372984
 50
269.8782689355156208
 51
277.7300077805599017
  0
ARC
  5
80E4
  8
0
 10
4464.970703502222932
 20
232.8201607391256971
 30
0.0
 40
3.4776637963267838
 50
276.4851706284026136
 51
293.7591293297093102
  0
ARC
  5
80E5
  8
0
 10
4466.1313171858209898
 20
230.1824347331892113
 30
0.0
 40
0.5960825634492763
 50
293.4949032580324797
 51
327.9372764538628076
  0
ARC
  5
80E6
  8
0
 10
4466.457312007467408
 20
229.9491393035372937
 30
0.0
 40
0.1975133742097613
 50
335.1085691927414132
 51
356.806451643256878
  0
ARC
  5
80E7
  8
0
 10
4466.4049498215290441
 20
229.9473693997796033
 30
0.0
 40
0.2497395779053267
 50
357.8811807420995024
 51
7.120218936828949
  0
LINE
  5
80E8
  8
0
 10
4465.3410484050673404
 20
228.8796154917768888
 30
0.0
 11
4465.3397096500630141
 21
228.8903719862881871
 31
0.0
  0
LINE
  5
80E9
  8
0
 10
4465.8928943252667523
 20
229.004812046476701
 30
0.0
 11
4465.8931774900593155
 21
229.0123681281278039
 31
0.0
  0
ARC
  5
80EA
  8
0
 10
4464.9875707304800017
 20
228.8550573931431131
 30
0.0
 40
0.0341645027098919
 50
198.3114392127629912
 51
264.8593229127631048
  0
ARC
  5
80EB
  8
0
 10
4465.0143010037154454
 20
228.9652028833039878
 30
0.0
 40
0.1472184159253241
 50
258.3248645222961954
 51
292.5268187462536957
  0
ARC
  5
80EC
  8
0
 10
4465.0559833272773176
 20
228.852899116099394
 30
0.0
 40
0.02788357905084
 50
301.8628084576599804
 51
356.2116624643622913
  0
ARC
  5
80ED
  8
0
 10
4464.982622061523216
 20
228.8575260788695971
 30
0.0
 40
0.1013905142751899
 50
356.3417400135862181
 51
359.8119826597804263
  0
LINE
  5
80EE
  8
0
 10
4464.0922084090616409
 20
228.8171807352321991
 30
0.0
 11
4464.0912382479673397
 21
228.8053918278766048
 31
0.0
  0
ARC
  5
80EF
  8
0
 10
4464.0738751702911031
 20
228.8062487864268064
 30
0.0
 40
0.017384212503384
 50
328.0897004892805171
 51
357.1744468951387148
  0
ARC
  5
80F0
  8
0
 10
4463.9900969950940635
 20
228.8091636462646079
 30
0.0
 40
0.0280607408904308
 50
185.8007124085316946
 51
242.8195247028999972
  0
ARC
  5
80F1
  8
0
 10
4464.0267468548463512
 20
228.9161597475429062
 30
0.0
 40
0.1409255953065294
 50
249.4502157497520898
 51
291.6617867406716869
  0
ARC
  5
80F2
  8
0
 10
4464.0659866215519287
 20
228.8058412283052121
 30
0.0
 40
0.0242886679730725
 50
301.7462251343255843
 51
338.8045543826561925
  0
LINE
  5
80F3
  8
0
 10
4463.9621799405676938
 20
228.8063275845765929
 30
0.0
 11
4463.9611736356691836
 21
228.8214448935354994
 31
0.0
  0
ARC
  5
80F4
  8
0
 10
4463.8697981524210263
 20
228.9523601980586136
 30
0.0
 40
0.1385471748249399
 50
242.5802169340348939
 51
291.261242855198077
  0
LINE
  5
80F5
  8
0
 10
4463.7570348639846998
 20
228.8325311347884963
 30
0.0
 11
4463.7545175244667917
 21
228.8075114086765893
 31
0.0
  0
ARC
  5
80F6
  8
0
 10
4463.7242734010633285
 20
228.8130822629480008
 30
0.0
 40
0.0307529090946116
 50
301.1379455414685253
 51
349.5633154923773986
  0
ARC
  5
80F7
  8
0
 10
4463.6934881938568651
 20
228.9315607321649111
 30
0.0
 40
0.1521412314977284
 50
248.6160044351150873
 51
287.8706895638848096
  0
ARC
  5
80F8
  8
0
 10
4463.6514132060692646
 20
228.8121607591828877
 30
0.0
 40
0.0259875898264983
 50
181.9811512568288094
 51
238.964890628928714
  0
LINE
  5
80F9
  8
0
 10
4463.625441150223196
 20
228.811262349424112
 30
0.0
 11
4463.6240913376777826
 21
228.8428071785812108
 31
0.0
  0
LINE
  5
80FA
  8
0
 10
4463.0918052241486293
 20
228.912369480820189
 30
0.0
 11
4463.0930696404757327
 21
228.8856674867782033
 31
0.0
  0
ARC
  5
80FB
  8
0
 10
4463.1208738375244138
 20
228.8902437396043013
 30
0.0
 40
0.0281782799952654
 50
189.3464347357883071
 51
225.8790923758776046
  0
ARC
  5
80FC
  8
0
 10
4463.1341058181724293
 20
228.9038881181058969
 30
0.0
 40
0.0471849729354466
 50
225.8790923758776046
 51
264.3393590958954746
  0
ARC
  5
80FD
  8
0
 10
4463.1619435539578262
 20
229.0264318273318906
 30
0.0
 40
0.1725847430510696
 50
259.1483786290677926
 51
274.160864327362674
  0
ARC
  5
80FE
  8
0
 10
4463.1756119819647211
 20
228.9243359391865908
 30
0.0
 40
0.0700433470226304
 50
269.0623593938203726
 51
303.0610227474987823
  0
ARC
  5
80FF
  8
0
 10
4463.1956142693952643
 20
228.883964420044606
 30
0.0
 40
0.0258376202887118
 50
314.807891960045481
 51
350.3099802766548123
  0
LINE
  5
8100
  8
0
 10
4462.6692373390660578
 20
229.004812046476701
 30
0.0
 11
4462.6703306914832865
 21
228.9959116367346894
 31
0.0
  0
ARC
  5
8101
  8
0
 10
4462.68617651713339
 20
229.0003346128881105
 30
0.0
 40
0.0164515321039175
 50
195.595780614730387
 51
230.3218499063399065
  0
ARC
  5
8102
  8
0
 10
4462.7216148369852817
 20
229.0430534125003987
 30
0.0
 40
0.0719562197834606
 50
230.3218499063399065
 51
249.1571646843065935
  0
ARC
  5
8103
  8
0
 10
4462.7404847196266928
 20
229.1350855316808008
 30
0.0
 40
0.165371558589011
 50
254.3997734230534888
 51
263.6136563525075758
  0
ARC
  5
8104
  8
0
 10
4462.7387866780863988
 20
229.0929646025024908
 30
0.0
 40
0.1233595639204418
 50
262.2212056944782717
 51
293.3794382453506273
  0
LINE
  5
8105
  8
0
 10
4463.2210832592681982
 20
228.8796154917768888
 30
0.0
 11
4463.2224220142716149
 21
228.8903719862881871
 31
0.0
  0
LINE
  5
8106
  8
0
 10
4462.6692373390660578
 20
229.004812046476701
 30
0.0
 11
4462.6689541742753136
 21
229.0123681281278039
 31
0.0
  0
ARC
  5
8107
  8
0
 10
4463.5745609338546274
 20
228.8550573931431131
 30
0.0
 40
0.0341645027098919
 50
275.1406770872368952
 51
341.6885607872368951
  0
ARC
  5
8108
  8
0
 10
4463.5478306606191836
 20
228.9652028833039878
 30
0.0
 40
0.1472184159253241
 50
247.4731812537461906
 51
281.6751354777036909
  0
ARC
  5
8109
  8
0
 10
4463.5061483370573114
 20
228.852899116099394
 30
0.0
 40
0.02788357905084
 50
183.788337535637595
 51
238.1371915423399912
  0
ARC
  5
810A
  8
0
 10
4463.5795096028114131
 20
228.8575260788695971
 30
0.0
 40
0.1013905142751899
 50
180.1880173402194885
 51
183.6582599864138103
  0
ARC
  5
810B
  8
0
 10
4464.2437531833820685
 20
228.787449512864697
 30
0.0
 40
0.0285017355995728
 50
224.3758310504042868
 51
260.8548323726708986
  0
ARC
  5
810C
  8
0
 10
4464.2649645558703924
 20
229.1510434121724984
 30
0.0
 40
0.3970881572317728
 50
272.3238873982799078
 51
273.9049296009687282
  0
ARC
  5
810D
  8
0
 10
4464.2854740515858794
 20
228.9103392382064044
 30
0.0
 40
0.1555993061059536
 50
272.4062039656050729
 51
283.9208933572566025
  0
ARC
  5
810E
  8
0
 10
4464.3120345963652653
 20
228.799055550678986
 30
0.0
 40
0.041206115763462
 50
285.3009585803072241
 51
313.2977248376985244
  0
ARC
  5
8110
  8
0
 10
4464.2971671084651462
 20
229.1510434121724984
 30
0.0
 40
0.3970881572317728
 50
266.0950703990312718
 51
267.6761126017200922
  0
ARC
  5
8111
  8
0
 10
4464.2766576127478402
 20
228.9103392382064044
 30
0.0
 40
0.1555993061059536
 50
256.0791066427436817
 51
267.5937960343949271
  0
ENDSEC
  0
EOF
