  0
SECTION
  2
HEADER
  9
$ACADVER
  1
AC1009
  9
$INSBASE
 10
4473.639892902131578
 20
226.4134372289761075
 30
0.0
  9
$EXTMIN
 10
4471.5785196294591515
 20
226.0000514021760978
 30
0.0
  9
$EXTMAX
 10
4474.1263705397977901
 20
235.6059917938976014
 30
0.0
  9
$LIMMIN
 10
0.0
 20
0.0
  9
$LIMMAX
 10
11.6929133858000007
 20
8.2677165353999982
  9
$ORTHOMODE
 70
     0
  9
$REGENMODE
 70
     1
  9
$FILLMODE
 70
     1
  9
$QTEXTMODE
 70
     0
  9
$MIRRTEXT
 70
     0
  9
$DRAGMODE
 70
     2
  9
$LTSCALE
 40
0.6431102362
  9
$OSMODE
 70
  4095
  9
$ATTMODE
 70
     1
  9
$TEXTSIZE
 40
0.2
  9
$TRACEWID
 40
0.05
  9
$TEXTSTYLE
  7
STANDARD
  9
$CLAYER
  8
0
  9
$CELTYPE
  6
BYLAYER
  9
$CECOLOR
 62
   256
  9
$DIMSCALE
 40
1.0
  9
$DIMASZ
 40
0.1875
  9
$DIMEXO
 40
0.0625
  9
$DIMDLI
 40
0.4443307087
  9
$DIMRND
 40
0.0
  9
$DIMDLE
 40
0.0
  9
$DIMEXE
 40
0.125
  9
$DIMTP
 40
0.01
  9
$DIMTM
 40
0.01
  9
$DIMTXT
 40
2.0
  9
$DIMCEN
 40
0.1052362205
  9
$DIMTSZ
 40
0.0
  9
$DIMTOL
 70
     1
  9
$DIMLIM
 70
     0
  9
$DIMTIH
 70
     1
  9
$DIMTOH
 70
     1
  9
$DIMSE1
 70
     0
  9
$DIMSE2
 70
     0
  9
$DIMTAD
 70
     0
  9
$DIMZIN
 70
     0
  9
$DIMBLK
  1

  9
$DIMASO
 70
     1
  9
$DIMSHO
 70
     1
  9
$DIMPOST
  1
\X
  9
$DIMAPOST
  1

  9
$DIMALT
 70
     1
  9
$DIMALTD
 70
     2
  9
$DIMALTF
 40
25.3999999999999986
  9
$DIMLFAC
 40
1.0
  9
$DIMTOFL
 70
     0
  9
$DIMTVP
 40
0.0
  9
$DIMTIX
 70
     0
  9
$DIMSOXD
 70
     0
  9
$DIMSAH
 70
     0
  9
$DIMBLK1
  1

  9
$DIMBLK2
  1

  9
$DIMSTYLE
  2
STANDARD
  9
$DIMCLRD
 70
     0
  9
$DIMCLRE
 70
     0
  9
$DIMCLRT
 70
     0
  9
$DIMTFAC
 40
1.0
  9
$DIMGAP
 40
0.09
  9
$LUNITS
 70
     2
  9
$LUPREC
 70
     4
  9
$SKETCHINC
 40
0.1
  9
$FILLETRAD
 40
0.0
  9
$AUNITS
 70
     0
  9
$AUPREC
 70
     0
  9
$MENU
  1
.
  9
$ELEVATION
 40
0.0
  9
$PELEVATION
 40
0.0
  9
$THICKNESS
 40
0.0
  9
$LIMCHECK
 70
     0
  9
$BLIPMODE
 70
     0
  9
$CHAMFERA
 40
0.0
  9
$CHAMFERB
 40
0.0
  9
$SKPOLY
 70
     0
  9
$TDCREATE
 40
2458059.843368056230247
  9
$TDUPDATE
 40
2459054.1444097221828997
  9
$TDINDWG
 40
0.3175070602
  9
$TDUSRTIMER
 40
0.3175070602
  9
$USRTIMER
 70
     1
  9
$ANGBASE
 50
0.0
  9
$ANGDIR
 70
     0
  9
$PDMODE
 70
     0
  9
$PDSIZE
 40
0.3125
  9
$PLINEWID
 40
0.0
  9
$COORDS
 70
     1
  9
$SPLFRAME
 70
     0
  9
$SPLINETYPE
 70
     6
  9
$SPLINESEGS
 70
     8
  9
$ATTDIA
 70
     1
  9
$ATTREQ
 70
     1
  9
$HANDLING
 70
     1
  9
$HANDSEED
  5
8E84
  9
$SURFTAB1
 70
     6
  9
$SURFTAB2
 70
     6
  9
$SURFTYPE
 70
     6
  9
$SURFU
 70
     6
  9
$SURFV
 70
     6
  9
$UCSNAME
  2

  9
$UCSORG
 10
0.0
 20
0.0
 30
0.0
  9
$UCSXDIR
 10
1.0
 20
0.0
 30
0.0
  9
$UCSYDIR
 10
0.0
 20
1.0
 30
0.0
  9
$PUCSNAME
  2

  9
$PUCSORG
 10
0.0
 20
0.0
 30
0.0
  9
$PUCSXDIR
 10
1.0
 20
0.0
 30
0.0
  9
$PUCSYDIR
 10
0.0
 20
1.0
 30
0.0
  9
$USERI1
 70
     0
  9
$USERI2
 70
     0
  9
$USERI3
 70
     0
  9
$USERI4
 70
     0
  9
$USERI5
 70
     0
  9
$USERR1
 40
0.0
  9
$USERR2
 40
0.0
  9
$USERR3
 40
0.0
  9
$USERR4
 40
0.0
  9
$USERR5
 40
0.0
  9
$WORLDVIEW
 70
     1
  9
$SHADEDGE
 70
     3
  9
$SHADEDIF
 70
    70
  9
$TILEMODE
 70
     1
  9
$MAXACTVP
 70
    64
  9
$PLIMCHECK
 70
     0
  9
$PEXTMIN
 10
1.0000000000000000E+20
 20
1.0000000000000000E+20
 30
1.0000000000000000E+20
  9
$PEXTMAX
 10
-1.0000000000000000E+20
 20
-1.0000000000000000E+20
 30
-1.0000000000000000E+20
  9
$PLIMMIN
 10
0.0
 20
0.0
  9
$PLIMMAX
 10
12.0
 20
9.0
  9
$UNITMODE
 70
     0
  9
$VISRETAIN
 70
     1
  9
$PLINEGEN
 70
     0
  9
$PSLTSCALE
 70
     1
  0
ENDSEC
  0
SECTION
  2
TABLES
  0
TABLE
  2
VPORT
 70
     1
  0
VPORT
  2
*ACTIVE
 70
     0
 10
0.0
 20
0.0
 11
1.0
 21
1.0
 12
38.3966345377539326
 22
1.3456379174485411
 13
0.0
 23
0.0
 14
1.0
 24
1.0
 15
0.0
 25
0.0
 16
0.0
 26
0.0
 36
53.1033482859890427
 17
4434.4558105468740905
 27
229.4573836805882934
 37
0.0
 40
9.7193963806000756
 41
2.6528599605522678
 42
50.0
 43
0.0
 44
0.0
 50
0.0
 51
0.0
 71
     0
 72
   100
 73
     1
 74
     1
 75
     0
 76
     0
 77
     0
 78
     0
  0
ENDTAB
  0
TABLE
  2
LTYPE
 70
     2
  0
LTYPE
  2
CONTINUOUS
 70
     0
  3
Solid line
 72
    65
 73
     0
 40
0.0
  0
LTYPE
  2
PHANTOM2
 70
     0
  3
___ _ _ ___ _ _ ___ _ _ ___ _ _
 72
    65
 73
     6
 40
1.25
 49
0.625
 49
-0.125
 49
0.125
 49
-0.125
 49
0.125
 49
-0.125
  0
ENDTAB
  0
TABLE
  2
LAYER
 70
     2
  0
LAYER
  2
0
 70
     0
 62
   255
  6
CONTINUOUS
  0
LAYER
  2
DEFPOINTS
 70
     0
 62
     7
  6
CONTINUOUS
  0
ENDTAB
  0
TABLE
  2
STYLE
 70
     1
  0
STYLE
  2
STANDARD
 70
     0
 40
0.0
 41
0.8
 50
0.0
 71
     0
 42
0.2
  3
txt
  4

  0
ENDTAB
  0
TABLE
  2
VIEW
 70
     0
  0
ENDTAB
  0
TABLE
  2
UCS
 70
     0
  0
ENDTAB
  0
TABLE
  2
APPID
 70
     9
  0
APPID
  2
ACAD
 70
     0
  0
APPID
  2
ACAD_MLEADERVER
 70
     0
  0
APPID
  2
ACAD_EXEMPT_FROM_CAD_STANDARDS
 70
     0
  0
APPID
  2
ACAD_NAV_VCDISPLAY
 70
     0
  0
APPID
  2
ACAECLAYERSTANDARD
 70
     0
  0
APPID
  2
ACCMTRANSPARENCY
 70
     0
  0
APPID
  2
ACAD_DSTYLE_DIMJAG
 70
     0
  0
APPID
  2
ACAD_DSTYLE_DIMTALN
 70
     0
  0
APPID
  2
ACDBATTR
 70
     0
  0
ENDTAB
  0
TABLE
  2
DIMSTYLE
 70
     1
  0
DIMSTYLE
  2
STANDARD
 70
     0
  3

  4

  5

  6

  7

 40
1.0
 41
0.1875
 42
0.0625
 43
0.38
 44
0.125
 45
0.0
 46
0.0
 47
0.01
 48
0.01
140
0.15625
141
0.09
142
0.0
143
25.3999999999999986
144
1.0
145
0.0
146
1.0
147
0.09
 71
     1
 72
     0
 73
     1
 74
     1
 75
     0
 76
     0
 77
     0
 78
     4
170
     0
171
     2
172
     0
173
     0
174
     0
175
     0
176
     0
177
     0
178
     0
  0
ENDTAB
  0
ENDSEC
  0
SECTION
  2
BLOCKS
  0
BLOCK
  8
0
  2
$MODEL_SPACE
 70
     0
 10
0.0
 20
0.0
 30
0.0
  3
$MODEL_SPACE
  1

  0
ENDBLK
  5
21
  8
0
  0
BLOCK
 67
     1
  8
0
  2
$PAPER_SPACE
 70
     0
 10
0.0
 20
0.0
 30
0.0
  3
$PAPER_SPACE
  1

  0
ENDBLK
  5
1D
 67
     1
  8
0
  0
ENDSEC
  0
SECTION
  2
ENTITIES
  0
ATTDEF
  5
3930
  8
DEFPOINTS
 10
4473.6370658106570772
 20
226.4083789797720954
 30
0.0
 40
0.001
  1
K-15344T
  3

  2
MODELNUMBER
 70
     0
1001
ACDBATTR
1070
     0
1070
     1
  0
ATTDEF
  5
3931
  8
DEFPOINTS
 10
4473.6370658106570772
 20
226.4067123131054018
 30
0.0
 40
0.001
  1
RAIN DUET
  3

  2
TRADENAME
 70
     0
1001
ACDBATTR
1070
     0
1070
     1
  0
ATTDEF
  5
3932
  8
DEFPOINTS
 10
4473.6370658106570772
 20
226.4050456464387082
 30
0.0
 40
0.001
  1
HANDSHOWER
  3

  2
PRODUCT
 70
     0
1001
ACDBATTR
1070
     0
1070
     1
  0
ARC
  5
8C3E
  8
0
 10
4356.821812810634583
 20
225.1531880763517961
 30
0.0
 40
116.3390245184181992
 50
0.6301441960570823
 51
2.8241487964982852
  0
ARC
  5
8C3F
  8
0
 10
4473.1730437158857967
 20
226.4326746484917123
 30
0.0
 40
0.0192423847817561
 50
180.0154531592870057
 51
268.6983662905738015
  0
ARC
  5
8C40
  8
0
 10
4472.1396212577237748
 20
234.7209133142021074
 30
0.0
 40
0.8854304002214137
 50
91.6154633151920592
 51
105.8352242542143955
  0
ARC
  5
8C41
  8
0
 10
4472.1169342229941321
 20
235.5253431380064058
 30
0.0
 40
0.080680723010657
 50
39.7949647629519632
 51
91.6154633151920592
  0
ARC
  5
8C42
  8
0
 10
4467.3472505905428989
 20
231.6871041852390078
 30
0.0
 40
6.2029205302494548
 50
14.14437902391
 51
38.8368032886215815
  0
ARC
  5
8C43
  8
0
 10
4452.9317783530977977
 20
227.1383148177584133
 30
0.0
 40
21.3114476489844584
 50
13.0488900176761504
 51
16.5330759021575915
  0
ARC
  5
8C44
  8
0
 10
4456.6429301336011122
 20
228.5615107798261079
 30
0.0
 40
17.3834501348218389
 50
2.2499183980750681
 51
11.24062695601976
  0
ARC
  5
8C45
  8
0
 10
4337.5270336854546258
 20
222.3301676372016971
 30
0.0
 40
136.6609447350784023
 50
1.7204809662807901
 51
2.899878455598992
  0
ARC
  5
8C46
  8
0
 10
4474.1071791953172578
 20
226.4326372289760911
 30
0.0
 40
0.0192
 50
270.0
 51
1.720480966279162
  0
ARC
  5
8C47
  8
0
 10
4472.1443022995408683
 20
234.7224797874943079
 30
0.0
 40
0.8852144310586623
 50
106.1543763523595061
 51
120.3773055312509968
  0
ARC
  5
8C48
  8
0
 10
4471.7374144931291085
 20
235.4166330685199
 30
0.0
 40
0.0805987062772547
 50
120.3773055312502009
 51
172.2626963612028987
  0
LINE
  5
8C49
  8
0
 10
4471.657549577210375
 20
235.4274841817760944
 30
0.0
 11
4471.6441226768602064
 21
235.3180264266640052
 31
0.0
  0
ARC
  5
8C4A
  8
0
 10
4471.6691928545569681
 20
235.317143555392505
 30
0.0
 40
0.025087520363724
 50
178.0354545016965915
 51
189.7181637129129967
  0
ARC
  5
8C4B
  8
0
 10
4472.9796527429098205
 20
230.8822404035761053
 30
0.0
 40
0.0400031436999985
 50
4.3831900778016193
 51
77.6145011465863774
  0
ARC
  5
8C4C
  8
0
 10
4473.0054269172105705
 20
230.9996097018884882
 30
0.0
 40
0.0801628258888624
 50
219.6100589147318942
 51
257.6145011465864059
  0
LINE
  5
8C4D
  8
0
 10
4472.9436693700108663
 20
230.9485011505653063
 30
0.0
 11
4472.8717296880904541
 21
231.0372956757734073
 31
0.0
  0
ARC
  5
8C4E
  8
0
 10
4472.8815424618323959
 20
231.045791709602014
 30
0.0
 40
0.0129797195391536
 50
195.0668625848454099
 51
220.8864622738857975
  0
LINE
  5
8C4F
  8
0
 10
4471.6529512741890358
 20
235.2833147658380994
 30
0.0
 11
4471.6453175958731663
 21
235.2810819693941937
 31
0.0
  0
ARC
  5
8C50
  8
0
 10
4471.6486336066236618
 20
235.2697449039696949
 30
0.0
 40
0.0118120692403003
 50
106.3038214347895973
 51
180.2936818055106869
  0
LINE
  5
8C51
  8
0
 10
4471.6368216925511661
 20
235.2696843589407081
 30
0.0
 11
4471.6426887937195715
 21
234.960486525432799
 31
0.0
  0
ARC
  5
8C52
  8
0
 10
4473.2818005602402991
 20
230.9663240666887134
 30
0.0
 40
0.2504792032094022
 50
3.890758526823467
 51
40.7940095806350769
  0
ARC
  5
8C53
  8
0
 10
4471.930002763228913
 20
230.874386786237892
 30
0.0
 40
1.6053997719298929
 50
358.8055663707269218
 51
3.890758526823467
  0
ARC
  5
8C54
  8
0
 10
4405.5772025874830433
 20
225.6417502846690866
 30
0.0
 40
68.1564443932425377
 50
0.6487332215476932
 51
4.3749384632878936
  0
LINE
  5
8C55
  8
0
 10
4472.8606254984097177
 20
231.0716542329616061
 30
0.0
 11
4472.7850020446103372
 21
231.0503974386761001
 31
0.0
  0
ARC
  5
8C56
  8
0
 10
4469.8274696747848793
 20
230.1807734460965094
 30
0.0
 40
3.082733139120398
 50
13.6441355459091902
 51
16.3852882389029411
  0
ARC
  5
8C57
  8
0
 10
4472.4033819958776803
 20
230.791705551353914
 30
0.0
 40
0.43562409008121
 50
4.2539982686555131
 51
15.4782539969706097
  0
ARC
  5
8C58
  8
0
 10
4472.5511560535405806
 20
230.7980670976922113
 30
0.0
 40
0.2878223036051024
 50
337.8877061297097839
 51
5.1732423484301142
  0
ARC
  5
8C59
  8
0
 10
4472.6938859120491543
 20
230.7416417369807107
 30
0.0
 40
0.1343585637075929
 50
304.8808092423707876
 51
337.2686517545648144
  0
ARC
  5
8C5A
  8
0
 10
4472.6963298060500165
 20
230.8044360139288074
 30
0.0
 40
0.1883299025164113
 50
236.3329443244226979
 51
293.2664970476329245
  0
ARC
  5
8C5B
  8
0
 10
4472.7196497998756968
 20
230.9052419578343063
 30
0.0
 40
0.2874790928819728
 50
182.7114072535370894
 51
243.6221674693906039
  0
ARC
  5
8C5C
  8
0
 10
4473.0657769072286101
 20
230.874425932878296
 30
0.0
 40
0.6335183480832867
 50
148.5098457295869139
 51
178.4427165490293987
  0
ARC
  5
8C5D
  8
0
 10
4470.9269386784226299
 20
231.9937353418227133
 30
0.0
 40
1.782452954079222
 50
333.7488880204517159
 51
337.4216437499404719
  0
ARC
  5
8C5E
  8
0
 10
4472.2332314621471596
 20
231.4545217878948051
 30
0.0
 40
0.369269526513636
 50
336.8536097857207778
 51
355.324030145185418
  0
LINE
  5
8C5F
  8
0
 10
4471.7652142749775521
 20
233.7025129583832097
 30
0.0
 11
4471.7409053205883538
 21
233.6939381088029108
 31
0.0
  0
ARC
  5
8C60
  8
0
 10
4471.7434688504972655
 20
233.6864930804150902
 30
0.0
 40
0.0078740163377701
 50
109.0000072460023972
 51
154.8070802151962937
  0
LINE
  5
8C61
  8
0
 10
4471.7363438132670126
 20
233.6898447930761051
 30
0.0
 11
4471.7208562051091576
 21
233.656972815821689
 31
0.0
  0
ARC
  5
8C62
  8
0
 10
4471.739847485181599
 20
233.6483106294373044
 30
0.0
 40
0.0208734805855459
 50
155.4816129180682083
 51
200.1817505358810934
  0
LINE
  5
8C63
  8
0
 10
4471.7202555745770951
 20
233.6411092941015966
 30
0.0
 11
4471.7132116584480173
 21
233.6387855249600989
 31
0.0
  0
ARC
  5
8C64
  8
0
 10
4471.7157672722123607
 20
233.6333437800601018
 30
0.0
 40
0.0060119671714405
 50
115.1562195811769982
 51
189.6881037964201084
  0
LINE
  5
8C65
  8
0
 10
4471.709841045126268
 20
233.6323320578698031
 30
0.0
 11
4471.7245121059413577
 21
233.5552398191468058
 31
0.0
  0
LINE
  5
8C66
  8
0
 10
4471.7227329605775594
 20
233.5542810195753134
 30
0.0
 11
4471.6936874871844338
 21
233.5435239668429972
 31
0.0
  0
ARC
  5
8C67
  8
0
 10
4471.7007868612281527
 20
233.5329362712485874
 30
0.0
 40
0.0127475648580081
 50
123.8430629032122994
 51
194.3953545466245885
  0
LINE
  5
8C68
  8
0
 10
4471.6884395275674251
 20
233.5297670818748088
 30
0.0
 11
4471.7527155177285749
 21
233.3056100653925
 31
0.0
  0
ARC
  5
8C69
  8
0
 10
4471.7647028027577107
 20
233.3092705873773127
 30
0.0
 40
0.0125337314307557
 50
196.9809449931561005
 51
269.1690081602915257
  0
LINE
  5
8C6A
  8
0
 10
4471.7645210256114296
 20
233.296738174176113
 30
0.0
 11
4471.7800155469667516
 21
233.3000315494296046
 31
0.0
  0
LINE
  5
8C6B
  8
0
 10
4471.7363438132670126
 20
233.6898447930761051
 30
0.0
 11
4472.0842944109199379
 21
232.4688350796375005
 31
0.0
  0
LINE
  5
8C6C
  8
0
 10
4472.1132425873320244
 20
232.4706635930382106
 30
0.0
 11
4472.0937828758060277
 21
232.4661709646507006
 31
0.0
  0
ARC
  5
8C6D
  8
0
 10
4472.0914123961092628
 20
232.4746732580082096
 30
0.0
 40
0.0088265602776372
 50
230.3451452145932876
 51
285.5787222286260203
  0
LINE
  5
8C6E
  8
0
 10
4472.085779626184376
 20
232.4678776661056929
 30
0.0
 11
4472.0552166327506711
 21
232.4875794724248124
 31
0.0
  0
ARC
  5
8C6F
  8
0
 10
4472.0682084445634246
 20
232.5042464564820932
 30
0.0
 40
0.0211323088938449
 50
198.7052827824836925
 51
232.0645558247825875
  0
LINE
  5
8C70
  8
0
 10
4472.0481923291672501
 20
232.497469318176087
 30
0.0
 11
4472.0416178449895597
 21
232.4958301151438889
 31
0.0
  0
ARC
  5
8C71
  8
0
 10
4472.0402104974209578
 20
232.501750762866692
 30
0.0
 40
0.006085613919236
 50
192.7169837427271091
 51
283.37115324606782
  0
LINE
  5
8C72
  8
0
 10
4472.0225210390317443
 20
232.5150908980290012
 30
0.0
 11
4471.9905996637207863
 21
232.5083082662937954
 31
0.0
  0
ARC
  5
8C73
  8
0
 10
4471.9909040046468363
 20
232.5211126389052936
 30
0.0
 40
0.0128079889667629
 50
201.87132807722341
 51
268.6384207547870915
  0
LINE
  5
8C74
  8
0
 10
4471.9790178990151617
 20
232.5163413629421996
 30
0.0
 11
4471.9179241970168732
 21
232.7295174402100031
 31
0.0
  0
ARC
  5
8C75
  8
0
 10
4471.9295122631647246
 20
232.7319440595931042
 30
0.0
 40
0.0118394154697524
 50
109.9455812742651943
 51
191.8272207282282125
  0
ARC
  5
8C76
  8
0
 10
4471.9916328726212669
 20
232.7688297060470006
 30
0.0
 40
0.0584072397685339
 50
178.8410685535629057
 51
201.545470897750107
  0
ARC
  5
8C77
  8
0
 10
4471.9410803820082947
 20
232.7683849444416921
 30
0.0
 40
0.0080096013408094
 50
100.7378278051127012
 51
168.2864939091564054
  0
LINE
  5
8C78
  8
0
 10
4471.8868668151671955
 20
232.9580887052906064
 30
0.0
 11
4471.8656125745928875
 21
232.9535622457312911
 31
0.0
  0
ARC
  5
8C79
  8
0
 10
4471.8628400465822779
 20
232.9653173532283859
 30
0.0
 40
0.0120776431407526
 50
196.4842449663003094
 51
283.2710917370167181
  0
LINE
  5
8C7A
  8
0
 10
4471.851258821189731
 20
232.9618903016921081
 30
0.0
 11
4471.8172283294234148
 21
233.0807474140366082
 31
0.0
  0
ARC
  5
8C7B
  8
0
 10
4471.8288946790080445
 20
233.0839754248949021
 30
0.0
 40
0.0121047001919392
 50
108.4227609622825952
 51
195.466455925171914
  0
LINE
  5
8C7C
  8
0
 10
4471.8250692795500072
 20
233.0954597657874956
 30
0.0
 11
4471.8433822412980589
 21
233.102125138826608
 31
0.0
  0
LINE
  5
8C7D
  8
0
 10
4471.7816729522473906
 20
233.2983516952793934
 30
0.0
 11
4471.7680475667084465
 21
233.293391307154792
 31
0.0
  0
ARC
  5
8C7E
  8
0
 10
4471.7719851228766856
 20
233.281975434447304
 30
0.0
 40
0.0120758642858405
 50
109.0303083249273044
 51
195.5468668427988064
  0
LINE
  5
8C7F
  8
0
 10
4471.7603510959279447
 20
233.2787387825943881
 30
0.0
 11
4471.8058361962948766
 21
233.1205432134543116
 31
0.0
  0
ARC
  5
8C80
  8
0
 10
4471.8168873325021195
 20
233.1254471111184898
 30
0.0
 40
0.0120903194239188
 50
203.929064054293093
 51
283.0272981171656852
  0
LINE
  5
8C81
  8
0
 10
4471.8196126749935502
 20
233.1136679629287869
 30
0.0
 11
4471.8394683202368469
 21
233.1178884105956115
 31
0.0
  0
ARC
  5
8C82
  8
0
 10
4471.7339732694526901
 20
233.4260406128015006
 30
0.0
 40
0.0154131772115691
 50
126.8813078828253964
 51
185.998627204509603
  0
LINE
  5
8C83
  8
0
 10
4471.7247229077293014
 20
233.4383693126407877
 30
0.0
 11
4471.7504417998197823
 21
233.4476605697500133
 31
0.0
  0
ARC
  5
8C84
  8
0
 10
4471.7491261445547934
 20
233.451674869365803
 30
0.0
 40
0.004224399387568
 50
288.1461517864988764
 51
9.4768627433706314
  0
ARC
  5
8C85
  8
0
 10
4471.755084718888611
 20
233.4526695193270882
 30
0.0
 40
0.0018166217722856
 50
114.7894255711870954
 51
189.4768627435232133
  0
ARC
  5
8C86
  8
0
 10
4471.7522444943142546
 20
233.4515529649115138
 30
0.0
 40
0.0034597542099515
 50
27.9719170266123811
 51
53.0743837942361409
  0
ARC
  5
8C87
  8
0
 10
4471.6609681204827211
 20
233.408988592630692
 30
0.0
 40
0.1041682272652865
 50
15.4316194585173907
 51
25.0994103224685006
  0
ARC
  5
8C88
  8
0
 10
4471.2095931356207075
 20
233.2710563996093072
 30
0.0
 40
0.5761160934157599
 50
13.1389638480054796
 51
16.7100824073398684
  0
ARC
  5
8C89
  8
0
 10
4471.0980657441386938
 20
233.2237765540970997
 30
0.0
 40
0.6957789341143399
 50
6.6657641890601793
 51
14.8430248958598305
  0
ARC
  5
8C8A
  8
0
 10
4471.7553253005444276
 20
233.3005886843943983
 30
0.0
 40
0.0340461875716027
 50
353.6330867904811157
 51
6.6657641890601793
  0
ARC
  5
8C8B
  8
0
 10
4471.7879192593645712
 20
233.2969517438583011
 30
0.0
 40
0.0012499455908728
 50
304.3147224857224842
 51
353.6330867904471233
  0
ARC
  5
8C8C
  8
0
 10
4471.7885331386305552
 20
233.2964848356376137
 30
0.0
 40
0.0005727262431794
 50
225.1965372995402106
 51
279.1184057886476921
  0
ARC
  5
8C8D
  8
0
 10
4471.7820275547401252
 20
233.2938574984248987
 30
0.0
 40
0.0064936184901871
 50
20.0002206016442798
 51
108.0498206129346954
  0
LINE
  5
8C8E
  8
0
 10
4471.8247813187335851
 20
233.1147665920667009
 30
0.0
 11
4471.8310200981532034
 21
233.097625686648513
 31
0.0
  0
LINE
  5
8C8F
  8
0
 10
4472.6850787011317152
 20
231.3411837687085892
 30
0.0
 11
4472.8536063693109099
 21
231.0696812447442881
 31
0.0
  0
LINE
  5
8C90
  8
0
 10
4473.273732411365927
 20
226.3937521895761051
 30
0.0
 11
4473.273732411365927
 21
226.2982068300761114
 31
0.0
  0
LINE
  5
8C91
  8
0
 10
4473.273732411365927
 20
226.2982068300761114
 30
0.0
 11
4473.236736260167163
 21
226.2788422427761077
 31
0.0
  0
LINE
  5
8C92
  8
0
 10
4473.2735780712673659
 20
226.2426606137761098
 30
0.0
 11
4473.236134891666552
 21
226.2621920091760899
 31
0.0
  0
ARC
  5
8C93
  8
0
 10
4473.2540122393593265
 20
226.3937376373770007
 30
0.0
 40
0.0197201773767375
 50
0.0422805357588062
 51
87.381795000583125
  0
ARC
  5
8C94
  8
0
 10
4473.2402123685824336
 20
226.2703807168304877
 30
0.0
 40
0.0091477183517588
 50
112.3335163645403014
 51
243.5294958815854898
  0
LINE
  5
8C95
  8
0
 10
4473.273732411365927
 20
226.1712311880484094
 30
0.0
 11
4473.273732411365927
 21
226.1554406417394034
 31
0.0
  0
LINE
  5
8C96
  8
0
 10
4473.2737324460003947
 20
226.2267607996284937
 30
0.0
 11
4473.2368292040173401
 21
226.20744484302611
 31
0.0
  0
LINE
  5
8C97
  8
0
 10
4473.273732411365927
 20
226.1712311880484094
 30
0.0
 11
4473.2362278355158196
 21
226.1907946094260922
 31
0.0
  0
ARC
  5
8C98
  8
0
 10
4473.2403053124317012
 20
226.19898331708049
 30
0.0
 40
0.0091477183517588
 50
112.3335163645403014
 51
243.5294958815854898
  0
LINE
  5
8C99
  8
0
 10
4473.273732411365927
 20
226.1554406417394034
 30
0.0
 11
4473.2368534352672214
 21
226.1361373864260997
 31
0.0
  0
LINE
  5
8C9A
  8
0
 10
4473.273732411365927
 20
226.0999363711368915
 30
0.0
 11
4473.2362520667684294
 21
226.1194871528261103
 31
0.0
  0
ARC
  5
8C9B
  8
0
 10
4473.2403295436815824
 20
226.1276758604803945
 30
0.0
 40
0.0091477183517588
 50
112.3335163645403014
 51
243.5294958815854898
  0
LINE
  5
8C9C
  8
0
 10
4473.2737324460003947
 20
226.2267607996284937
 30
0.0
 11
4473.2735780712673659
 21
226.2426606137761098
 31
0.0
  0
LINE
  5
8C9D
  8
0
 10
4474.0079843471512504
 20
226.3343757272236871
 30
0.0
 11
4474.0449804983672948
 21
226.315011139915697
 31
0.0
  0
LINE
  5
8C9E
  8
0
 10
4474.0081386872670919
 20
226.2788295109156991
 30
0.0
 11
4474.0455818668660868
 21
226.2983609063155939
 31
0.0
  0
ARC
  5
8C9F
  8
0
 10
4474.0415043899520242
 20
226.3065496139699917
 30
0.0
 40
0.0091477183517588
 50
296.4705041184145102
 51
67.6664836354596844
  0
LINE
  5
8CA0
  8
0
 10
4474.0079843471658023
 20
226.2074000851879987
 30
0.0
 11
4474.0079843471658023
 21
226.1916095388789927
 31
0.0
  0
LINE
  5
8CA1
  8
0
 10
4474.0079843125340631
 20
226.2629296967681114
 30
0.0
 11
4474.0448875545171177
 21
226.243613740165614
 31
0.0
  0
LINE
  5
8CA2
  8
0
 10
4474.0079843471658023
 20
226.2074000851879987
 30
0.0
 11
4474.0454889230168192
 21
226.2269635065655962
 31
0.0
  0
ARC
  5
8CA3
  8
0
 10
4474.0414114461009376
 20
226.235152214219994
 30
0.0
 40
0.0091477183517588
 50
296.4705041184145102
 51
67.6664836354596844
  0
LINE
  5
8CA4
  8
0
 10
4474.0079843471658023
 20
226.1916095388789927
 30
0.0
 11
4474.0448633232672364
 21
226.172306283565689
 31
0.0
  0
LINE
  5
8CA5
  8
0
 10
4474.0080215121670335
 20
226.1361246545656911
 30
0.0
 11
4474.0454646917669379
 21
226.1556560499656996
 31
0.0
  0
ARC
  5
8CA6
  8
0
 10
4474.0413872148519658
 20
226.1638447576200122
 30
0.0
 40
0.0091477183517588
 50
296.4705041184145102
 51
67.6664836354596844
  0
LINE
  5
8CA7
  8
0
 10
4474.0079843125340631
 20
226.2629296967681114
 30
0.0
 11
4474.0081386872670919
 21
226.2788295109156991
 31
0.0
  0
LINE
  5
8CA8
  8
0
 10
4474.0077644175662499
 20
226.1358443602879902
 30
0.0
 11
4474.0077644175662499
 21
226.1200538139790126
 31
0.0
  0
LINE
  5
8CA9
  8
0
 10
4474.0077644175662499
 20
226.1200538139790126
 30
0.0
 11
4474.0446433936667745
 21
226.1007505586657089
 31
0.0
  0
LINE
  5
8CAA
  8
0
 10
4474.0079843798657748
 20
226.0646642817800114
 30
0.0
 11
4474.045244762168295
 21
226.0841003250656911
 31
0.0
  0
ARC
  5
8CAB
  8
0
 10
4474.0411672852524134
 20
226.0922890327200037
 30
0.0
 40
0.0091477183517588
 50
296.4705041184145102
 51
67.6664836354596844
  0
LINE
  5
8CAC
  8
0
 10
4473.2934174506672207
 20
226.0000514021760978
 30
0.0
 11
4473.9882993404671652
 21
226.0000514021760978
 31
0.0
  0
ARC
  5
8CAD
  8
0
 10
4472.7789343221120362
 20
227.0046489904279952
 30
0.0
 40
1.0573660438946491
 50
297.3401344621170779
 51
297.9015324168883012
  0
ARC
  5
8CAE
  8
0
 10
4473.2688172589905662
 20
226.0571472448293946
 30
0.0
 40
0.0092851876502857
 50
117.3401344621178026
 51
237.622547293466198
  0
ARC
  5
8CAF
  8
0
 10
4473.301202799289058
 20
226.1082231070624005
 30
0.0
 40
0.0697630093974697
 50
237.622547293466198
 51
246.8108876366096922
  0
ARC
  5
8CB0
  8
0
 10
4473.2934174506672207
 20
226.0197364415761001
 30
0.0
 40
0.0196850393999997
 50
179.9999997647940972
 51
270.0
  0
LINE
  5
8CB1
  8
0
 10
4473.273732411365927
 20
226.0440962385312105
 30
0.0
 11
4473.273732411365927
 21
226.0197364415761001
 31
0.0
  0
LINE
  5
8CB2
  8
0
 10
4473.273732411365927
 20
226.0999363711368915
 30
0.0
 11
4473.273732411365927
 21
226.0701984558079971
 31
0.0
  0
ARC
  5
8CB3
  8
0
 10
4473.9882993404671652
 20
226.0197364415761001
 30
0.0
 40
0.0196850393999988
 50
270.0
 51
0.0000000000032569
  0
LINE
  5
8CB4
  8
0
 10
4474.0079843798657748
 20
226.0197364415761001
 30
0.0
 11
4474.0079843798657748
 21
226.0646642817800114
 31
0.0
  0
LINE
  5
8CB5
  8
0
 10
4474.0079843474240988
 20
226.3937521878901862
 30
0.0
 11
4474.0079843471512504
 21
226.3343757272236871
 31
0.0
  0
ARC
  5
8CB6
  8
0
 10
4474.0277045194306993
 20
226.3937376356005871
 30
0.0
 40
0.0197201773767375
 50
92.6180920238046355
 51
179.9577192011333864
  0
LINE
  5
8CB7
  8
0
 10
4473.273732411365927
 20
226.2982068300761114
 30
0.0
 11
4474.0079843471512504
 21
226.3343757272236871
 31
0.0
  0
LINE
  5
8CB8
  8
0
 10
4473.2735780712673659
 20
226.2426606137761098
 30
0.0
 11
4474.0081386872670919
 21
226.2788295109156991
 31
0.0
  0
LINE
  5
8CB9
  8
0
 10
4473.2737324460003947
 20
226.2267607996284937
 30
0.0
 11
4474.0079843125340631
 21
226.2629296967681114
 31
0.0
  0
LINE
  5
8CBA
  8
0
 10
4473.273732411365927
 20
226.1712311880484094
 30
0.0
 11
4474.0079843471658023
 21
226.2074000851879987
 31
0.0
  0
LINE
  5
8CBB
  8
0
 10
4473.273732411365927
 20
226.1554406417394034
 30
0.0
 11
4474.0079843471658023
 21
226.1916095388789927
 31
0.0
  0
LINE
  5
8CBC
  8
0
 10
4473.273732411365927
 20
226.0999363711368915
 30
0.0
 11
4474.0080215121670335
 21
226.1361246545656911
 31
0.0
  0
LINE
  5
8CBD
  8
0
 10
4473.273732411365927
 20
226.0701984558079971
 30
0.0
 11
4474.0077644175662499
 21
226.1200538139790126
 31
0.0
  0
LINE
  5
8CBE
  8
0
 10
4474.0079843798657748
 20
226.0646642817800114
 30
0.0
 11
4473.273732411365927
 21
226.0197364415761001
 31
0.0
  0
ARC
  5
8CBF
  8
0
 10
4472.6231617572402683
 20
231.4328334662104965
 30
0.0
 40
0.0234412808395399
 50
113.6354555318767012
 51
199.3252667801293114
  0
ARC
  5
8CC0
  8
0
 10
4474.1077115969137594
 20
231.9534504957522927
 30
0.0
 40
1.5966324065221531
 50
199.3252667801293114
 51
202.3665985920704884
  0
ARC
  5
8CC1
  8
0
 10
4472.6526421214975926
 20
231.3564243630592046
 30
0.0
 40
0.0238964069009716
 50
206.178954081228909
 51
286.7478611391420031
  0
ARC
  5
8CC2
  8
0
 10
4472.2583282353316463
 20
231.1751540487566956
 30
0.0
 40
0.479792058034504
 50
21.048562537274389
 51
37.3617553764741928
  0
LINE
  5
8CC3
  8
0
 10
4472.706106814604027
 20
231.3474757331065064
 30
0.0
 11
4472.6595281225763756
 21
231.333541591113601
 31
0.0
  0
LINE
  5
8CC4
  8
0
 10
4472.6137637723259104
 20
231.4543083707960989
 30
0.0
 11
4472.63967649346705
 21
231.4663136698760866
 31
0.0
  0
ARC
  5
8CC5
  8
0
 10
4472.5041545093290551
 20
231.6202859387506976
 30
0.0
 40
0.0236811894108802
 50
112.8144143512021031
 51
208.182892412862202
  0
ARC
  5
8CC6
  8
0
 10
4474.2091678393790062
 20
232.1581412685590919
 30
0.0
 40
1.81111303715851
 50
197.6469227655452983
 51
200.1905721702142102
  0
ARC
  5
8CC7
  8
0
 10
4472.5308859199785729
 20
231.5428732254086128
 30
0.0
 40
0.0236735806433048
 50
204.5241036491077011
 51
284.8939236990362929
  0
LINE
  5
8CC8
  8
0
 10
4472.521222321798632
 20
231.6532976393210106
 30
0.0
 11
4472.494972187512758
 21
231.6421144452961016
 31
0.0
  0
LINE
  5
8CC9
  8
0
 10
4472.5840709729673108
 20
231.5324843478761068
 30
0.0
 11
4472.5369707476593248
 21
231.5199949979293876
 31
0.0
  0
ARC
  5
8CCA
  8
0
 10
4471.590692925788062
 20
231.0924701113875983
 30
0.0
 40
1.0864678885865049
 50
23.8908238485691484
 51
31.0772553430902612
  0
ARC
  5
8CCB
  8
0
 10
4472.5494765701287179
 20
231.6935820939843893
 30
0.0
 40
0.0242573368847143
 50
114.1370695177994037
 51
195.5018805055599955
  0
ARC
  5
8CCC
  8
0
 10
4473.0280120983443339
 20
231.8263086552711911
 30
0.0
 40
0.5208583757839395
 50
195.5018805055599955
 51
205.0049348817271948
  0
ARC
  5
8CCD
  8
0
 10
4472.5772742970648324
 20
231.6177737129063132
 30
0.0
 40
0.0242693049457253
 50
208.6335036193466124
 51
287.6054334016258167
  0
ARC
  5
8CCE
  8
0
 10
4472.3765326830607592
 20
231.5520882616511926
 30
0.0
 40
0.2592275148166162
 50
12.4594086311797998
 51
42.7337150747146097
  0
LINE
  5
8CCF
  8
0
 10
4472.5395572365214321
 20
231.7157186071135015
 30
0.0
 11
4472.5669392879863153
 21
231.7279979806527024
 31
0.0
  0
LINE
  5
8CD0
  8
0
 10
4472.5846147978627414
 20
231.5946411339195095
 30
0.0
 11
4472.6296551564446418
 21
231.6080160535462937
 31
0.0
  0
ARC
  5
8CD1
  8
0
 10
4472.7245574734588445
 20
231.7143152785158122
 30
0.0
 40
0.1962805453791579
 50
194.2427397457213942
 51
205.7531879180156977
  0
ARC
  5
8CD2
  8
0
 10
4472.3796298698553073
 20
231.5887857794963054
 30
0.0
 40
0.1728924090195359
 50
13.4610071890731895
 51
26.534920474651301
  0
ARC
  5
8CD3
  8
0
 10
4472.4620114628623924
 20
231.7692979063924099
 30
0.0
 40
0.0242573368847143
 50
114.1370695177994037
 51
195.5018805055599955
  0
ARC
  5
8CD4
  8
0
 10
4472.9405469910780084
 20
231.9020244676792117
 30
0.0
 40
0.5208583757839395
 50
195.5018805055599955
 51
205.0049348817271948
  0
ARC
  5
8CD5
  8
0
 10
4472.4898091898003258
 20
231.6934895253143054
 30
0.0
 40
0.0242693049457253
 50
208.6335036193466124
 51
287.6054334016258167
  0
ARC
  5
8CD6
  8
0
 10
4472.2890675757962526
 20
231.6278040740592132
 30
0.0
 40
0.2592275148166162
 50
19.0368068686111087
 51
42.7337150747146097
  0
LINE
  5
8CD7
  8
0
 10
4472.4520921292541971
 20
231.7914344195214937
 30
0.0
 11
4472.4794741807199898
 21
231.8037137930606946
 31
0.0
  0
LINE
  5
8CD8
  8
0
 10
4472.4971496905973254
 20
231.6703569463275016
 30
0.0
 11
4472.5282448401612783
 21
231.6795907788122975
 31
0.0
  0
ARC
  5
8CD9
  8
0
 10
4472.637092366194338
 20
231.7900310909238044
 30
0.0
 40
0.1962805453791579
 50
194.2427397457213942
 51
205.7531879180156977
  0
ARC
  5
8CDA
  8
0
 10
4472.2921647625880723
 20
231.6645015919044113
 30
0.0
 40
0.1728924090195359
 50
13.4610071890731895
 51
26.534920474651301
  0
ARC
  5
8CDB
  8
0
 10
4472.4318357412394107
 20
232.1007503107273919
 30
0.0
 40
0.0242573368847143
 50
114.1370695177994037
 51
195.5018805055599955
  0
ARC
  5
8CDC
  8
0
 10
4472.9103712694550268
 20
232.2334768720141938
 30
0.0
 40
0.5208583757839395
 50
195.5018805055599955
 51
205.0049348817271948
  0
ARC
  5
8CDD
  8
0
 10
4472.4596334681782537
 20
232.0249419296494011
 30
0.0
 40
0.0242693049457253
 50
208.6335036193466124
 51
287.6054334016258167
  0
ARC
  5
8CDE
  8
0
 10
4472.258891854173271
 20
231.9592564783941953
 30
0.0
 40
0.2592275148166162
 50
12.4594086311797998
 51
42.7337150747146097
  0
LINE
  5
8CDF
  8
0
 10
4472.4219164076321249
 20
232.1228868238565894
 30
0.0
 11
4472.4492984590979177
 21
232.135166197395705
 31
0.0
  0
LINE
  5
8CE0
  8
0
 10
4472.4669739689752532
 20
232.0018093506625121
 30
0.0
 11
4472.5120143275562441
 21
232.0151842702892964
 31
0.0
  0
ARC
  5
8CE1
  8
0
 10
4472.6069166445713563
 20
232.1214834952587864
 30
0.0
 40
0.1962805453791579
 50
194.2427397457213942
 51
205.7531879180156977
  0
ARC
  5
8CE2
  8
0
 10
4472.2619890409660002
 20
231.9959539962393933
 30
0.0
 40
0.1728924090195359
 50
13.4610071890731895
 51
26.534920474651301
  0
ARC
  5
8CE3
  8
0
 10
4472.3782143564467333
 20
232.0594144192872932
 30
0.0
 40
0.0242573368847143
 50
114.1370695177994037
 51
195.5018805055599955
  0
ARC
  5
8CE4
  8
0
 10
4472.8567498846623494
 20
232.192140980574095
 30
0.0
 40
0.5208583757839395
 50
195.5018805055599955
 51
205.0049348817271948
  0
ARC
  5
8CE5
  8
0
 10
4472.4060120833846668
 20
231.9836060382091887
 30
0.0
 40
0.0242693049457253
 50
208.6335036193466124
 51
287.6054334016258167
  0
ARC
  5
8CE6
  8
0
 10
4472.2052704693796841
 20
231.9179205869540965
 30
0.0
 40
0.2592275148166162
 50
12.4594086311797998
 51
19.0521777661804812
  0
ARC
  5
8CE7
  8
0
 10
4472.2052704693796841
 20
231.9179205869540965
 30
0.0
 40
0.2592275148166162
 50
35.47549513905075
 51
42.7337150747146097
  0
LINE
  5
8CE8
  8
0
 10
4472.3682950228394475
 20
232.0815509324164054
 30
0.0
 11
4472.3956770743043307
 21
232.0938303059556063
 31
0.0
  0
LINE
  5
8CE9
  8
0
 10
4472.4133525841816663
 20
231.9604734592222997
 30
0.0
 11
4472.4583929427635667
 21
231.9738483788491976
 31
0.0
  0
ARC
  5
8CEA
  8
0
 10
4472.5532952597777694
 20
232.0801476038186877
 30
0.0
 40
0.1962805453791579
 50
194.2427397457213942
 51
205.7531879180156977
  0
ARC
  5
8CEB
  8
0
 10
4472.2083676561733228
 20
231.9546181047992093
 30
0.0
 40
0.1728924090195359
 50
13.4610071890731895
 51
26.534920474651301
  0
LINE
  5
8CEC
  8
0
 10
4472.3812282209655677
 20
231.9579390321761139
 30
0.0
 11
4472.3540451662656778
 21
231.9474678169696915
 31
0.0
  0
ARC
  5
8CED
  8
0
 10
4472.3619569536576819
 20
231.9255990897767106
 30
0.0
 40
0.0232559155655727
 50
109.8893868956676982
 51
201.4439133050433099
  0
ARC
  5
8CEE
  8
0
 10
4474.3604690536240014
 20
232.5016820452680975
 30
0.0
 40
2.1030403377772791
 50
196.1391694691133978
 51
198.472392358997098
  0
ARC
  5
8CEF
  8
0
 10
4472.3864528578578756
 20
231.8471653595755981
 30
0.0
 40
0.0238125763305285
 50
209.7792785109562885
 51
282.8959902510429743
  0
LINE
  5
8CF0
  8
0
 10
4472.3917673938485677
 20
231.8239534122490113
 30
0.0
 11
4472.4389558387665602
 21
231.8347046463761103
 31
0.0
  0
ARC
  5
8CF1
  8
0
 10
4471.8201946059552938
 20
231.6199917159285064
 30
0.0
 40
0.6549558044112518
 50
19.1370041559925994
 51
31.0633109436640709
  0
LINE
  5
8CF2
  8
0
 10
4472.4378322107759232
 20
231.767353128427601
 30
0.0
 11
4472.4098102666002887
 21
231.7609435404118869
 31
0.0
  0
ARC
  5
8CF3
  8
0
 10
4472.4045431179665684
 20
231.7839708776760972
 30
0.0
 40
0.0236220471999997
 50
196.9999999920813991
 51
282.8838857475279269
  0
LINE
  5
8CF4
  8
0
 10
4472.3819532418838207
 20
231.7770644594708926
 30
0.0
 11
4472.3579736384463104
 21
231.8554982082092977
 31
0.0
  0
ARC
  5
8CF5
  8
0
 10
4472.3771659190297214
 20
231.8615403415780065
 30
0.0
 40
0.0201209097619379
 50
178.4815687830337936
 51
197.4750977798790927
  0
LINE
  5
8CF6
  8
0
 10
4472.3293439846784167
 20
232.1420633466946981
 30
0.0
 11
4472.3021609299767078
 21
232.1315921314883042
 31
0.0
  0
ARC
  5
8CF7
  8
0
 10
4472.3100727173687119
 20
232.1097234042952948
 30
0.0
 40
0.0232559155655727
 50
109.8893868956676982
 51
201.4439133050433099
  0
ARC
  5
8CF8
  8
0
 10
4474.3085848173350314
 20
232.6858063597867101
 30
0.0
 40
2.1030403377772791
 50
196.1391694691133978
 51
198.472392358997098
  0
ARC
  5
8CF9
  8
0
 10
4472.3345686215679962
 20
232.0312896740940971
 30
0.0
 40
0.0238125763305285
 50
209.7792785109562885
 51
282.8959902510429743
  0
LINE
  5
8CFA
  8
0
 10
4472.3398831575614167
 20
232.0080777267675955
 30
0.0
 11
4472.3671929499196267
 21
232.0142998850128038
 31
0.0
  0
ARC
  5
8CFB
  8
0
 10
4471.7683103696663238
 20
231.8041160304470907
 30
0.0
 40
0.6549558044112518
 50
24.7549980089824508
 51
31.0633109436640709
  0
ARC
  5
8CFC
  8
0
 10
4472.266132267219291
 20
232.4545748557953004
 30
0.0
 40
0.0238710812106707
 50
110.9608784621784991
 51
190.5274969463681884
  0
ARC
  5
8CFD
  8
0
 10
4472.5608539490431212
 20
232.5093446029574977
 30
0.0
 40
0.323638649405778
 50
190.5274969463681884
 51
207.5754506620444886
  0
ARC
  5
8CFE
  8
0
 10
4472.2905355671637153
 20
232.3772745504776935
 30
0.0
 40
0.0242706043003332
 50
226.9901430518015104
 51
283.2582569937580956
  0
ARC
  5
8CFF
  8
0
 10
4472.1558487305210292
 20
232.3655564883576119
 30
0.0
 40
0.182571648423133
 50
359.3894461888517071
 51
42.726596061563157
  0
ARC
  5
8D00
  8
0
 10
4472.228155725414581
 20
232.3931997306563062
 30
0.0
 40
0.0232201521567095
 50
109.3937308624613962
 51
195.7323657835364088
  0
ARC
  5
8D01
  8
0
 10
4474.583140096594434
 20
233.0565916251040903
 30
0.0
 40
2.469858702110185
 50
195.7323657835364088
 51
197.7099792603301012
  0
ARC
  5
8D02
  8
0
 10
4472.2521021281017966
 20
232.314627437234293
 30
0.0
 40
0.0236990129748284
 50
203.2744101593769983
 51
282.5294004247355133
  0
ARC
  5
8D03
  8
0
 10
4472.1726513806161165
 20
232.3009936638931094
 30
0.0
 40
0.128303678261845
 50
0.0745168661681198
 51
23.9178295669121113
  0
LINE
  5
8D04
  8
0
 10
4472.2961018036658061
 20
232.3536508495760984
 30
0.0
 11
4472.3383737854101128
 21
232.3636110098761094
 31
0.0
  0
LINE
  5
8D05
  8
0
 10
4472.2575928553669655
 20
232.4768662658761116
 30
0.0
 11
4472.2899658126671056
 21
232.4894314861761018
 31
0.0
  0
LINE
  5
8D06
  8
0
 10
4472.2204452898658928
 20
232.4151023480760898
 30
0.0
 11
4472.2484132567969937
 21
232.4249479844353914
 31
0.0
  0
LINE
  5
8D07
  8
0
 10
4472.2572434051598975
 20
232.2914928206137972
 30
0.0
 11
4472.3009549503658491
 21
232.301160531076107
 31
0.0
  0
ARC
  5
8D08
  8
0
 10
4472.2899721909871005
 20
232.6110465343666931
 30
0.0
 40
0.0273822777779486
 50
114.5900682173861043
 51
204.9320471513206883
  0
ARC
  5
8D09
  8
0
 10
4472.598156461722283
 20
232.6702654296335879
 30
0.0
 40
0.34044976475785
 50
191.9962524846287124
 51
205.2328390177225117
  0
ARC
  5
8D0A
  8
0
 10
4472.311226600291775
 20
232.5353420219994973
 30
0.0
 40
0.0233819105913656
 50
205.889990461731486
 51
285.6430242749412969
  0
ARC
  5
8D0B
  8
0
 10
4472.3459994943868878
 20
232.5336201141753065
 30
0.0
 40
0.0165472831316923
 50
318.3059725090143957
 51
11.6791729644567592
  0
ARC
  5
8D0C
  8
0
 10
4472.1476393180137165
 20
232.5137023313608893
 30
0.0
 40
0.2158227503951011
 50
6.1889857121402709
 51
38.1779309539671701
  0
ARC
  5
8D0D
  8
0
 10
4472.3132677176336074
 20
232.6445183720682905
 30
0.0
 40
0.0047869132692535
 50
32.6877437016750534
 51
105.7219369451900945
  0
ARC
  5
8D0E
  8
0
 10
4472.3916726455108801
 20
232.6035594708253029
 30
0.0
 40
0.121602091803121
 50
188.0364527971329096
 51
206.6451398540428954
  0
ARC
  5
8D0F
  8
0
 10
4472.1725681868210813
 20
232.5351448498547029
 30
0.0
 40
0.1112854102312671
 50
7.1651142890013801
 51
27.5164783621890585
  0
LINE
  5
8D10
  8
0
 10
4472.3175313687670496
 20
232.5128261689760905
 30
0.0
 11
4472.358355475166718
 21
232.5226136470760991
 31
0.0
  0
LINE
  5
8D11
  8
0
 10
4472.2785777905673967
 20
232.6359454655760999
 30
0.0
 11
4472.3119706124671211
 21
232.6491261976761109
 31
0.0
  0
ARC
  5
8D12
  8
0
 10
4472.1255511636081792
 20
232.7521713156808971
 30
0.0
 40
0.0233773126502638
 50
117.4053246909620043
 51
196.1815105285540142
  0
ARC
  5
8D13
  8
0
 10
4472.9568413223132666
 20
232.9623855420178984
 30
0.0
 40
0.8808210758617298
 50
194.2440965050847979
 51
200.384048798785301
  0
ARC
  5
8D14
  8
0
 10
4472.1477337123924372
 20
232.6733333382277067
 30
0.0
 40
0.0242706043003332
 50
226.9901430518015104
 51
283.2582569937580956
  0
ARC
  5
8D15
  8
0
 10
4471.9821750052396965
 20
232.65604734680619
 30
0.0
 40
0.2134638915979185
 50
0.9723476173506121
 51
37.7126308677482527
  0
LINE
  5
8D16
  8
0
 10
4472.1532999488954374
 20
232.6497096373261115
 30
0.0
 11
4472.1955719306379251
 21
232.6596697976260941
 31
0.0
  0
LINE
  5
8D17
  8
0
 10
4472.1147910005956874
 20
232.7729250536260963
 30
0.0
 11
4472.1510438782670462
 21
232.7866235189761142
 31
0.0
  0
ARC
  5
8D18
  8
0
 10
4472.1370733031853888
 20
232.9175390641765091
 30
0.0
 40
0.0273822777779486
 50
114.5900682173861043
 51
204.9320471513192956
  0
ARC
  5
8D19
  8
0
 10
4472.4452575739187523
 20
232.9767579594434039
 30
0.0
 40
0.34044976475785
 50
191.9962524846287124
 51
205.2328390177225117
  0
ARC
  5
8D1A
  8
0
 10
4472.1583277124900633
 20
232.8418345518093133
 30
0.0
 40
0.0233819105913656
 50
205.889990461731486
 51
285.6430242749412969
  0
ARC
  5
8D1B
  8
0
 10
4472.1931006065851761
 20
232.8401126439850941
 30
0.0
 40
0.0165472831316923
 50
318.3059725090143957
 51
11.6791729644567592
  0
ARC
  5
8D1C
  8
0
 10
4471.9947404302110954
 20
232.8201948611707053
 30
0.0
 40
0.2158227503951011
 50
6.1889857121402709
 51
38.1779309539671701
  0
ARC
  5
8D1D
  8
0
 10
4472.1603688298328052
 20
232.9510109018781066
 30
0.0
 40
0.0047869132692535
 50
32.6877437016750534
 51
105.7219369451900945
  0
ARC
  5
8D1E
  8
0
 10
4472.2387737577091684
 20
232.9100520006350905
 30
0.0
 40
0.121602091803121
 50
188.0364527971329096
 51
206.6451398540428954
  0
ARC
  5
8D1F
  8
0
 10
4472.0196692990175507
 20
232.8416373796644905
 30
0.0
 40
0.1112854102312671
 50
7.1651142890013801
 51
27.5164783621890585
  0
LINE
  5
8D20
  8
0
 10
4472.1646324809653379
 20
232.8193186987859065
 30
0.0
 11
4472.2054565873650063
 21
232.8291061768858867
 31
0.0
  0
LINE
  5
8D21
  8
0
 10
4472.1256789027647756
 20
232.9424379953858875
 30
0.0
 11
4472.1590717246654094
 21
232.9556187274858985
 31
0.0
  0
ARC
  5
8D22
  8
0
 10
4472.1269828786871585
 20
233.1798577660667036
 30
0.0
 40
0.0273822777779486
 50
114.5900682173861043
 51
204.9320471513206883
  0
ARC
  5
8D23
  8
0
 10
4472.4351671494214315
 20
233.2390766613335984
 30
0.0
 40
0.34044976475785
 50
191.9962524846287124
 51
205.2328390177225117
  0
ARC
  5
8D24
  8
0
 10
4472.1482372879909235
 20
233.1041532536995931
 30
0.0
 40
0.0233819105913656
 50
205.889990461731486
 51
285.6430242749412969
  0
ARC
  5
8D25
  8
0
 10
4472.1830101820869459
 20
233.1024313458754023
 30
0.0
 40
0.0165472831316923
 50
318.3059725090143957
 51
11.6791729644567592
  0
ARC
  5
8D26
  8
0
 10
4471.9846500057137746
 20
233.0825135630608997
 30
0.0
 40
0.2158227503951011
 50
6.1889857121402709
 51
38.1779309539671701
  0
ARC
  5
8D27
  8
0
 10
4472.1502784053345749
 20
233.213329603768301
 30
0.0
 40
0.0047869132692535
 50
32.6877437016750534
 51
105.7219369451900945
  0
ARC
  5
8D28
  8
0
 10
4472.2286833332118476
 20
233.1723707025253134
 30
0.0
 40
0.121602091803121
 50
188.0364527971329096
 51
206.6451398540428954
  0
ARC
  5
8D29
  8
0
 10
4472.0095788745202299
 20
233.1039560815547134
 30
0.0
 40
0.1112854102312671
 50
7.1651142890013801
 51
27.5164783621890585
  0
LINE
  5
8D2A
  8
0
 10
4472.1545420564671076
 20
233.0816374006761009
 30
0.0
 11
4472.195366162866776
 21
233.0914248787761096
 31
0.0
  0
LINE
  5
8D2B
  8
0
 10
4472.1155884782665453
 20
233.2047566972761103
 30
0.0
 11
4472.1489813001680886
 21
233.217937429376093
 31
0.0
  0
ARC
  5
8D2C
  8
0
 10
4471.8189911873014353
 20
234.2613546854323943
 30
0.0
 40
0.0262131391869018
 50
108.6759317500413005
 51
199.2349040884209899
  0
ARC
  5
8D2D
  8
0
 10
4472.1724569333127874
 20
234.3070782702201029
 30
0.0
 40
0.3821020042043557
 50
188.1788650315280051
 51
200.5395186788072124
  0
ARC
  5
8D2E
  8
0
 10
4471.8359543536716956
 20
234.1841260236654989
 30
0.0
 40
0.0240314435889848
 50
207.5350446706846128
 51
279.2574831575083181
  0
ARC
  5
8D2F
  8
0
 10
4471.700706937043833
 20
234.2098879389293984
 30
0.0
 40
0.176620505905084
 50
345.4161368550692828
 51
30.7993431846129404
  0
ARC
  5
8D30
  8
0
 10
4471.7479004275237457
 20
234.2701870723392972
 30
0.0
 40
0.0236197151848941
 50
107.3116774996668994
 51
190.7025713640103106
  0
ARC
  5
8D31
  8
0
 10
4472.4402874798297489
 20
234.4010471472113863
 30
0.0
 40
0.7282644408428095
 50
190.7025713640103106
 51
197.5698788791864047
  0
ARC
  5
8D32
  8
0
 10
4471.7656482706570387
 20
234.1874292746676076
 30
0.0
 40
0.0206129319595936
 50
197.569878879187911
 51
287.9989157903053751
  0
ARC
  5
8D33
  8
0
 10
4471.7221986196427679
 20
234.2647785832172929
 30
0.0
 40
0.0757603718877442
 50
8.3985511391235281
 51
33.8225206251563293
  0
ARC
  5
8D34
  8
0
 10
4471.7608891221407248
 20
234.1910943033196872
 30
0.0
 40
0.0460272572762107
 50
336.5807100695544136
 51
7.507652477190879
  0
ARC
  5
8D35
  8
0
 10
4471.6025734170407304
 20
235.0215575122088865
 30
0.0
 40
0.0244296363305004
 50
95.369740559257437
 51
190.0633843536402026
  0
ARC
  5
8D36
  8
0
 10
4471.62714142439836
 20
234.9317136238132946
 30
0.0
 40
0.0236336181968095
 50
104.8466084141875996
 51
189.5538431223548912
  0
ARC
  5
8D37
  8
0
 10
4472.7330950510322509
 20
235.1178553705053957
 30
0.0
 40
1.145142500964589
 50
189.5538431223548912
 51
193.9921293652010093
  0
ARC
  5
8D38
  8
0
 10
4471.6400303402606369
 20
234.8454832105369121
 30
0.0
 40
0.0186536836838644
 50
193.9921293652309942
 51
289.6189540260357944
  0
ARC
  5
8D39
  8
0
 10
4471.2478053911981988
 20
234.8775319587346075
 30
0.0
 40
0.4294037220837978
 50
353.842738325399921
 51
12.07405010494635
  0
ARC
  5
8D3A
  8
0
 10
4471.7020259847977286
 20
234.6696712688504931
 30
0.0
 40
0.0245077852006062
 50
105.9324399077013936
 51
195.9588738666244865
  0
ARC
  5
8D3B
  8
0
 10
4472.1002747890752289
 20
234.7163027774595037
 30
0.0
 40
0.4251749530525855
 50
187.21104391427059
 51
198.9065339407119097
  0
ARC
  5
8D3C
  8
0
 10
4471.7187073361337752
 20
234.5906380071731121
 30
0.0
 40
0.0239513522102276
 50
210.3514240863057978
 51
277.7686998066124033
  0
ARC
  5
8D3D
  8
0
 10
4471.4975059325779512
 20
234.6178297520125966
 30
0.0
 40
0.2588913869171299
 50
349.6053730785633888
 51
19.9623255836089193
  0
ARC
  5
8D3E
  8
0
 10
4471.6590193541733242
 20
234.3752489719041989
 30
0.0
 40
0.0211953355057777
 50
103.039790265865804
 51
194.0994690922410086
  0
ARC
  5
8D3F
  8
0
 10
4473.9939642240497051
 20
234.9617235842088121
 30
0.0
 40
2.4286670417249061
 50
194.0994690922410086
 51
196.1598168116815089
  0
ARC
  5
8D40
  8
0
 10
4471.6805691262461551
 20
234.2913792152297958
 30
0.0
 40
0.0201076275587809
 50
196.1598168116798888
 51
289.866654182778575
  0
ARC
  5
8D41
  8
0
 10
4470.9723188836305781
 20
234.2588004519708136
 30
0.0
 40
0.7441347730574503
 50
1.453299675566651
 51
11.8281023532749501
  0
ARC
  5
8D42
  8
0
 10
4471.6436602441553987
 20
234.4374848022735023
 30
0.0
 40
0.023622047325759
 50
109.1162400324040931
 51
195.0007590146755092
  0
ARC
  5
8D43
  8
0
 10
4471.7136189581460712
 20
234.1917153030570091
 30
0.0
 40
0.0233699073426313
 50
108.465013133894999
 51
197.0348805879910969
  0
ARC
  5
8D44
  8
0
 10
4472.9587006872870916
 20
234.5028913644057127
 30
0.0
 40
1.306716380350968
 50
194.085833630395598
 51
197.9974335813689947
  0
ARC
  5
8D45
  8
0
 10
4471.736527404984372
 20
234.1137760589319896
 30
0.0
 40
0.0252693836371476
 50
215.3680673711681948
 51
277.9476660313180787
  0
ARC
  5
8D46
  8
0
 10
4471.9855742469071629
 20
233.0490643221490927
 30
0.0
 40
1.0682889425932891
 50
101.6096099467592069
 51
103.288608242998194
  0
ARC
  5
8D47
  8
0
 10
4471.5177370070432517
 20
234.1162772925223123
 30
0.0
 40
0.2537048091059141
 50
355.3019458527131746
 51
11.4932133791201103
  0
ARC
  5
8D48
  8
0
 10
4471.6230571152782431
 20
234.7088800792922996
 30
0.0
 40
0.0236956162657944
 50
107.2116956508668011
 51
192.0773384928176029
  0
ARC
  5
8D49
  8
0
 10
4473.1157103436407851
 20
235.0282597524333994
 30
0.0
 40
1.5501349487515439
 50
192.0773384928176029
 51
195.3979440633868876
  0
ARC
  5
8D4A
  8
0
 10
4471.6377927134763013
 20
234.6212304690918131
 30
0.0
 40
0.0171922364986763
 50
195.3979440633806064
 51
295.4547894850481953
  0
ARC
  5
8D4B
  8
0
 10
4470.5384135372260062
 20
234.5874668126521101
 30
0.0
 40
1.135335208261276
 50
1.1562756579313389
 51
8.0212929477594397
  0
ARC
  5
8D4C
  8
0
 10
4479.7011646107512206
 20
235.3120902112812871
 30
0.0
 40
8.0624388863833651
 50
183.4367023762123949
 51
184.0352707038912001
  0
ARC
  5
8D4D
  8
0
 10
4471.6655292744781036
 20
234.55825826716449
 30
0.0
 40
0.0229954439354354
 50
106.2769423460537013
 51
196.3040988502256994
  0
ARC
  5
8D4E
  8
0
 10
4470.8444301340214224
 20
234.3180883111108983
 30
0.0
 40
0.8325075696472971
 50
10.4297101837965993
 51
16.3040988502257385
  0
ARC
  5
8D4F
  8
0
 10
4471.681785060927723
 20
234.4722205700807081
 30
0.0
 40
0.0189147855140147
 50
190.4297101837966011
 51
291.8451501278648834
  0
ARC
  5
8D50
  8
0
 10
4471.2543110377773701
 20
234.4871369208179885
 30
0.0
 40
0.4649668458538802
 50
356.6236801019148857
 51
8.5733222439489012
  0
ARC
  5
8D51
  8
0
 10
4471.8726011645494509
 20
234.6647943618208956
 30
0.0
 40
0.1906338221029752
 50
186.0264235483543018
 51
197.8779517124588097
  0
ARC
  5
8D52
  8
0
 10
4471.5203816035345881
 20
234.5902349293536133
 30
0.0
 40
0.1715421908408714
 50
5.3641474575522521
 51
18.5402278032693992
  0
LINE
  5
8D53
  8
0
 10
4471.6002872301796742
 20
235.0458799397374037
 30
0.0
 11
4471.6408606976137889
 21
235.0568276893831978
 31
0.0
  0
LINE
  5
8D54
  8
0
 10
4471.5785196294591515
 20
235.0172887378930966
 30
0.0
 11
4471.5941636095858485
 21
234.9368074370781869
 31
0.0
  0
ARC
  5
8D55
  8
0
 10
4471.617386023304789
 20
234.9413125790464107
 30
0.0
 40
0.023655375775224
 50
190.9789867687703975
 51
238.3361176305099889
  0
LINE
  5
8D56
  8
0
 10
4471.6210857314672467
 20
234.9545582400760964
 30
0.0
 11
4471.6677098763657341
 21
234.967352779676105
 31
0.0
  0
LINE
  5
8D57
  8
0
 10
4471.6462935606668907
 20
234.8279124397760995
 30
0.0
 11
4471.6747319891674124
 21
234.831475075576094
 31
0.0
  0
LINE
  5
8D58
  8
0
 10
4471.6160455103290587
 20
234.7315145579975137
 30
0.0
 11
4471.6624603823856887
 21
234.7458927440760874
 31
0.0
  0
LINE
  5
8D59
  8
0
 10
4471.645181915367175
 20
234.6057071739761
 30
0.0
 11
4471.6735175619660367
 21
234.6103772498761089
 31
0.0
  0
LINE
  5
8D5A
  8
0
 10
4471.6952985071666262
 20
234.6932376130760929
 30
0.0
 11
4471.7407612039060041
 21
234.7062158362761011
 31
0.0
  0
LINE
  5
8D5B
  8
0
 10
4471.7219449437670846
 20
234.5669064844761067
 30
0.0
 11
4471.7521484963672265
 21
234.5711187797760999
 31
0.0
  0
LINE
  5
8D5C
  8
0
 10
4471.6590841015658953
 20
234.5803320114760879
 30
0.0
 11
4471.6941185715686515
 21
234.5905615046615083
 31
0.0
  0
LINE
  5
8D5D
  8
0
 10
4471.6888232409673947
 20
234.4546640005760878
 30
0.0
 11
4471.7184708191671234
 21
234.4597532562760875
 31
0.0
  0
LINE
  5
8D5E
  8
0
 10
4471.6359243608821998
 20
234.4598042384189966
 30
0.0
 11
4471.6631038613686542
 21
234.4692246127422095
 31
0.0
  0
LINE
  5
8D5F
  8
0
 10
4471.6542370999668492
 20
234.3958977561761117
 30
0.0
 11
4471.7006534207921504
 21
234.4113303259304075
 31
0.0
  0
LINE
  5
8D60
  8
0
 10
4471.6874023465661594
 20
234.2724682716761038
 30
0.0
 11
4471.716214290167045
 21
234.2776733056761032
 31
0.0
  0
LINE
  5
8D61
  8
0
 10
4471.7408719216664394
 20
234.2927368184761008
 30
0.0
 11
4471.7851377416673131
 21
234.3065339837854992
 31
0.0
  0
LINE
  5
8D62
  8
0
 10
4471.7720176459661161
 20
234.1678250908761072
 30
0.0
 11
4471.8031246937662218
 21
234.1728004545761053
 31
0.0
  0
LINE
  5
8D63
  8
0
 10
4471.7062171121660867
 20
234.2138820629760971
 30
0.0
 11
4471.7340764197169847
 21
234.2231847443019035
 31
0.0
  0
LINE
  5
8D64
  8
0
 10
4471.8105973451665704
 20
234.2861875684760946
 30
0.0
 11
4471.8524179053183616
 21
234.3003234696213894
 31
0.0
  0
LINE
  5
8D65
  8
0
 10
4471.8398203273673062
 20
234.1604075808760967
 30
0.0
 11
4471.8716367523666122
 21
234.1654154604761118
 31
0.0
  0
LINE
  5
8D66
  8
0
 10
4471.6208431795666911
 20
234.4313706642761019
 30
0.0
 11
4471.6422550385668728
 21
234.3551467412760871
 31
0.0
  0
LINE
  5
8D67
  8
0
 10
4471.6903253951832085
 20
234.407896448087314
 30
0.0
 11
4471.6847249071115584
 21
234.4535356452628889
 31
0.0
  0
LINE
  5
8D68
  8
0
 10
4471.6716723780882603
 20
234.5840075826745021
 30
0.0
 11
4471.6694036468852573
 21
234.6096992242094075
 31
0.0
  0
ARC
  5
8D69
  8
0
 10
4471.963952346318365
 20
233.7499003074217967
 30
0.0
 40
0.0246545201447512
 50
107.998230366910505
 51
185.9227360980098069
  0
ARC
  5
8D6A
  8
0
 10
4472.2247509802591594
 20
233.776955824065908
 30
0.0
 40
0.2868527818602415
 50
185.9227360980098069
 51
204.0499667452099004
  0
ARC
  5
8D6B
  8
0
 10
4471.982133306050855
 20
233.668681852552595
 30
0.0
 40
0.0211714149077144
 50
204.0499667452099004
 51
288.0065682702557979
  0
ARC
  5
8D6C
  8
0
 10
4471.8653609076518478
 20
233.691246955100695
 30
0.0
 40
0.1623800919947345
 50
347.0009348304615742
 51
35.9653063518452001
  0
LINE
  5
8D6D
  8
0
 10
4471.9563344048183353
 20
233.7733483847597995
 30
0.0
 11
4471.9967869310121387
 21
233.7866120150547999
 31
0.0
  0
LINE
  5
8D6E
  8
0
 10
4471.988677941268179
 20
233.6485473905763968
 30
0.0
 11
4472.0235798043668183
 21
233.6547219636761099
 31
0.0
  0
ARC
  5
8D6F
  8
0
 10
4472.0668871396110262
 20
233.7348571376431039
 30
0.0
 40
0.1212354366676641
 50
184.9733050587771004
 51
203.76347120280289
  0
ARC
  5
8D70
  8
0
 10
4471.8376694483331448
 20
233.6761388221297011
 30
0.0
 40
0.1186717342258486
 50
4.7684402392649821
 51
23.9683360223272892
  0
ARC
  5
8D71
  8
0
 10
4471.8621776551171934
 20
233.8738857218218072
 30
0.0
 40
0.0246545201447512
 50
107.998230366910505
 51
185.9227360980098069
  0
ARC
  5
8D72
  8
0
 10
4472.1229762890588972
 20
233.9009412384660038
 30
0.0
 40
0.2868527818602415
 50
185.9227360980098069
 51
204.0499667452099004
  0
ARC
  5
8D73
  8
0
 10
4471.8803586148496834
 20
233.7926672669526056
 30
0.0
 40
0.0211714149077144
 50
204.0499667452099004
 51
288.0065682702557979
  0
ARC
  5
8D74
  8
0
 10
4471.7635862164534046
 20
233.8152323695007055
 30
0.0
 40
0.1623800919947345
 50
347.0009348304615742
 51
35.9653063518452001
  0
LINE
  5
8D75
  8
0
 10
4471.8545597136171637
 20
233.89733379915981
 30
0.0
 11
4471.895012239810967
 21
233.9105974294548105
 31
0.0
  0
LINE
  5
8D76
  8
0
 10
4471.8869032500679168
 20
233.7725328049764073
 30
0.0
 11
4471.9218051131683751
 21
233.778707378076092
 31
0.0
  0
ARC
  5
8D77
  8
0
 10
4471.965112448410764
 20
233.858842552043086
 30
0.0
 40
0.1212354366676641
 50
184.9733050587771004
 51
203.76347120280289
  0
ARC
  5
8D78
  8
0
 10
4471.7358947571328827
 20
233.8001242365297117
 30
0.0
 40
0.1186717342258486
 50
4.7684402392649821
 51
23.9683360223272892
  0
ARC
  5
8D79
  8
0
 10
4471.7969832296175809
 20
233.9065347698218034
 30
0.0
 40
0.0246545201447512
 50
107.998230366910505
 51
185.9227360980098069
  0
ARC
  5
8D7A
  8
0
 10
4472.0577818635601943
 20
233.933590286466
 30
0.0
 40
0.2868527818602415
 50
185.9227360980098069
 51
204.0499667452099004
  0
ARC
  5
8D7B
  8
0
 10
4471.8151641893509805
 20
233.8253163149526017
 30
0.0
 40
0.0211714149077144
 50
204.0499667452099004
 51
288.0065682702557979
  0
ARC
  5
8D7C
  8
0
 10
4471.6983917909519732
 20
233.8478814175007017
 30
0.0
 40
0.1623800919947345
 50
347.0009348304615742
 51
35.9653063518452001
  0
LINE
  5
8D7D
  8
0
 10
4471.7893652881166418
 20
233.9299828471598062
 30
0.0
 11
4471.8298178143122641
 21
233.9432464774548919
 31
0.0
  0
LINE
  5
8D7E
  8
0
 10
4471.8217088245692139
 20
233.8051818529764034
 30
0.0
 11
4471.8566106876669437
 21
233.8113564260760882
 31
0.0
  0
ARC
  5
8D7F
  8
0
 10
4471.8999180229111516
 20
233.8914916000431106
 30
0.0
 40
0.1212354366676641
 50
184.9733050587771004
 51
203.76347120280289
  0
ARC
  5
8D80
  8
0
 10
4471.6707003316323608
 20
233.8327732845297078
 30
0.0
 40
0.1186717342258486
 50
4.7684402392649821
 51
23.9683360223272892
  0
ARC
  5
8D81
  8
0
 10
4471.993001624918179
 20
233.4083350760718076
 30
0.0
 40
0.0246545201447512
 50
107.998230366910505
 51
185.9227360980098069
  0
ARC
  5
8D82
  8
0
 10
4472.2538002588598829
 20
233.4353905927160042
 30
0.0
 40
0.2868527818602415
 50
185.9227360980098069
 51
204.0499667452099004
  0
ARC
  5
8D83
  8
0
 10
4472.0111825846497595
 20
233.327116621202606
 30
0.0
 40
0.0211714149077144
 50
204.0499667452099004
 51
288.0065682702557979
  0
ARC
  5
8D84
  8
0
 10
4471.8944101862516618
 20
233.3496817237507059
 30
0.0
 40
0.1623800919947345
 50
347.0009348304615742
 51
35.9653063518452001
  0
LINE
  5
8D85
  8
0
 10
4471.9853836834172398
 20
233.4317831534098104
 30
0.0
 11
4472.0258362096119527
 21
233.4450467837048109
 31
0.0
  0
LINE
  5
8D86
  8
0
 10
4472.0177272198689025
 20
233.3069821592264077
 30
0.0
 11
4472.0526290829657228
 21
233.3131567323260924
 31
0.0
  0
ARC
  5
8D87
  8
0
 10
4472.0959364182099307
 20
233.3932919062930864
 30
0.0
 40
0.1212354366676641
 50
184.9733050587771004
 51
203.76347120280289
  0
ARC
  5
8D88
  8
0
 10
4471.8667187269311398
 20
233.334573590779712
 30
0.0
 40
0.1186717342258486
 50
4.7684402392649821
 51
23.9683360223272892
  0
ARC
  5
8D89
  8
0
 10
4472.0137833611988754
 20
233.1494908006185085
 30
0.0
 40
0.0253024695350771
 50
115.7236268572384006
 51
184.4865054375036948
  0
ARC
  5
8D8A
  8
0
 10
4473.0398043051500281
 20
233.3999771148062052
 30
0.0
 40
1.081136796628599
 50
193.5043170772624137
 51
198.2129692120209086
  0
ARC
  5
8D8B
  8
0
 10
4472.034185470823104
 20
233.0703796941893131
 30
0.0
 40
0.0229150324857896
 50
201.2675540850648019
 51
272.3994951848242181
  0
ARC
  5
8D8C
  8
0
 10
4471.8411329995142296
 20
233.0591158232057012
 30
0.0
 40
0.238407798302147
 50
359.8049221354420979
 51
32.0273991808806215
  0
LINE
  5
8D8D
  8
0
 10
4472.0028013146184094
 20
233.1722857478098092
 30
0.0
 11
4472.0432538408122127
 21
233.1855493781048096
 31
0.0
  0
LINE
  5
8D8E
  8
0
 10
4472.035144851068253
 20
233.0474847536264065
 30
0.0
 11
4472.0795394159658827
 21
233.0583041055760987
 31
0.0
  0
ARC
  5
8D8F
  8
0
 10
4471.898507134306783
 20
233.543120903426086
 30
0.0
 40
0.0233773126502638
 50
117.4053246909620043
 51
196.1815105285540142
  0
ARC
  5
8D90
  8
0
 10
4472.7297972930127798
 20
233.7533351297632009
 30
0.0
 40
0.8808210758617298
 50
194.2440965050847979
 51
200.384048798785301
  0
ARC
  5
8D91
  8
0
 10
4471.9206896830901314
 20
233.4642829259730092
 30
0.0
 40
0.0242706043003332
 50
226.9901430518015104
 51
283.2582569937580956
  0
ARC
  5
8D92
  8
0
 10
4471.7551309759383003
 20
233.4469969345514926
 30
0.0
 40
0.2134638915979185
 50
0.9723476173506121
 51
37.7126308677482527
  0
LINE
  5
8D93
  8
0
 10
4471.9262559195940412
 20
233.4406592250714141
 30
0.0
 11
4471.9685279013383479
 21
233.4506193853713967
 31
0.0
  0
LINE
  5
8D94
  8
0
 10
4471.8877469712942911
 20
233.5638746413713989
 30
0.0
 11
4471.9239998489647405
 21
233.5775731067213883
 31
0.0
  0
ARC
  5
8D95
  8
0
 10
4471.7085403304008651
 20
233.9407729311514004
 30
0.0
 40
0.0167517384813902
 50
107.1709332471724991
 51
210.8494553245257919
  0
ARC
  5
8D96
  8
0
 10
4471.7678990721969967
 20
233.7321527120427902
 30
0.0
 40
0.0157480331422222
 50
195.9802666401824069
 51
283.4999979147784757
  0
ARC
  5
8D97
  8
0
 10
4471.7744523068586204
 20
233.7115033072608128
 30
0.0
 40
0.0060625787332072
 50
88.694443792124531
 51
118.3293369262292032
  0
ARC
  5
8D98
  8
0
 10
4471.7743985963716113
 20
233.7091465710238083
 30
0.0
 40
0.0084199269271091
 50
68.606360722858895
 51
88.694443792124531
  0
ARC
  5
8D99
  8
0
 10
4470.3866536432251451
 20
233.6548094976714935
 30
0.0
 40
1.392205441489758
 50
2.5597196587277748
 51
13.0790720616993301
  0
ARC
  5
8D9A
  8
0
 10
4480.2952646969060879
 20
208.3095816025254976
 30
0.0
 40
27.0480216471103105
 50
108.433130787200497
 51
108.5205664136233992
  0
LINE
  5
8D9B
  8
0
 10
4471.6941586680341061
 20
233.9321829061387916
 30
0.0
 11
4471.752759597043223
 21
233.7278171797892981
 31
0.0
  0
LINE
  5
8D9C
  8
0
 10
4471.7265466658436708
 20
234.0905612663287059
 30
0.0
 11
4471.738508517363698
 21
233.9684474914616885
 31
0.0
  0
LINE
  5
8D9D
  8
0
 10
4471.7055877240482005
 20
234.2757535588264943
 30
0.0
 11
4471.7134968947302696
 21
234.2163129021915893
 31
0.0
  0
LINE
  5
8D9E
  8
0
 10
4472.6203909017303886
 20
231.4573787033216945
 30
0.0
 11
4472.5801699208741411
 21
231.5313025389434927
 31
0.0
  0
ARC
  5
8D9F
  8
0
 10
4472.308104674565584
 20
231.4507841867761044
 30
0.0
 40
0.2942777028002723
 50
358.5833597361682905
 51
9.0883185048330741
  0
LINE
  5
8DA0
  8
0
 10
4472.5175278086117032
 20
231.651723687075588
 30
0.0
 11
4472.5066379774998495
 21
231.6731745321260973
 31
0.0
  0
LINE
  5
8DA1
  8
0
 10
4472.4490193558813189
 20
231.7897826213998087
 30
0.0
 11
4472.4286274537671488
 21
231.8323508706760947
 31
0.0
  0
LINE
  5
8DA2
  8
0
 10
4472.3712996994408968
 20
231.9541144551841967
 30
0.0
 11
4472.3460464790077822
 21
232.0094819542642881
 31
0.0
  0
LINE
  5
8DA3
  8
0
 10
4472.3031640975250411
 20
232.1319785627925967
 30
0.0
 11
4472.2574133428552159
 21
232.2915304055244974
 31
0.0
  0
LINE
  5
8DA4
  8
0
 10
4472.2218156395665574
 20
232.4156743500761024
 30
0.0
 11
4472.1546180459272364
 21
232.6500202084700106
 31
0.0
  0
LINE
  5
8DA5
  8
0
 10
4472.1188819984099609
 20
232.7746466169523956
 30
0.0
 11
4472.0403875438978503
 21
233.0487624446909933
 31
0.0
  0
LINE
  5
8DA6
  8
0
 10
4472.004683821935032
 20
233.1729029869154033
 30
0.0
 11
4471.9278015297722959
 21
233.4410234030561071
 31
0.0
  0
LINE
  5
8DA7
  8
0
 10
4471.8919591878211577
 20
233.5654662640463073
 30
0.0
 11
4471.8232368318831504
 21
233.8054521764497053
 31
0.0
  0
LINE
  5
8DA8
  8
0
 10
4471.7877618405600515
 20
233.9293998381006929
 30
0.0
 11
4471.7419397093199223
 21
234.0892006002210053
 31
0.0
  0
ARC
  5
8DA9
  8
0
 10
4472.2099339793339823
 20
232.190593789649995
 30
0.0
 40
0.0157480314605658
 50
195.9999999423883992
 51
283.5000003712260082
  0
LINE
  5
8DAA
  8
0
 10
4472.194795999953385
 20
232.1862530439130126
 30
0.0
 11
4471.7604851797614174
 21
233.7008748714067963
 31
0.0
  0
ARC
  5
8DAB
  8
0
 10
4472.2564967137277563
 20
232.1793755522064941
 30
0.0
 40
0.0060603762342201
 50
43.9705114802405106
 51
97.7704243459659637
  0
LINE
  5
8DAC
  8
0
 10
4472.2136102842523542
 20
232.1752808775486017
 30
0.0
 11
4472.2556773257847453
 21
232.1853802806336944
 31
0.0
  0
ARC
  5
8DAD
  8
0
 10
4479.8725277979883685
 20
235.8918713694150995
 30
0.0
 40
8.4669305503657242
 50
204.618250105596104
 51
206.433510341548299
  0
ARC
  5
8DAE
  8
0
 10
4472.1566180457093651
 20
232.3765285462841916
 30
0.0
 40
0.0157480313050228
 50
195.9999993865272074
 51
283.5066610280971986
  0
ARC
  5
8DAF
  8
0
 10
4472.1782978846104015
 20
232.3787743502398939
 30
0.0
 40
0.0212501510189129
 50
336.2376047811579269
 51
27.3306580828004897
  0
ARC
  5
8DB0
  8
0
 10
4471.4058837488810241
 20
232.1613403353726142
 30
0.0
 40
0.8232610851315401
 50
16.0194754091653309
 51
32.2853510943061295
  0
ARC
  5
8DB1
  8
0
 10
4472.0988348343416874
 20
232.5999113873220949
 30
0.0
 40
0.0032477269398255
 50
20.9741684206702104
 51
107.3908161931079945
  0
ARC
  5
8DB2
  8
0
 10
4472.1491434207391649
 20
232.4392862727553108
 30
0.0
 40
0.1715670107277374
 50
107.3908161931079945
 51
109.6091850064343021
  0
ARC
  5
8DB3
  8
0
 10
4472.0969805976474163
 20
232.5857277260030003
 30
0.0
 40
0.0161126490580241
 50
109.6396231857235932
 51
192.5795286579262893
  0
LINE
  5
8DB4
  8
0
 10
4472.1602961307944497
 20
232.361216061920004
 30
0.0
 11
4472.1977465398076674
 21
232.3702117145867021
 31
0.0
  0
ARC
  5
8DB5
  8
0
 10
4472.0217984512983094
 20
232.8474615430208985
 30
0.0
 40
0.0159580196339637
 50
196.2677815374435113
 51
279.4655006172184244
  0
ARC
  5
8DB6
  8
0
 10
4472.0421612495711088
 20
232.8480395152571134
 30
0.0
 40
0.0131765642680561
 50
311.4443520634193874
 51
4.5538046919190682
  0
ARC
  5
8DB7
  8
0
 10
4471.5464377550651989
 20
232.8085567933856908
 30
0.0
 40
0.5104699066046618
 50
4.5538046919190682
 51
31.176160464139091
  0
ARC
  5
8DB8
  8
0
 10
4471.9745674972900815
 20
233.0675979713155925
 30
0.0
 40
0.0100726563708142
 50
31.1761604641362915
 51
91.0061722963443316
  0
ARC
  5
8DB9
  8
0
 10
4471.9615696639611997
 20
233.0567614656291084
 30
0.0
 40
0.0157607864323952
 50
108.5164365319090933
 51
194.2100813832296922
  0
LINE
  5
8DBA
  8
0
 10
4471.9565644055683151
 20
233.0717063569761081
 30
0.0
 11
4471.9743906202666039
 21
233.0776690745761073
 31
0.0
  0
LINE
  5
8DBB
  8
0
 10
4472.0244228067667791
 20
232.8317207949760927
 30
0.0
 11
4472.0508827162657326
 21
232.8381623767760971
 31
0.0
  0
ARC
  5
8DBC
  8
0
 10
4471.8681002506673394
 20
233.3827096724760963
 30
0.0
 40
0.0157480314999999
 50
196.0000000000040927
 51
280.1458594923996088
  0
ARC
  5
8DBD
  8
0
 10
4471.8821611504199609
 20
233.3743276711446981
 30
0.0
 40
0.0043169203854485
 50
285.1299677750720889
 51
341.441601317597474
  0
ARC
  5
8DBE
  8
0
 10
4471.345175670981007
 20
233.3929204292267059
 30
0.0
 40
0.5414461965626232
 50
357.886645789757722
 51
24.2666217739570698
  0
ARC
  5
8DBF
  8
0
 10
4471.8345207846878111
 20
233.6117797286210021
 30
0.0
 40
0.0056206245410496
 50
40.7116662461399272
 51
100.0927882674546936
  0
ARC
  5
8DC0
  8
0
 10
4471.8081224750349065
 20
233.5921004723664112
 30
0.0
 40
0.0158198644952191
 50
108.7119595344137934
 51
193.9378736824511975
  0
LINE
  5
8DC1
  8
0
 10
4471.8708743398847218
 20
233.3672079007988884
 30
0.0
 11
4471.8832879074370794
 21
233.3701603914275893
 31
0.0
  0
LINE
  5
8DC2
  8
0
 10
4471.8030472932659904
 20
233.607084151576089
 30
0.0
 11
4471.8335358106669446
 21
233.6173133753761135
 31
0.0
  0
ARC
  5
8DC3
  8
0
 10
4471.7643539136406616
 20
233.7103398289139022
 30
0.0
 40
0.0078740157438991
 50
276.2729990735433034
 51
8.9230357775715508
  0
ARC
  5
8DC4
  8
0
 10
4476.9602682377062592
 20
234.5261386788685911
 30
0.0
 40
5.2516937827177852
 50
188.8653614161059124
 51
188.9230357775699076
  0
ARC
  5
8DC5
  8
0
 10
3642.5413582870778555
 20
-4.1843814653368829
 30
0.0
 40
862.6807911874867614
 50
16.0002828032432589
 51
16.0075207765135801
  0
LINE
  5
8DC6
  8
0
 10
4471.792286372658964
 20
233.2601759925017859
 30
0.0
 11
4471.7811342470968157
 21
233.3002893785973129
 31
0.0
  0
ARC
  5
8DC7
  8
0
 10
4471.7826930155069931
 20
233.2440369136824074
 30
0.0
 40
0.0118830872811464
 50
109.8754326181693983
 51
195.6830005178726992
  0
ARC
  5
8DC8
  8
0
 10
4471.7992947900902436
 20
233.2682538828919121
 30
0.0
 40
0.0051928120053492
 50
289.6100088505793906
 51
328.3217504395910282
  0
ARC
  5
8DC9
  8
0
 10
4471.7971259374726287
 20
233.2695922564471971
 30
0.0
 40
0.0077413734526688
 50
328.3217504396005779
 51
5.5246562807142947
  0
ARC
  5
8DCA
  8
0
 10
4471.3670975296918186
 20
233.0711674820761914
 30
0.0
 40
0.480915392236068
 50
5.0596552915307988
 51
24.4656629989556116
  0
ARC
  5
8DCB
  8
0
 10
4471.8398481461617848
 20
233.110779859450588
 30
0.0
 40
0.0068862249982361
 50
24.0006620097788606
 51
70.8804178569727696
  0
ARC
  5
8DCC
  8
0
 10
4471.8380359009734093
 20
233.1055521865885964
 30
0.0
 40
0.0124191081686163
 50
70.8804178569727696
 51
83.3767670085725996
  0
LINE
  5
8DCD
  8
0
 10
4471.7786530469784338
 20
233.255212172857
 30
0.0
 11
4471.8010375815611042
 21
233.2633622600114052
 31
0.0
  0
LINE
  5
8DCE
  8
0
 10
4471.9415793490379656
 20
232.7768612596246101
 30
0.0
 11
4471.8386742673328627
 21
233.1177196294410123
 31
0.0
  0
ARC
  5
8DCF
  8
0
 10
4471.9381679099178655
 20
232.753878013684897
 30
0.0
 40
0.0058117520644229
 50
289.3337271877392141
 51
20.7389985176060492
  0
ARC
  5
8DD0
  8
0
 10
4471.2400315850636616
 20
232.4068341017691068
 30
0.0
 40
0.7854202683066124
 50
14.5235821460663104
 51
26.3899372358800903
  0
LINE
  5
8DD1
  8
0
 10
4471.9254735131726193
 20
232.7430733119113029
 30
0.0
 11
4471.9400920061189026
 21
232.7483940082258016
 31
0.0
  0
ARC
  5
8DD2
  8
0
 10
4471.9635722288712714
 20
232.6131151912213966
 30
0.0
 40
0.0118110237266131
 50
196.000000672991888
 51
281.9942537843984951
  0
ARC
  5
8DD3
  8
0
 10
4471.994646960611135
 20
232.6012644459262049
 30
0.0
 40
0.0062445980578512
 50
23.9621764459540607
 51
104.4734564968886019
  0
LINE
  5
8DD4
  8
0
 10
4471.9660267201134047
 20
232.6015620205330947
 30
0.0
 11
4471.9930862390892798
 21
232.60731086248731
 31
0.0
  0
ARC
  5
8DD5
  8
0
 10
4471.7078068822384012
 20
232.3711697755504986
 30
0.0
 40
0.3511185119598409
 50
21.5975400189055406
 51
24.0742199471952212
  0
ARC
  5
8DD6
  8
0
 10
4472.0248506832122075
 20
232.5096507586885934
 30
0.0
 40
0.0059179690805972
 50
22.4033403642752802
 51
113.1821800609798032
  0
ARC
  5
8DD7
  8
0
 10
4469.9358050073233244
 20
231.775455517530304
 30
0.0
 40
2.2202164406926999
 50
19.3721259369551113
 51
22.0092185016248294
  0
LINE
  5
8DD8
  8
0
 10
4472.048192329354606
 20
232.4974693176231995
 30
0.0
 11
4471.9789030113834087
 21
232.7391098857808913
 31
0.0
  0
ARC
  5
8DD9
  8
0
 10
4471.944061050295204
 20
232.730200816110198
 30
0.0
 40
0.0359629500301958
 50
14.3431733139842805
 51
28.8657794689822893
  0
ARC
  5
8DDA
  8
0
 10
4471.8969026017266515
 20
232.7042046908607915
 30
0.0
 40
0.0898119778698927
 50
28.8657794689837104
 51
54.8239051429400703
  0
ARC
  5
8DDB
  8
0
 10
4471.9466291394010113
 20
232.7747590282070007
 30
0.0
 40
0.0034948702530527
 50
54.8239051429334978
 51
102.2761084401289935
  0
LINE
  5
8DDC
  8
0
 10
4471.9395880706097159
 20
232.776254297676104
 30
0.0
 11
4471.9458860497670685
 21
232.7781739858760943
 31
0.0
  0
ARC
  5
8DDD
  8
0
 10
4472.0466979931270544
 20
232.7848570150393073
 30
0.0
 40
0.1135477782794382
 50
191.0855955231658925
 51
198.8911428988635919
  0
ARC
  5
8DDE
  8
0
 10
4471.9429897760910535
 20
232.7645373468531034
 30
0.0
 40
0.0078676798882581
 50
148.2369910509534918
 51
191.0855955231627092
  0
ARC
  5
8DDF
  8
0
 10
4471.8852904206542007
 20
232.6884301165734996
 30
0.0
 40
0.0950888782461897
 50
31.7431566243837686
 51
57.558008221495669
  0
LINE
  5
8DE0
  8
0
 10
4471.9661554356671331
 20
232.7384575501760082
 30
0.0
 11
4472.0348630154476268
 21
232.4988457442219953
 31
0.0
  0
ARC
  5
8DE1
  8
0
 10
4471.7210114646040893
 20
233.5596055098583008
 30
0.0
 40
0.0055958685794626
 50
287.9168800166306141
 51
9.358181056135626
  0
ARC
  5
8DE2
  8
0
 10
4470.851174343081766
 20
233.3041018940884896
 30
0.0
 40
0.9121405769270461
 50
9.1038531491132151
 51
16.3265753561689415
  0
LINE
  5
8DE3
  8
0
 10
4471.7202555745770951
 20
233.6411092941015966
 30
0.0
 11
4471.8920339655660428
 21
233.0171352278761105
 31
0.0
  0
ARC
  5
8DE4
  8
0
 10
4471.8907099882617331
 20
233.0229537069926096
 30
0.0
 40
0.0059677686810398
 50
204.2866021029709884
 51
282.8257011246540173
  0
ARC
  5
8DE5
  8
0
 10
4233.0774744052296228
 20
165.1800271419982096
 30
0.0
 40
248.2688025597392993
 50
15.8575327708706109
 51
16.0080666696745517
  0
LINE
  5
8DE6
  8
0
 10
4471.8920347487492108
 20
233.0171348348773108
 30
0.0
 11
4471.898184739113276
 21
233.0185607351311035
 31
0.0
  0
LINE
  5
8DE7
  8
0
 10
4471.8394683202368469
 20
233.1178884105956968
 30
0.0
 11
4471.8852703702268627
 21
233.020499156388297
 31
0.0
  0
ARC
  5
8DE8
  8
0
 10
4472.0335210321054547
 20
232.8751587894512056
 30
0.0
 40
0.1098488642226552
 50
169.9459159011221914
 51
207.1557997638211077
  0
ARC
  5
8DE9
  8
0
 10
4472.0391661025296344
 20
232.8480285847151947
 30
0.0
 40
0.1059139784010144
 50
174.2321886969860998
 51
192.5455050872774052
  0
ARC
  5
8DEA
  8
0
 10
4471.9437334340318557
 20
232.8597625210028923
 30
0.0
 40
0.0100046413523397
 50
108.9562454500737942
 51
186.2539590212977885
  0
ARC
  5
8DEB
  8
0
 10
4470.8926532880368541
 20
232.4815586559899998
 30
0.0
 40
1.1172434609127091
 50
20.3029710755697117
 51
23.0095270426827305
  0
ARC
  5
8DEC
  8
0
 10
4473.036552252007823
 20
233.4056974595820009
 30
0.0
 40
1.2173830519392079
 50
197.2608065790873013
 51
203.6024591065738036
  0
ARC
  5
8DED
  8
0
 10
4471.9207804257148382
 20
232.895920068374096
 30
0.0
 40
0.0048449391224709
 50
340.9154489014454725
 51
31.4515206601083293
  0
ARC
  5
8DEE
  8
0
 10
4472.9373497985461654
 20
233.3423802238891938
 30
0.0
 40
1.105487640892123
 50
195.2899797364624135
 51
203.6764487417790974
  0
ARC
  5
8DEF
  8
0
 10
4472.3022734324176781
 20
232.739784720448796
 30
0.0
 40
0.213614907728867
 50
184.595779051725799
 51
224.2101132931310019
  0
ARC
  5
8DF0
  8
0
 10
4472.0166357173948199
 20
232.5922678481603043
 30
0.0
 40
0.1325289802316756
 50
359.3795926403975045
 51
27.2993327904575587
  0
ARC
  5
8DF1
  8
0
 10
4471.9933224825354046
 20
232.6147686624294124
 30
0.0
 40
0.144439649334381
 50
25.9433736153737193
 51
48.3333447376221699
  0
ARC
  5
8DF2
  8
0
 10
4472.1464179989898184
 20
232.6087583277046065
 30
0.0
 40
0.0017908949707541
 50
225.3860985156568972
 51
349.1194261828059098
  0
ARC
  5
8DF3
  8
0
 10
4472.365955021247828
 20
232.7166240280861018
 30
0.0
 40
0.2462965925941928
 50
188.6875326601683867
 51
206.3035380780879962
  0
ARC
  5
8DF4
  8
0
 10
4473.09114349302763
 20
232.6876567199070109
 30
0.0
 40
0.9620544975058717
 50
200.7529528952022986
 51
211.4897347601124125
  0
ARC
  5
8DF5
  8
0
 10
4471.26265660921581
 20
231.7910454626938872
 30
0.0
 40
1.082400446883887
 50
21.351303848834231
 51
30.8913838064792614
  0
ARC
  5
8DF6
  8
0
 10
4472.102680856398365
 20
233.294970975224004
 30
0.0
 40
0.1760445620008675
 50
170.7551825638840057
 51
215.6536735360110981
  0
ARC
  5
8DF7
  8
0
 10
4471.8336292681542545
 20
233.2318435572238968
 30
0.0
 40
0.1320476941665087
 50
342.6006521574583985
 51
43.8082039424345808
  0
ARC
  5
8DF8
  8
0
 10
4474.9307560331726563
 20
234.0663406586255064
 30
0.0
 40
3.0835813446373899
 50
194.2528016106074062
 51
195.9169136284581896
  0
ARC
  5
8DF9
  8
0
 10
4471.4523348270968199
 20
233.7472335620084891
 30
0.0
 40
0.3543289470058687
 50
351.4164982744143799
 51
10.1109009091198896
  0
ARC
  5
8DFA
  8
0
 10
4472.4769721182083231
 20
233.8506416571684952
 30
0.0
 40
0.6921536609443534
 50
180.4381344551979964
 51
193.0502327146861035
  0
LINE
  5
8DFB
  8
0
 10
4472.869008944370762
 20
231.0424176824240021
 30
0.0
 11
4471.6444653399676099
 21
235.312908735409394
 31
0.0
  0
LINE
  5
8DFC
  8
0
 10
4473.1726066089458982
 20
226.4134372289761075
 30
0.0
 11
4474.1071791953172578
 21
226.4134372289761075
 31
0.0
  0
ARC
  5
8DFE
  8
0
 10
4473.6438958892413211
 20
231.2679313878973062
 30
0.0
 40
0.2208560922688711
 50
198.1305958946547037
 51
218.6568738041586073
  0
ARC
  5
8DFF
  8
0
 10
4282.6848007310663888
 20
178.881425023479494
 30
0.0
 40
197.7938551143220991
 50
15.3376367705140808
 51
16.6568820268430713
  0
ENDSEC
  0
EOF
