  0
SECTION
  2
HEADER
  9
$ACADVER
  1
AC1009
  9
$INSBASE
 10
250.3676352404415013
 20
8.3319400288008492
 30
0.0
  9
$EXTMIN
 10
249.0838452347555005
 20
3.5443840081102671
 30
-0.0000000349181948
  9
$EXTMAX
 10
251.6570628760412944
 20
8.3321378153811914
 30
0.0000000814935746
  9
$LIMMIN
 10
0.0
 20
0.0
  9
$LIMMAX
 10
11.6929133858000007
 20
8.2677165353999982
  9
$ORTHOMODE
 70
     0
  9
$REGENMODE
 70
     1
  9
$FILLMODE
 70
     1
  9
$QTEXTMODE
 70
     0
  9
$MIRRTEXT
 70
     0
  9
$DRAGMODE
 70
     2
  9
$LTSCALE
 40
0.6431102362
  9
$OSMODE
 70
  4095
  9
$ATTMODE
 70
     1
  9
$TEXTSIZE
 40
0.2
  9
$TRACEWID
 40
0.05
  9
$TEXTSTYLE
  7
STANDARD
  9
$CLAYER
  8
0
  9
$CELTYPE
  6
BYLAYER
  9
$CECOLOR
 62
   256
  9
$DIMSCALE
 40
1.0
  9
$DIMASZ
 40
0.1875
  9
$DIMEXO
 40
0.0625
  9
$DIMDLI
 40
0.4443307087
  9
$DIMRND
 40
0.0
  9
$DIMDLE
 40
0.0
  9
$DIMEXE
 40
0.125
  9
$DIMTP
 40
0.01
  9
$DIMTM
 40
0.01
  9
$DIMTXT
 40
0.15625
  9
$DIMCEN
 40
0.1052362205
  9
$DIMTSZ
 40
0.0
  9
$DIMTOL
 70
     1
  9
$DIMLIM
 70
     0
  9
$DIMTIH
 70
     1
  9
$DIMTOH
 70
     1
  9
$DIMSE1
 70
     0
  9
$DIMSE2
 70
     0
  9
$DIMTAD
 70
     0
  9
$DIMZIN
 70
     0
  9
$DIMBLK
  1

  9
$DIMASO
 70
     1
  9
$DIMSHO
 70
     1
  9
$DIMPOST
  1
\X
  9
$DIMAPOST
  1

  9
$DIMALT
 70
     1
  9
$DIMALTD
 70
     2
  9
$DIMALTF
 40
25.3999999999999986
  9
$DIMLFAC
 40
1.0
  9
$DIMTOFL
 70
     0
  9
$DIMTVP
 40
0.0
  9
$DIMTIX
 70
     0
  9
$DIMSOXD
 70
     0
  9
$DIMSAH
 70
     0
  9
$DIMBLK1
  1

  9
$DIMBLK2
  1

  9
$DIMSTYLE
  2
STANDARD
  9
$DIMCLRD
 70
     0
  9
$DIMCLRE
 70
     0
  9
$DIMCLRT
 70
     0
  9
$DIMTFAC
 40
1.0
  9
$DIMGAP
 40
0.09
  9
$LUNITS
 70
     2
  9
$LUPREC
 70
     4
  9
$SKETCHINC
 40
0.1
  9
$FILLETRAD
 40
0.0
  9
$AUNITS
 70
     0
  9
$AUPREC
 70
     0
  9
$MENU
  1
.
  9
$ELEVATION
 40
0.0
  9
$PELEVATION
 40
0.0
  9
$THICKNESS
 40
0.0
  9
$LIMCHECK
 70
     0
  9
$BLIPMODE
 70
     0
  9
$CHAMFERA
 40
0.0
  9
$CHAMFERB
 40
0.0
  9
$SKPOLY
 70
     0
  9
$TDCREATE
 40
2458018.639108797069639
  9
$TDUPDATE
 40
2460173.5757638891227543
  9
$TDINDWG
 40
0.3183560185
  9
$TDUSRTIMER
 40
0.3183560185
  9
$USRTIMER
 70
     1
  9
$ANGBASE
 50
0.0
  9
$ANGDIR
 70
     0
  9
$PDMODE
 70
     0
  9
$PDSIZE
 40
0.3125
  9
$PLINEWID
 40
0.0
  9
$COORDS
 70
     1
  9
$SPLFRAME
 70
     0
  9
$SPLINETYPE
 70
     6
  9
$SPLINESEGS
 70
     8
  9
$ATTDIA
 70
     1
  9
$ATTREQ
 70
     1
  9
$HANDLING
 70
     1
  9
$HANDSEED
  5
A301
  9
$SURFTAB1
 70
     6
  9
$SURFTAB2
 70
     6
  9
$SURFTYPE
 70
     6
  9
$SURFU
 70
     6
  9
$SURFV
 70
     6
  9
$UCSNAME
  2

  9
$UCSORG
 10
0.0
 20
0.0
 30
0.0
  9
$UCSXDIR
 10
1.0
 20
0.0
 30
0.0
  9
$UCSYDIR
 10
0.0
 20
1.0
 30
0.0
  9
$PUCSNAME
  2

  9
$PUCSORG
 10
0.0
 20
0.0
 30
0.0
  9
$PUCSXDIR
 10
1.0
 20
0.0
 30
0.0
  9
$PUCSYDIR
 10
0.0
 20
1.0
 30
0.0
  9
$USERI1
 70
     0
  9
$USERI2
 70
     0
  9
$USERI3
 70
     0
  9
$USERI4
 70
     0
  9
$USERI5
 70
     0
  9
$USERR1
 40
0.0
  9
$USERR2
 40
0.0
  9
$USERR3
 40
0.0
  9
$USERR4
 40
0.0
  9
$USERR5
 40
0.0
  9
$WORLDVIEW
 70
     1
  9
$SHADEDGE
 70
     3
  9
$SHADEDIF
 70
    70
  9
$TILEMODE
 70
     1
  9
$MAXACTVP
 70
    64
  9
$PLIMCHECK
 70
     0
  9
$PEXTMIN
 10
1.0000000000000000E+20
 20
1.0000000000000000E+20
 30
1.0000000000000000E+20
  9
$PEXTMAX
 10
-1.0000000000000000E+20
 20
-1.0000000000000000E+20
 30
-1.0000000000000000E+20
  9
$PLIMMIN
 10
0.0
 20
0.0
  9
$PLIMMAX
 10
12.0
 20
9.0
  9
$UNITMODE
 70
     0
  9
$VISRETAIN
 70
     1
  9
$PLINEGEN
 70
     0
  9
$PSLTSCALE
 70
     1
  0
ENDSEC
  0
SECTION
  2
TABLES
  0
TABLE
  2
VPORT
 70
     1
  0
VPORT
  2
*ACTIVE
 70
     0
 10
0.0
 20
0.0
 11
1.0
 21
1.0
 12
155.046193057660588
 22
-1.0980710994771099
 13
0.0
 23
0.0
 14
1.0
 24
1.0
 15
0.0
 25
0.0
 16
-0.0000000000000142
 26
0.0
 36
39.3282560748450578
 17
95.3242609977377526
 27
7.0363320112228394
 37
0.0
 40
4.8306933033002588
 41
2.8368263473053892
 42
50.0
 43
0.0
 44
0.0
 50
0.0
 51
0.0
 71
     0
 72
   100
 73
     1
 74
     1
 75
     0
 76
     0
 77
     0
 78
     0
  0
ENDTAB
  0
TABLE
  2
LTYPE
 70
     2
  0
LTYPE
  2
CONTINUOUS
 70
     0
  3
Solid line
 72
    65
 73
     0
 40
0.0
  0
LTYPE
  2
PHANTOM2
 70
     0
  3
___ _ _ ___ _ _ ___ _ _ ___ _ _
 72
    65
 73
     6
 40
1.25
 49
0.625
 49
-0.125
 49
0.125
 49
-0.125
 49
0.125
 49
-0.125
  0
ENDTAB
  0
TABLE
  2
LAYER
 70
     2
  0
LAYER
  2
0
 70
     0
 62
   255
  6
CONTINUOUS
  0
LAYER
  2
DEFPOINTS
 70
     0
 62
     7
  6
CONTINUOUS
  0
ENDTAB
  0
TABLE
  2
STYLE
 70
     1
  0
STYLE
  2
STANDARD
 70
     0
 40
0.0
 41
0.8
 50
0.0
 71
     0
 42
0.2
  3
txt
  4

  0
ENDTAB
  0
TABLE
  2
VIEW
 70
     0
  0
ENDTAB
  0
TABLE
  2
UCS
 70
     0
  0
ENDTAB
  0
TABLE
  2
APPID
 70
    10
  0
APPID
  2
ACAD
 70
     0
  0
APPID
  2
ACAD_MLEADERVER
 70
     0
  0
APPID
  2
ACAD_DSTYLE_DIMJAG
 70
     0
  0
APPID
  2
ACAD_DSTYLE_DIMTALN
 70
     0
  0
APPID
  2
ACAD_NAV_VCDISPLAY
 70
     0
  0
APPID
  2
ACAD_EXEMPT_FROM_CAD_STANDARDS
 70
     0
  0
APPID
  2
ACAECLAYERSTANDARD
 70
     0
  0
APPID
  2
ACCMTRANSPARENCY
 70
     0
  0
APPID
  2
DCO15
 70
     0
  0
APPID
  2
ACDBATTR
 70
     0
  0
ENDTAB
  0
TABLE
  2
DIMSTYLE
 70
     1
  0
DIMSTYLE
  2
STANDARD
 70
     0
  3

  4

  5

  6

  7

 40
1.0
 41
0.1875
 42
0.0625
 43
0.38
 44
0.125
 45
0.0
 46
0.0
 47
0.01
 48
0.01
140
0.15625
141
0.09
142
0.0
143
25.3999999999999986
144
1.0
145
0.0
146
1.0
147
0.09
 71
     1
 72
     0
 73
     1
 74
     1
 75
     0
 76
     0
 77
     0
 78
     4
170
     0
171
     2
172
     0
173
     0
174
     0
175
     0
176
     0
177
     0
178
     0
  0
ENDTAB
  0
ENDSEC
  0
SECTION
  2
BLOCKS
  0
BLOCK
  8
0
  2
$MODEL_SPACE
 70
     0
 10
0.0
 20
0.0
 30
0.0
  3
$MODEL_SPACE
  1

  0
ENDBLK
  5
21
  8
0
  0
BLOCK
 67
     1
  8
0
  2
$PAPER_SPACE
 70
     0
 10
0.0
 20
0.0
 30
0.0
  3
$PAPER_SPACE
  1

  0
ENDBLK
  5
1D
 67
     1
  8
0
  0
BLOCK
  8
0
  2
_FILLED
 70
     0
 10
0.0
 20
0.0
 30
0.0
  3
_FILLED
  1

  0
SOLID
  5
92B9
  8
0
  6
BYBLOCK
 62
     0
 10
0.0
 20
0.0
 30
0.0
 11
-1.0
 21
0.1666666667
 31
0.0
 12
-1.0
 22
-0.1666666667
 32
0.0
 13
-1.0
 23
-0.1666666667
 33
0.0
  0
ENDBLK
  5
92BA
  8
0
  6
BYBLOCK
 62
     0
  0
ENDSEC
  0
SECTION
  2
ENTITIES
  0
ATTDEF
  5
7A6E
  8
DEFPOINTS
 10
250.3683989185960002
 20
8.3302568741285654
 30
0.0
 40
0.001
  1
K-15398T-B
  3

  2
MODELNUMBER
 70
     0
1001
ACDBATTR
1070
     0
1070
     1
  0
ATTDEF
  5
7A6F
  8
DEFPOINTS
 10
250.3683989185960002
 20
8.3285902074619003
 30
0.0
 40
0.001
  1
KATALYST AIR
  3

  2
TRADENAME
 70
     0
1001
ACDBATTR
1070
     0
1070
     1
  0
ATTDEF
  5
7A70
  8
DEFPOINTS
 10
250.3683989185960002
 20
8.3269235407952351
 30
0.0
 40
0.001
  1
SHOWER ARM
  3

  2
PRODUCT
 70
     0
1001
ACDBATTR
1070
     0
1070
     1
  0
LINE
  5
A0BA
  8
0
 10
249.1081076813914876
 20
8.3319400288008492
 30
0.0
 11
251.6271627994914013
 21
8.3319400288008492
 31
0.0
  0
LINE
  5
A0BB
  8
0
 10
249.1081076813914876
 20
8.1350896351008508
 30
0.0
 11
251.6271627994914013
 21
8.1350896351008508
 31
0.0
  0
LINE
  5
A0BC
  8
0
 10
249.0881076813915058
 20
8.3119400288008514
 30
0.0
 11
249.0881076813915058
 21
8.1550896351008504
 31
0.0
  0
LINE
  5
A0BD
  8
0
 10
249.7426352403913938
 20
8.1350896351008508
 30
0.0
 11
249.7426352403913938
 21
4.2374518398008512
 31
0.0
  0
LINE
  5
A0BE
  8
0
 10
249.7426352403913938
 20
4.2374518398008512
 30
0.0
 11
250.9926352404914951
 21
4.2374518398008512
 31
0.0
  0
LINE
  5
A0BF
  8
0
 10
249.8915722483415038
 20
3.8831211312008511
 30
0.0
 11
250.8436982325414988
 21
3.8831211312008511
 31
0.0
  0
LINE
  5
A0C0
  8
0
 10
250.0152730356913935
 20
3.5445384540008509
 30
0.0
 11
250.7199974451914954
 21
3.5445384540008509
 31
0.0
  0
LINE
  5
A0C1
  8
0
 10
249.9562179175914878
 20
3.8201290052008501
 30
0.0
 11
249.9562179175914878
 21
3.8029778133189409
 31
0.0
  0
LINE
  5
A0C2
  8
0
 10
249.9562179175914878
 20
3.7837663442665419
 30
0.0
 11
249.9562179175914878
 21
3.7490170771400582
 31
0.0
  0
LINE
  5
A0C3
  8
0
 10
249.9562179175914878
 20
3.7149448872447328
 30
0.0
 11
249.9562179175914878
 21
3.6786981968792891
 31
0.0
  0
LINE
  5
A0C4
  8
0
 10
249.9562179175914878
 20
3.6425998469442669
 30
0.0
 11
249.9562179175914878
 21
3.6035935721008512
 31
0.0
  0
LINE
  5
A0C5
  8
0
 10
249.9562179175914878
 20
3.8201290052008501
 30
0.0
 11
250.7530510993815938
 21
3.8201290052008501
 31
0.0
  0
ARC
  5
A0C6
  8
0
 10
249.1081076813914876
 20
8.3119400288008514
 30
0.0
 40
0.02
 50
90.0
 51
179.9999999999974136
  0
ARC
  5
A0C7
  8
0
 10
249.1081076813914876
 20
8.1550896351008522
 30
0.0
 40
0.02
 50
180.0000000000050022
 51
269.9999999999951115
  0
LINE
  5
A0C8
  8
0
 10
251.6471627994914968
 20
8.3119400288008514
 30
0.0
 11
251.6471627994914968
 21
8.1550896351008504
 31
0.0
  0
LINE
  5
A0C9
  8
0
 10
250.9926352404914951
 20
8.1350896351008508
 30
0.0
 11
250.9926352404914951
 21
4.2374518398008512
 31
0.0
  0
LINE
  5
A0CA
  8
0
 10
250.7790525632914012
 20
3.799991209844265
 30
0.0
 11
250.7790525632914012
 21
3.7789968386643742
 31
0.0
  0
LINE
  5
A0CB
  8
0
 10
250.7790525632914012
 20
3.7422028869596549
 30
0.0
 11
250.7790525632914012
 21
3.706481073325111
 31
0.0
  0
LINE
  5
A0CC
  8
0
 10
250.7790525632914012
 20
3.671713281460077
 30
0.0
 11
250.7790525632914012
 21
3.6035935721008512
 31
0.0
  0
ARC
  5
A0CD
  8
0
 10
251.6271627994914013
 20
8.3119400288008514
 30
0.0
 40
0.02
 50
0.0000000000025444
 51
90.0
  0
ARC
  5
A0CE
  8
0
 10
251.6271627994914013
 20
8.1550896351008522
 30
0.0
 40
0.02
 50
270.0000000000048885
 51
359.9999999999948841
  0
LINE
  5
A0CF
  8
0
 10
249.9562179175914878
 20
3.7837663442665419
 30
0.0
 11
250.7487996700623967
 21
3.8176658251407809
 31
0.0
  0
LINE
  5
A0D0
  8
0
 10
249.9562179175914878
 20
3.7490170771400582
 30
0.0
 11
250.7790525632914012
 21
3.7789968386643742
 31
0.0
  0
LINE
  5
A0D1
  8
0
 10
249.9562179175914878
 20
3.7149448872447328
 30
0.0
 11
250.7790525632914012
 21
3.7422028869596549
 31
0.0
  0
LINE
  5
A0D2
  8
0
 10
249.9562179175914878
 20
3.6786981968792891
 30
0.0
 11
250.7790525632914012
 21
3.706481073325111
 31
0.0
  0
LINE
  5
A0D3
  8
0
 10
249.9562179175914878
 20
3.6425998469442669
 30
0.0
 11
250.7790525632914012
 21
3.671713281460077
 31
0.0
  0
LINE
  5
A0D4
  8
0
 10
249.9562179175914878
 20
3.6035935721008512
 30
0.0
 11
250.7790525632914012
 21
3.6035935721008512
 31
0.0
  0
LINE
  5
A0D5
  8
0
 10
249.9562179175914878
 20
3.6035935721008512
 30
0.0
 11
250.0152730356913935
 21
3.5445384540008509
 31
0.0
  0
LINE
  5
A0D6
  8
0
 10
250.7790525632914012
 20
3.6035935721008512
 30
0.0
 11
250.7199974451914954
 21
3.5445384540008509
 31
0.0
  0
LINE
  5
A0D7
  8
0
 10
249.9874826764913962
 20
3.729056378500851
 30
0.0
 11
250.7487996700623967
 21
3.7635724878877301
 31
0.0
  0
LINE
  5
A0D8
  8
0
 10
249.9874689964914865
 20
3.6576549018008508
 30
0.0
 11
250.749610237283207
 21
3.6921821739781819
 31
0.0
  0
LINE
  5
A0D9
  8
0
 10
249.9562179175914878
 20
3.8029778133189409
 30
0.0
 11
249.9874826764913962
 21
3.795529460887006
 31
0.0
  0
LINE
  5
A0DA
  8
0
 10
249.9874826764913962
 20
3.795529460887006
 30
0.0
 11
249.9562179175914878
 21
3.7837663442665419
 31
0.0
  0
LINE
  5
A0DB
  8
0
 10
249.9562179175914878
 20
3.7490170771400582
 30
0.0
 11
249.9874826764913962
 21
3.729056378500851
 31
0.0
  0
LINE
  5
A0DC
  8
0
 10
249.9874826764913962
 20
3.729056378500851
 30
0.0
 11
249.9562179175914878
 21
3.7149448872447328
 31
0.0
  0
LINE
  5
A0DD
  8
0
 10
249.9562179175914878
 20
3.6786981968792891
 30
0.0
 11
249.9874689964914865
 21
3.6576549018008508
 31
0.0
  0
LINE
  5
A0DE
  8
0
 10
249.9874689964914865
 20
3.6576549018008508
 30
0.0
 11
249.9562179175914878
 21
3.6425998469442669
 31
0.0
  0
LINE
  5
A0DF
  8
0
 10
250.7790525632914012
 20
3.7789968386643742
 30
0.0
 11
250.7487996700623967
 21
3.7635724878877301
 31
0.0
  0
LINE
  5
A0E0
  8
0
 10
250.7487996700623967
 20
3.7635724878877301
 30
0.0
 11
250.7790525632914012
 21
3.7422028869596549
 31
0.0
  0
LINE
  5
A0E1
  8
0
 10
250.7790525632914012
 20
3.706481073325111
 30
0.0
 11
250.7487996700623967
 21
3.6927456964837639
 31
0.0
  0
LINE
  5
A0E2
  8
0
 10
250.7487996700623967
 20
3.6927456964837639
 30
0.0
 11
250.7790525632914012
 21
3.671713281460077
 31
0.0
  0
LINE
  5
A0E3
  8
0
 10
249.8715722483414936
 20
3.9031211312008511
 30
0.0
 11
249.8715722483414936
 21
4.2374518398008512
 31
0.0
  0
LINE
  5
A0E4
  8
0
 10
249.9562179175914878
 20
3.8029778133189409
 30
0.0
 11
250.4039708559899964
 21
3.8201290052008501
 31
0.0
  0
LINE
  5
A0E5
  8
0
 10
250.7487996700623967
 20
3.817665825140784
 30
0.0
 11
250.7790525632914012
 21
3.799991209844265
 31
0.0
  0
LINE
  5
A0E6
  8
0
 10
250.7487996700623967
 20
3.8176658251407809
 30
0.0
 11
250.7530510993815938
 21
3.8201290052008501
 31
0.0
  0
LINE
  5
A0E7
  8
0
 10
250.8636982325413953
 20
3.9031211312008511
 30
0.0
 11
250.8636982325413953
 21
4.2374518398008512
 31
0.0
  0
ARC
  5
A0E8
  8
0
 10
249.8915722483415038
 20
3.9031211312008498
 30
0.0
 40
0.02
 50
179.9999999999994031
 51
270.0000000000032969
  0
ARC
  5
A0E9
  8
0
 10
250.8436982325414988
 20
3.9031211312008498
 30
0.0
 40
0.02
 50
270.0
 51
0.0000000000025444
  0
LINE
  5
A0EA
  8
0
 10
250.0014935081414933
 20
3.8831211312008511
 30
0.0
 11
250.0014935081414933
 21
3.8201290052008501
 31
0.0
  0
LINE
  5
A0EB
  8
0
 10
250.7337769727413956
 20
3.8201290052008501
 30
0.0
 11
250.7337769727413956
 21
3.8831211312008511
 31
0.0
  0
LINE
  5
A0EC
  8
0
 10
249.9874826764913962
 20
3.795529460887006
 30
0.0
 11
250.5300713822553007
 21
3.8201290052008501
 31
0.0
  0
LINE
  5
A0ED
  8
0
 10
250.1693823624414961
 20
4.198081761100851
 30
0.0
 11
250.1693823624414961
 21
3.8831211312008511
 31
0.0
  0
LINE
  5
A0EE
  8
0
 10
250.1693823624414961
 20
4.198081761100851
 30
0.0
 11
250.5658881184415065
 21
4.198081761100851
 31
0.0
  0
ARC
  5
A0EF
  8
0
 10
250.3676352404415013
 20
3.7433573516008409
 30
0.0
 40
0.4960629921000101
 50
95.1060031250722631
 51
113.5564642874260954
  0
LINE
  5
A0F0
  8
0
 10
250.5658881184415065
 20
4.198081761100851
 30
0.0
 11
250.5658881184415065
 21
3.8831211312008511
 31
0.0
  0
ARC
  5
A0F1
  8
0
 10
250.3676352404413876
 20
3.7433573516008409
 30
0.0
 40
0.4960629921000101
 50
66.4435357125738477
 51
84.8939968749277369
  0
ENDSEC
  0
EOF
