  0
SECTION
  2
HEADER
  9
$ACADVER
  1
AC1009
  9
$INSBASE
 10
3896.8146719687570112
 20
71.6958708988189954
 30
0.0
  9
$EXTMIN
 10
3878.7220296975979181
 20
69.5496184647126938
 30
0.0
  9
$EXTMAX
 10
3903.310734960757145
 20
78.7654455276722842
 30
0.0
  9
$LIMMIN
 10
0.0
 20
0.0
  9
$LIMMAX
 10
11.6929133858000007
 20
8.2677165353999982
  9
$ORTHOMODE
 70
     0
  9
$REGENMODE
 70
     1
  9
$FILLMODE
 70
     1
  9
$QTEXTMODE
 70
     0
  9
$MIRRTEXT
 70
     0
  9
$DRAGMODE
 70
     2
  9
$LTSCALE
 40
0.6431102362
  9
$OSMODE
 70
  4095
  9
$ATTMODE
 70
     1
  9
$TEXTSIZE
 40
0.2
  9
$TRACEWID
 40
0.05
  9
$TEXTSTYLE
  7
STANDARD
  9
$CLAYER
  8
0
  9
$CELTYPE
  6
BYLAYER
  9
$CECOLOR
 62
   256
  9
$DIMSCALE
 40
1.0
  9
$DIMASZ
 40
0.1875
  9
$DIMEXO
 40
0.0625
  9
$DIMDLI
 40
0.4443307087
  9
$DIMRND
 40
0.0
  9
$DIMDLE
 40
0.0
  9
$DIMEXE
 40
0.125
  9
$DIMTP
 40
0.01
  9
$DIMTM
 40
0.01
  9
$DIMTXT
 40
2.0
  9
$DIMCEN
 40
0.1052362205
  9
$DIMTSZ
 40
0.0
  9
$DIMTOL
 70
     1
  9
$DIMLIM
 70
     0
  9
$DIMTIH
 70
     1
  9
$DIMTOH
 70
     1
  9
$DIMSE1
 70
     0
  9
$DIMSE2
 70
     0
  9
$DIMTAD
 70
     0
  9
$DIMZIN
 70
     0
  9
$DIMBLK
  1

  9
$DIMASO
 70
     1
  9
$DIMSHO
 70
     1
  9
$DIMPOST
  1
\X
  9
$DIMAPOST
  1

  9
$DIMALT
 70
     1
  9
$DIMALTD
 70
     2
  9
$DIMALTF
 40
25.3999999999999986
  9
$DIMLFAC
 40
1.0
  9
$DIMTOFL
 70
     0
  9
$DIMTVP
 40
0.0
  9
$DIMTIX
 70
     0
  9
$DIMSOXD
 70
     0
  9
$DIMSAH
 70
     0
  9
$DIMBLK1
  1

  9
$DIMBLK2
  1

  9
$DIMSTYLE
  2
STANDARD
  9
$DIMCLRD
 70
     0
  9
$DIMCLRE
 70
     0
  9
$DIMCLRT
 70
     0
  9
$DIMTFAC
 40
1.0
  9
$DIMGAP
 40
0.09
  9
$LUNITS
 70
     2
  9
$LUPREC
 70
     4
  9
$SKETCHINC
 40
0.1
  9
$FILLETRAD
 40
0.0
  9
$AUNITS
 70
     0
  9
$AUPREC
 70
     0
  9
$MENU
  1
.
  9
$ELEVATION
 40
0.0
  9
$PELEVATION
 40
0.0
  9
$THICKNESS
 40
0.0
  9
$LIMCHECK
 70
     0
  9
$BLIPMODE
 70
     0
  9
$CHAMFERA
 40
0.0
  9
$CHAMFERB
 40
0.0
  9
$SKPOLY
 70
     0
  9
$TDCREATE
 40
2458060.468368056230247
  9
$TDUPDATE
 40
2459067.6217939821071923
  9
$TDINDWG
 40
0.4104584491
  9
$TDUSRTIMER
 40
0.4104584491
  9
$USRTIMER
 70
     1
  9
$ANGBASE
 50
0.0
  9
$ANGDIR
 70
     0
  9
$PDMODE
 70
     0
  9
$PDSIZE
 40
0.3125
  9
$PLINEWID
 40
0.0
  9
$COORDS
 70
     1
  9
$SPLFRAME
 70
     0
  9
$SPLINETYPE
 70
     6
  9
$SPLINESEGS
 70
     8
  9
$ATTDIA
 70
     1
  9
$ATTREQ
 70
     1
  9
$HANDLING
 70
     1
  9
$HANDSEED
  5
73C3
  9
$SURFTAB1
 70
     6
  9
$SURFTAB2
 70
     6
  9
$SURFTYPE
 70
     6
  9
$SURFU
 70
     6
  9
$SURFV
 70
     6
  9
$UCSNAME
  2

  9
$UCSORG
 10
0.0
 20
0.0
 30
0.0
  9
$UCSXDIR
 10
1.0
 20
0.0
 30
0.0
  9
$UCSYDIR
 10
0.0
 20
1.0
 30
0.0
  9
$PUCSNAME
  2

  9
$PUCSORG
 10
0.0
 20
0.0
 30
0.0
  9
$PUCSXDIR
 10
1.0
 20
0.0
 30
0.0
  9
$PUCSYDIR
 10
0.0
 20
1.0
 30
0.0
  9
$USERI1
 70
     0
  9
$USERI2
 70
     0
  9
$USERI3
 70
     0
  9
$USERI4
 70
     0
  9
$USERI5
 70
     0
  9
$USERR1
 40
0.0
  9
$USERR2
 40
0.0
  9
$USERR3
 40
0.0
  9
$USERR4
 40
0.0
  9
$USERR5
 40
0.0
  9
$WORLDVIEW
 70
     1
  9
$SHADEDGE
 70
     3
  9
$SHADEDIF
 70
    70
  9
$TILEMODE
 70
     1
  9
$MAXACTVP
 70
    64
  9
$PLIMCHECK
 70
     0
  9
$PEXTMIN
 10
1.0000000000000000E+20
 20
1.0000000000000000E+20
 30
1.0000000000000000E+20
  9
$PEXTMAX
 10
-1.0000000000000000E+20
 20
-1.0000000000000000E+20
 30
-1.0000000000000000E+20
  9
$PLIMMIN
 10
0.0
 20
0.0
  9
$PLIMMAX
 10
12.0
 20
9.0
  9
$UNITMODE
 70
     0
  9
$VISRETAIN
 70
     1
  9
$PLINEGEN
 70
     0
  9
$PSLTSCALE
 70
     1
  0
ENDSEC
  0
SECTION
  2
TABLES
  0
TABLE
  2
VPORT
 70
     1
  0
VPORT
  2
*ACTIVE
 70
     0
 10
0.0
 20
0.0
 11
1.0
 21
1.0
 12
126.4944500365910045
 22
-50.6332959946309487
 13
0.0
 23
0.0
 14
1.0
 24
1.0
 15
0.0
 25
0.0
 16
0.0
 26
0.0
 36
5.1040778033513332
 17
3792.35791015625
 27
120.1806564331053977
 37
0.0
 40
65.457523983974653
 41
2.005224660397074
 42
50.0
 43
0.0
 44
0.0
 50
0.0
 51
0.0
 71
     0
 72
   100
 73
     1
 74
     1
 75
     0
 76
     0
 77
     0
 78
     0
  0
ENDTAB
  0
TABLE
  2
LTYPE
 70
     2
  0
LTYPE
  2
CONTINUOUS
 70
     0
  3
Solid line
 72
    65
 73
     0
 40
0.0
  0
LTYPE
  2
PHANTOM2
 70
     0
  3
___ _ _ ___ _ _ ___ _ _ ___ _ _
 72
    65
 73
     6
 40
1.25
 49
0.625
 49
-0.125
 49
0.125
 49
-0.125
 49
0.125
 49
-0.125
  0
ENDTAB
  0
TABLE
  2
LAYER
 70
     2
  0
LAYER
  2
0
 70
     0
 62
   255
  6
CONTINUOUS
  0
LAYER
  2
DEFPOINTS
 70
     0
 62
     7
  6
CONTINUOUS
  0
ENDTAB
  0
TABLE
  2
STYLE
 70
     1
  0
STYLE
  2
STANDARD
 70
     0
 40
0.0
 41
0.8
 50
0.0
 71
     0
 42
0.2
  3
txt
  4

  0
ENDTAB
  0
TABLE
  2
VIEW
 70
     0
  0
ENDTAB
  0
TABLE
  2
UCS
 70
     0
  0
ENDTAB
  0
TABLE
  2
APPID
 70
     9
  0
APPID
  2
ACAD
 70
     0
  0
APPID
  2
ACAD_MLEADERVER
 70
     0
  0
APPID
  2
ACAD_EXEMPT_FROM_CAD_STANDARDS
 70
     0
  0
APPID
  2
ACAD_NAV_VCDISPLAY
 70
     0
  0
APPID
  2
ACAECLAYERSTANDARD
 70
     0
  0
APPID
  2
ACCMTRANSPARENCY
 70
     0
  0
APPID
  2
ACAD_DSTYLE_DIMJAG
 70
     0
  0
APPID
  2
ACAD_DSTYLE_DIMTALN
 70
     0
  0
APPID
  2
ACDBATTR
 70
     0
  0
ENDTAB
  0
TABLE
  2
DIMSTYLE
 70
     1
  0
DIMSTYLE
  2
STANDARD
 70
     0
  3

  4

  5

  6

  7

 40
1.0
 41
0.1875
 42
0.0625
 43
0.38
 44
0.125
 45
0.0
 46
0.0
 47
0.01
 48
0.01
140
0.15625
141
0.09
142
0.0
143
25.3999999999999986
144
1.0
145
0.0
146
1.0
147
0.09
 71
     1
 72
     0
 73
     1
 74
     1
 75
     0
 76
     0
 77
     0
 78
     4
170
     0
171
     2
172
     0
173
     0
174
     0
175
     0
176
     0
177
     0
178
     0
  0
ENDTAB
  0
ENDSEC
  0
SECTION
  2
BLOCKS
  0
BLOCK
  8
0
  2
$MODEL_SPACE
 70
     0
 10
0.0
 20
0.0
 30
0.0
  3
$MODEL_SPACE
  1

  0
ENDBLK
  5
21
  8
0
  0
BLOCK
 67
     1
  8
0
  2
$PAPER_SPACE
 70
     0
 10
0.0
 20
0.0
 30
0.0
  3
$PAPER_SPACE
  1

  0
ENDBLK
  5
1D
 67
     1
  8
0
  0
BLOCK
  8
0
  2
_FILLED
 70
     0
 10
0.0
 20
0.0
 30
0.0
  3
_FILLED
  1

  0
SOLID
  5
69B4
  8
0
  6
BYBLOCK
 62
     0
 10
0.0
 20
0.0
 30
0.0
 11
-1.0
 21
0.1666666667
 31
0.0
 12
-1.0
 22
-0.1666666667
 32
0.0
 13
-1.0
 23
-0.1666666667
 33
0.0
  0
ENDBLK
  5
69B5
  8
0
  6
BYBLOCK
 62
     0
  0
BLOCK
  8
0
  2
A$CDFAF6206
 70
     0
 10
0.0
 20
0.0
 30
0.0
  3
A$CDFAF6206
  1

  0
LINE
  5
6A0E
  8
0
 10
7.4646650085734834
 20
10.9287685970688493
 30
0.0
 11
7.4646650085734896
 21
10.8905784766688498
 31
0.0
  0
ARC
  5
6A0F
  8
0
 10
7.7269027075262349
 20
10.8926811525838598
 30
0.0
 40
0.2622461286616791
 50
180.4593995232625048
 51
217.0214027758331099
  0
LINE
  5
6A10
  8
0
 10
9.767814609867095
 20
10.9287685970688493
 30
0.0
 11
9.767814609867095
 21
10.8905433757650094
 31
0.0
  0
ARC
  5
6A11
  8
0
 10
9.5068669568548287
 20
10.8922438613003703
 30
0.0
 40
0.2609531936261092
 50
322.8847083717149076
 51
359.6266329125650145
  0
LINE
  5
6A12
  8
0
 10
7.517522606271406
 20
10.7347792678688396
 30
0.0
 11
9.7149570120691777
 21
10.7347792678688396
 31
0.0
  0
LINE
  5
6A13
  8
0
 10
7.4646650085734834
 20
10.9287685970688493
 30
0.0
 11
9.7678146123202936
 21
10.9287685970688493
 31
0.0
  0
ARC
  5
6A14
  8
0
 10
4.0826771419203629
 20
8.527951346868889
 30
0.0
 40
4.0826771653999172
 50
13.3117747050523896
 51
32.7200330051415591
  0
ARC
  5
6A15
  8
0
 10
4.0826771460567306
 20
8.5279513475907933
 30
0.0
 40
4.0826771612084691
 50
359.6656501984817851
 51
13.3117747085593798
  0
ARC
  5
6A16
  8
0
 10
13.1498041284835097
 20
8.5279508235212234
 30
0.0
 40
4.0826788382043553
 50
147.2799733478981068
 51
166.6882233021349862
  0
ARC
  5
6A17
  8
0
 10
13.1498064934207992
 20
8.5279506557033251
 30
0.0
 40
4.0826811782395342
 50
166.688228652086309
 51
180.3343397625230011
  0
LINE
  5
6A18
  8
0
 10
8.1652847935202928
 20
8.504127000268852
 30
0.0
 11
9.0671948248202892
 21
8.5041270002687881
 31
0.0
  0
LINE
  5
6A19
  8
0
 10
8.1652847935202786
 20
8.5041270002667204
 30
0.0
 11
8.1652847935202928
 21
8.3607006934688481
 31
0.0
  0
ARC
  5
6A1A
  8
0
 10
5.6196779630382627
 20
8.3631022096452732
 30
0.0
 40
2.545607963272567
 50
342.0511668832173768
 51
359.945947387132378
  0
LINE
  5
6A1B
  8
0
 10
9.0671948248202892
 20
8.5041270002687881
 30
0.0
 11
9.0671948248202892
 21
8.2885990108688503
 31
0.0
  0
ARC
  5
6A1C
  8
0
 10
9.4521885297801163
 20
7.9614488056228501
 30
0.0
 40
0.5052201595850959
 50
139.6436242991769916
 51
174.6757930071850069
  0
ARC
  5
6A1D
  8
0
 10
9.9238413395551746
 20
8.1492417579399508
 30
0.0
 40
0.9848265662939324
 50
188.2263441834095943
 51
209.5593615864376034
  0
ARC
  5
6A1E
  8
0
 10
8.0788764238271256
 20
7.5665710856463297
 30
0.0
 40
0.0393715937169877
 50
162.1669117288323037
 51
227.2023190037006088
  0
ARC
  5
6A1F
  8
0
 10
8.7223682141740682
 20
8.2079667397440517
 30
0.0
 40
0.947895137885075
 50
225.0018610752970858
 51
261.4598823366255829
  0
ARC
  5
6A20
  8
0
 10
8.6645157662702701
 20
8.1695128573935332
 30
0.0
 40
0.9027466462812931
 50
264.7303071214498118
 51
281.8608311947915013
  0
ARC
  5
6A21
  8
0
 10
8.6645157662698935
 20
8.1695128573999671
 30
0.0
 40
0.9027466462876658
 50
299.1741886792128753
 51
299.1743179154552195
  0
ARC
  5
6A22
  8
0
 10
9.0843330931590316
 20
7.4150554710086141
 30
0.0
 40
0.0393703053609601
 50
251.9700352025496954
 51
252.4698971938937859
  0
ARC
  5
6A23
  8
0
 10
9.0843330931590316
 20
7.4150554710086141
 30
0.0
 40
0.0393703053609601
 50
297.2453716727138726
 51
6.8376113572703074
  0
LINE
  5
6A24
  8
0
 10
9.0671948248202892
 20
7.663402160468852
 30
0.0
 11
9.1234233799329516
 21
7.419742732911689
 31
0.0
  0
ARC
  5
6A25
  8
0
 10
8.8843741880892395
 20
9.8961379890094676
 30
0.0
 40
2.5255097382132701
 50
263.792800240752797
 51
274.9514951129821156
  0
ARC
  5
6A26
  8
0
 10
8.8258167405968848
 20
9.2763025889666508
 30
0.0
 40
1.9029970832759311
 50
246.0108363320686067
 51
263.5276935074397215
  0
ARC
  5
6A27
  8
0
 10
8.607491361665744
 20
8.3225444804829642
 30
0.0
 40
1.064510137163637
 50
283.1717405874071005
 51
297.7022170607311864
  0
LINE
  5
6A28
  8
0
 10
9.0671948248202892
 20
8.2885990108688503
 30
0.0
 11
26.2014378595979593
 21
8.2885990108689942
 31
0.0
  0
LINE
  5
6A29
  8
0
 10
26.2014378595979913
 20
7.6634021604689053
 30
0.0
 11
9.0671948248202892
 21
7.6634021604688618
 31
0.0
  0
LINE
  5
6A2A
  8
0
 10
27.8039676758446994
 20
10.9287685970690802
 30
0.0
 11
27.8039676758446888
 21
10.8905784766690807
 31
0.0
  0
ARC
  5
6A2B
  8
0
 10
27.5417299768919399
 20
10.8926811525840801
 30
0.0
 40
0.2622461286616791
 50
322.9785972241680838
 51
359.5406004767386889
  0
LINE
  5
6A2C
  8
0
 10
25.5008180745510913
 20
10.9287685970690305
 30
0.0
 11
25.5008180745510913
 21
10.8905433757651799
 31
0.0
  0
ARC
  5
6A2D
  8
0
 10
25.7617657275633505
 20
10.8922438613005497
 30
0.0
 40
0.2609531936261092
 50
180.3733670874362929
 51
217.1152916282862861
  0
LINE
  5
6A2E
  8
0
 10
27.7511100781467803
 20
10.7347792678690706
 30
0.0
 11
25.5536756723490015
 21
10.7347792678690208
 31
0.0
  0
LINE
  5
6A2F
  8
0
 10
27.8039676758446888
 20
10.9287685970686006
 30
0.0
 11
25.5008180745510806
 21
10.9287685970686006
 31
0.0
  0
ARC
  5
6A30
  8
0
 10
31.1859555424978616
 20
8.5279513468691981
 30
0.0
 40
4.0826771653999172
 50
147.2799669948597057
 51
166.6882252949490066
  0
ARC
  5
6A31
  8
0
 10
31.185955538361501
 20
8.5279513475911024
 30
0.0
 40
4.0826771612084691
 50
166.6882252914419098
 51
180.3343498015194086
  0
ARC
  5
6A32
  8
0
 10
22.1188285559344706
 20
8.5279508235212251
 30
0.0
 40
4.0826788382046102
 50
13.3117766978667795
 51
32.7200266521023977
  0
ARC
  5
6A33
  8
0
 10
22.1188261909974315
 20
8.5279506557034264
 30
0.0
 40
4.0826811782395342
 50
359.665660237478221
 51
13.31177134791497
  0
LINE
  5
6A34
  8
0
 10
27.1033478908979397
 20
8.5041270002690652
 30
0.0
 11
26.2014378595979416
 21
8.5041270002689835
 31
0.0
  0
LINE
  5
6A35
  8
0
 10
27.1033478908979504
 20
8.5041270002669354
 30
0.0
 11
27.1033478908979397
 21
8.3607006934690649
 31
0.0
  0
ARC
  5
6A36
  8
0
 10
29.6489547213799689
 20
8.3631022096455467
 30
0.0
 40
2.545607963272567
 50
180.0540526128687873
 51
197.9488331167837032
  0
LINE
  5
6A37
  8
0
 10
26.2014378595979416
 20
8.5041270002689835
 30
0.0
 11
26.2014378595979487
 21
8.2885990108690457
 31
0.0
  0
ARC
  5
6A38
  8
0
 10
25.8164441546381305
 20
7.9614488056230366
 30
0.0
 40
0.5052201595850959
 50
5.324206992816312
 51
40.3563757008241879
  0
ARC
  5
6A39
  8
0
 10
25.3447913448601803
 20
8.149241757940846
 30
0.0
 40
0.9848265662968968
 50
330.4406384136033807
 51
351.7736558165743759
  0
ARC
  5
6A3A
  8
0
 10
27.1897562605911212
 20
7.5665710856465473
 30
0.0
 40
0.0393715937169877
 50
312.7976809963004143
 51
17.8330882711689185
  0
ARC
  5
6A3B
  8
0
 10
26.5462644702441715
 20
8.2079667397442542
 30
0.0
 40
0.947895137885075
 50
278.5401176633754972
 51
314.9981389247041079
  0
ARC
  5
6A3C
  8
0
 10
26.6041169181479695
 20
8.1695128573937392
 30
0.0
 40
0.9027466462812931
 50
258.139168805210204
 51
275.2696928785518935
  0
ARC
  5
6A3D
  8
0
 10
26.6041169181483497
 20
8.1695128574001732
 30
0.0
 40
0.9027466462876658
 50
240.8256820845460027
 51
240.8258113207880058
  0
ARC
  5
6A3E
  8
0
 10
26.1842995912592293
 20
7.4150554710088086
 30
0.0
 40
0.0393703053609601
 50
287.5301028061073794
 51
288.0299647974517825
  0
ARC
  5
6A3F
  8
0
 10
26.1842995912592293
 20
7.4150554710088086
 30
0.0
 40
0.0393703053609601
 50
173.1623886427310026
 51
242.7546283272870085
  0
LINE
  5
6A40
  8
0
 10
26.2014378595981192
 20
7.6634021604690448
 30
0.0
 11
26.1452093044853093
 21
7.4197427329118826
 31
0.0
  0
ARC
  5
6A41
  8
0
 10
26.384258496328961
 20
9.8961379890096666
 30
0.0
 40
2.5255097382132701
 50
265.0485048870193054
 51
276.2071997592482262
  0
ARC
  5
6A42
  8
0
 10
26.4428159438213299
 20
9.2763025889668516
 30
0.0
 40
1.9029970832759311
 50
276.4723064925619838
 51
293.9891636679327007
  0
ARC
  5
6A43
  8
0
 10
26.6611413227524885
 20
8.3225444804831703
 30
0.0
 40
1.064510137163637
 50
242.2977829392704052
 51
256.8282594125943774
  0
LINE
  5
6A44
  8
0
 62
     4
 10
17.9031473532159602
 20
10.9287685970686006
 30
0.0
 11
24.6329820359843588
 21
20.0952817181593808
 31
0.0
  0
LINE
  5
6A45
  8
0
 62
     4
 10
17.9031473532159602
 20
-0.0000000300842942
 30
0.0
 11
22.3963351323106608
 21
4.993614497796286
 31
0.0
  0
ENDBLK
  5
6A49
  8
0
  0
ENDSEC
  0
SECTION
  2
ENTITIES
  0
ATTDEF
  5
3930
  8
DEFPOINTS
 10
3896.8147955334961807
 20
71.6974150538984532
 30
0.0
 40
0.001
  1
K-15475T
  3

  2
MODELNUMBER
 70
     0
1001
ACDBATTR
1070
     0
1070
     1
  0
ATTDEF
  5
3931
  8
DEFPOINTS
 10
3896.8147955334961807
 20
71.6957483872317738
 30
0.0
 40
0.001
  1
TOOBI
  3

  2
TRADENAME
 70
     0
1001
ACDBATTR
1070
     0
1070
     1
  0
ATTDEF
  5
3932
  8
DEFPOINTS
 10
3896.8147955334961807
 20
71.6940817205651229
 30
0.0
 40
0.001
  1
ROBE HOOK
  3

  2
PRODUCT
 70
     0
1001
ACDBATTR
1070
     0
1070
     1
  0
LINE
  5
72DE
  8
0
 10
3894.6493176379572105
 20
71.6958708983347179
 30
0.0
 11
3894.6493176379572105
 21
71.3257921582347194
 31
0.0
  0
LINE
  5
72DF
  8
0
 10
3892.483963307357044
 20
71.6958708983347179
 30
0.0
 11
3892.483963307357044
 21
71.3257921582347194
 31
0.0
  0
ARC
  5
72E0
  8
0
 10
3892.5075853547277802
 20
71.3257921583054326
 30
0.0
 40
0.0236220473707096
 50
180.0000001715118003
 51
269.9999995859323008
  0
ARC
  5
72E1
  8
0
 10
3894.6256955909279895
 20
71.3257921580640044
 30
0.0
 40
0.0236220470292885
 50
269.9999998285052811
 51
0.0000004140725973
  0
LINE
  5
72E2
  8
0
 10
3893.1729396851569618
 20
71.3021701109825301
 30
0.0
 11
3893.1729396851569618
 21
69.8393006004481833
 31
0.0
  0
LINE
  5
72E3
  8
0
 10
3893.9603412600567935
 20
71.3021701109939272
 30
0.0
 11
3893.9603412600567935
 21
69.8392865962340608
 31
0.0
  0
ARC
  5
72E4
  8
0
 10
3893.3955375980708595
 20
69.8273078231724753
 30
0.0
 40
0.2229207427326635
 50
128.6523095192117978
 51
176.9160904208812042
  0
ARC
  5
72E5
  8
0
 10
3893.5369102061081321
 20
69.6504310380118454
 30
0.0
 40
0.4493530923080348
 50
97.8582010358311152
 51
128.6432620292754052
  0
ARC
  5
72E6
  8
0
 10
3893.5663771190829721
 20
69.5456308015308338
 30
0.0
 40
0.557396133750336
 50
66.2446818280160556
 51
99.3860452897666846
  0
ARC
  5
72E7
  8
0
 10
3893.6678571411248413
 20
69.7649209801702028
 30
0.0
 40
0.3158388538103207
 50
35.2247817422175018
 51
67.0692129054764337
  0
ARC
  5
72E8
  8
0
 10
3893.7651187038568423
 20
69.8362692736983348
 30
0.0
 40
0.1952458723874741
 50
0.8854821191758885
 51
34.5835638735265221
  0
ARC
  5
72E9
  8
0
 10
3893.4182661963682222
 20
69.844014606350882
 30
0.0
 40
0.2453717973899752
 50
181.1008162435743998
 51
227.7741901646784868
  0
ARC
  5
72EA
  8
0
 10
3893.5434953041249173
 20
69.9876256015845541
 30
0.0
 40
0.4358931757541609
 50
228.2713170688695072
 51
264.0439705106063002
  0
ARC
  5
72EB
  8
0
 10
3893.5667627973571143
 20
70.0770356651341046
 30
0.0
 40
0.5274172003743109
 50
262.5376605077116778
 51
291.4559406509328028
  0
ARC
  5
72EC
  8
0
 10
3893.6420449458910298
 20
69.9041535667322051
 30
0.0
 40
0.3390475987506909
 50
290.3021248690774883
 51
324.7965246488745947
  0
ARC
  5
72ED
  8
0
 10
3893.7276071302749187
 20
69.8410040698218921
 30
0.0
 40
0.2327404667881735
 50
325.3565983809046998
 51
359.5771904970130208
  0
LINE
  5
72EE
  8
0
 10
3890.3186089765567885
 20
71.6958708982405426
 30
0.0
 11
3890.3186089765567885
 21
71.3257921581405441
 31
0.0
  0
ARC
  5
72EF
  8
0
 10
3892.4603412596679846
 20
71.3257921583044094
 30
0.0
 40
0.0236220473707096
 50
270.0000004165428891
 51
359.9999998309796752
  0
ARC
  5
72F0
  8
0
 10
3890.3422310233841017
 20
71.3257921577690297
 30
0.0
 40
0.0236220468274606
 50
179.9999990988841887
 51
270.0000003767827934
  0
LINE
  5
72F1
  8
0
 10
3891.7949869293370284
 20
71.3021701109733357
 30
0.0
 11
3891.7949869293370284
 21
69.8393006004182268
 31
0.0
  0
LINE
  5
72F2
  8
0
 10
3891.0075853545090467
 20
71.3021701108705059
 30
0.0
 11
3891.0075853545090467
 21
69.8392865961666871
 31
0.0
  0
ARC
  5
72F3
  8
0
 10
3891.572389016238958
 20
69.8273078230096615
 30
0.0
 40
0.222920742922901
 50
3.0839096107478232
 51
51.3476904728401635
  0
ARC
  5
72F4
  8
0
 10
3891.4310164083722157
 20
69.6504310380075964
 30
0.0
 40
0.4493530922653107
 50
51.3567354298192598
 51
82.1417989674038864
  0
ARC
  5
72F5
  8
0
 10
3891.4015494953900998
 20
69.5456308014837674
 30
0.0
 40
0.557396133750336
 50
80.613954712741787
 51
113.7553181744869022
  0
ARC
  5
72F6
  8
0
 10
3891.3000694733391356
 20
69.7649209801187169
 30
0.0
 40
0.3158388538103207
 50
112.9307870970132939
 51
144.7752182602719131
  0
ARC
  5
72F7
  8
0
 10
3891.2028079094911845
 20
69.8362692741888367
 30
0.0
 40
0.1952458711618543
 50
145.4164360756984138
 51
179.1145180380673878
  0
ARC
  5
72F8
  8
0
 10
3891.5496604179252245
 20
69.8440146064326086
 30
0.0
 40
0.2453717975933322
 50
312.225809847627886
 51
358.8991837312511848
  0
ARC
  5
72F9
  8
0
 10
3891.4244313103281456
 20
69.9876256015384683
 30
0.0
 40
0.4358931757541609
 50
275.9560294918824184
 51
311.7286829336150049
  0
ARC
  5
72FA
  8
0
 10
3891.4011638170932201
 20
70.0770356650870099
 30
0.0
 40
0.5274172003743109
 50
248.5440593515590137
 51
277.4623394947846009
  0
ARC
  5
72FB
  8
0
 10
3891.3258816685670354
 20
69.9041535666818419
 30
0.0
 40
0.3390475987506909
 50
215.2034753536146923
 51
249.6978751334218032
  0
ARC
  5
72FC
  8
0
 10
3891.2403194831058499
 20
69.8410040692391334
 30
0.0
 40
0.2327404655993849
 50
180.4228093774898127
 51
214.643401665613311
  0
LINE
  5
72FD
  8
0
 10
3903.310734960757145
 20
71.6958708984288933
 30
0.0
 11
3903.310734960757145
 21
71.3257921583288947
 31
0.0
  0
LINE
  5
72FE
  8
0
 10
3901.1453806301569784
 20
71.6958708984288933
 30
0.0
 11
3901.1453806301569784
 21
71.3257921583288947
 31
0.0
  0
ARC
  5
72FF
  8
0
 10
3901.1690026775281694
 20
71.3257921583995937
 30
0.0
 40
0.0236220473707096
 50
180.0000001715118003
 51
269.9999995859323008
  0
ARC
  5
7300
  8
0
 10
3903.287112913727924
 20
71.3257921581581797
 30
0.0
 40
0.0236220470292885
 50
269.9999998285052811
 51
0.0000004140725973
  0
LINE
  5
7301
  8
0
 10
3901.8343570080428435
 20
71.3021701110974817
 30
0.0
 11
3901.8343570079568963
 21
69.8393006005423729
 31
0.0
  0
LINE
  5
7302
  8
0
 10
3902.6217585828708252
 20
71.3021701110603061
 30
0.0
 11
3902.6217585828571828
 21
69.8392865963282361
 31
0.0
  0
ARC
  5
7303
  8
0
 10
3902.056954920870794
 20
69.8273078232667075
 30
0.0
 40
0.2229207427325759
 50
128.6523095192092967
 51
176.9160904208933971
  0
ARC
  5
7304
  8
0
 10
3902.1983275289080666
 20
69.6504310381060634
 30
0.0
 40
0.4493530923080048
 50
97.8582010358311152
 51
128.6432620292754052
  0
ARC
  5
7305
  8
0
 10
3902.2277944418829065
 20
69.5456308016249949
 30
0.0
 40
0.557396133750336
 50
66.2446818280160556
 51
99.3860452897666846
  0
ARC
  5
7306
  8
0
 10
3902.3292744639247758
 20
69.7649209802643639
 30
0.0
 40
0.3158388538103207
 50
35.2247817422175018
 51
67.0692129054764337
  0
ARC
  5
7307
  8
0
 10
3902.4265360266581411
 20
69.8362692737924533
 30
0.0
 40
0.1952458723876064
 50
0.8854821191913568
 51
34.5835638735218183
  0
ARC
  5
7308
  8
0
 10
3902.0796835191681566
 20
69.8440146064450005
 30
0.0
 40
0.2453717973898818
 50
181.1008162435614111
 51
227.7741901646807037
  0
ARC
  5
7309
  8
0
 10
3902.2049126269248518
 20
69.9876256016787295
 30
0.0
 40
0.4358931757541609
 50
228.2713170688695072
 51
264.0439705106063002
  0
ARC
  5
730A
  8
0
 10
3902.2281801201570488
 20
70.0770356652282658
 30
0.0
 40
0.5274172003743109
 50
262.5376605077116778
 51
291.4559406509328028
  0
ARC
  5
730B
  8
0
 10
3902.3034622686909643
 20
69.9041535668263805
 30
0.0
 40
0.3390475987506909
 50
290.3021248690774883
 51
324.7965246488745947
  0
ARC
  5
730C
  8
0
 10
3902.3890244530748532
 20
69.8410040699161243
 30
0.0
 40
0.2327404667883012
 50
325.3565983809079967
 51
359.5771904969992079
  0
ARC
  5
730D
  8
0
 10
3901.121758582467919
 20
71.3257921583985848
 30
0.0
 40
0.0236220473707096
 50
270.0000004165428891
 51
359.9999998309796752
  0
ARC
  5
730E
  8
0
 10
3899.0036483461840362
 20
71.325792157863205
 30
0.0
 40
0.0236220468274553
 50
179.9999990988793002
 51
270.0000003767827934
  0
LINE
  5
730F
  8
0
 10
3900.4564042521369629
 20
71.302170111067511
 30
0.0
 11
3900.4564042521369629
 21
69.8393006005124022
 31
0.0
  0
LINE
  5
7310
  8
0
 10
3899.6690026773089812
 20
71.3021701109646813
 30
0.0
 11
3899.6690026773089812
 21
69.8392865962608624
 31
0.0
  0
ARC
  5
7311
  8
0
 10
3900.2338063390388925
 20
69.8273078231038369
 30
0.0
 40
0.222920742922901
 50
3.0839096107478232
 51
51.3476904728401635
  0
ARC
  5
7312
  8
0
 10
3900.0924337311721501
 20
69.6504310381017717
 30
0.0
 40
0.4493530922653107
 50
51.3567354298192598
 51
82.1417989674038864
  0
ARC
  5
7313
  8
0
 10
3900.0629668181900342
 20
69.5456308015779427
 30
0.0
 40
0.557396133750336
 50
80.613954712741787
 51
113.7553181744869022
  0
ARC
  5
7314
  8
0
 10
3899.9614867961390701
 20
69.7649209802128922
 30
0.0
 40
0.3158388538103207
 50
112.9307870970132939
 51
144.7752182602719131
  0
ARC
  5
7315
  8
0
 10
3899.864225232291119
 20
69.8362692742829978
 30
0.0
 40
0.195245871161873
 50
145.4164360756996928
 51
179.1145180380650004
  0
ARC
  5
7316
  8
0
 10
3900.2110777407237947
 20
69.844014606526784
 30
0.0
 40
0.2453717975933322
 50
312.225809847627886
 51
358.8991837312511848
  0
ARC
  5
7317
  8
0
 10
3900.0858486331280801
 20
69.9876256016326437
 30
0.0
 40
0.4358931757541609
 50
275.9560294918824184
 51
311.7286829336150049
  0
ARC
  5
7318
  8
0
 10
3900.0625811398931546
 20
70.0770356651811852
 30
0.0
 40
0.5274172003743109
 50
248.5440593515590137
 51
277.4623394947846009
  0
ARC
  5
7319
  8
0
 10
3899.9872989913669699
 20
69.904153566776003
 30
0.0
 40
0.3390475987506909
 50
215.2034753536146923
 51
249.6978751334218032
  0
ARC
  5
731A
  8
0
 10
3899.9017368059057844
 20
69.8410040693333087
 30
0.0
 40
0.2327404655993564
 50
180.4228093774873969
 51
214.64340166561459
  0
LINE
  5
731B
  8
0
 10
3898.9800262993571778
 20
71.6958708984288933
 30
0.0
 11
3898.9800262993571778
 21
71.3257921583288947
 31
0.0
  0
LINE
  5
731C
  8
0
 10
3896.8146719687570112
 20
71.6958708984288933
 30
0.0
 11
3896.8146719687570112
 21
71.3257921583288947
 31
0.0
  0
ARC
  5
731D
  8
0
 10
3896.8382940161282022
 20
71.3257921583995937
 30
0.0
 40
0.0236220473707096
 50
180.0000001715118003
 51
269.9999995859323008
  0
ARC
  5
731E
  8
0
 10
3898.9564042523279568
 20
71.3257921581581797
 30
0.0
 40
0.0236220470292885
 50
269.9999998285052811
 51
0.0000004140725973
  0
LINE
  5
731F
  8
0
 10
3897.503648346556929
 20
71.3021701110451858
 30
0.0
 11
3897.503648346556929
 21
69.8393006005423729
 31
0.0
  0
LINE
  5
7320
  8
0
 10
3898.2910499214572155
 20
71.3021701110565971
 30
0.0
 11
3898.2910499214572155
 21
69.8392865963282361
 31
0.0
  0
ARC
  5
7321
  8
0
 10
3897.7262462594708268
 20
69.8273078232666791
 30
0.0
 40
0.2229207427326219
 50
128.6523095192102915
 51
176.9160904208868885
  0
ARC
  5
7322
  8
0
 10
3897.8676188675080994
 20
69.6504310381060492
 30
0.0
 40
0.4493530923080193
 50
97.8582010358311152
 51
128.6432620292754052
  0
ARC
  5
7323
  8
0
 10
3897.8970857804829393
 20
69.5456308016249949
 30
0.0
 40
0.557396133750336
 50
66.2446818280160556
 51
99.3860452897666846
  0
ARC
  5
7324
  8
0
 10
3897.9985658025248085
 20
69.7649209802643639
 30
0.0
 40
0.3158388538103207
 50
35.2247817422175018
 51
67.0692129054764337
  0
ARC
  5
7325
  8
0
 10
3898.0958273652581738
 20
69.8362692737924675
 30
0.0
 40
0.1952458723875635
 50
0.885482119186472
 51
34.5835638735238504
  0
ARC
  5
7326
  8
0
 10
3897.7489748577681894
 20
69.8440146064450289
 30
0.0
 40
0.2453717973899321
 50
181.1008162435678912
 51
227.7741901646795952
  0
ARC
  5
7327
  8
0
 10
3897.8742039655248846
 20
69.9876256016787295
 30
0.0
 40
0.4358931757541609
 50
228.2713170688695072
 51
264.0439705106063002
  0
ARC
  5
7328
  8
0
 10
3897.8974714587570816
 20
70.0770356652282658
 30
0.0
 40
0.5274172003743109
 50
262.5376605077116778
 51
291.4559406509328028
  0
ARC
  5
7329
  8
0
 10
3897.972753607290997
 20
69.9041535668263805
 30
0.0
 40
0.3390475987506909
 50
290.3021248690774883
 51
324.7965246488745947
  0
ARC
  5
732A
  8
0
 10
3898.058315791674886
 20
69.8410040699161101
 30
0.0
 40
0.2327404667882571
 50
325.3565983809060072
 51
359.5771904970031869
  0
ARC
  5
732B
  8
0
 10
3896.7910499210679518
 20
71.3257921583985848
 30
0.0
 40
0.0236220473707096
 50
270.0000004165428891
 51
359.9999998309796752
  0
ARC
  5
732C
  8
0
 10
3894.6729396847849785
 20
71.325792157863205
 30
0.0
 40
0.0236220468274606
 50
179.9999990988841887
 51
270.0000003767827934
  0
LINE
  5
732D
  8
0
 10
3896.1256955907360862
 20
71.302170111067511
 30
0.0
 11
3896.1256955907360862
 21
69.8393006005124022
 31
0.0
  0
LINE
  5
732E
  8
0
 10
3895.338294015909014
 20
71.3021701109646813
 30
0.0
 11
3895.338294015909014
 21
69.8392865962608624
 31
0.0
  0
ARC
  5
732F
  8
0
 10
3895.9030976776389252
 20
69.8273078231038369
 30
0.0
 40
0.222920742922901
 50
3.0839096107478232
 51
51.3476904728401635
  0
ARC
  5
7330
  8
0
 10
3895.7617250697708187
 20
69.6504310381017717
 30
0.0
 40
0.4493530922653107
 50
51.3567354298192598
 51
82.1417989674038864
  0
ARC
  5
7331
  8
0
 10
3895.7322581567891575
 20
69.5456308015779427
 30
0.0
 40
0.557396133750336
 50
80.613954712741787
 51
113.7553181744869022
  0
ARC
  5
7332
  8
0
 10
3895.6307781347391028
 20
69.7649209802128922
 30
0.0
 40
0.3158388538103207
 50
112.9307870970132939
 51
144.7752182602719131
  0
ARC
  5
7333
  8
0
 10
3895.5335165708911518
 20
69.8362692742829978
 30
0.0
 40
0.195245871161873
 50
145.4164360756996928
 51
179.1145180380650004
  0
ARC
  5
7334
  8
0
 10
3895.8803690793251917
 20
69.844014606526784
 30
0.0
 40
0.2453717975933322
 50
312.225809847627886
 51
358.8991837312511848
  0
ARC
  5
7335
  8
0
 10
3895.7551399717281129
 20
69.9876256016326437
 30
0.0
 40
0.4358931757541609
 50
275.9560294918824184
 51
311.7286829336150049
  0
ARC
  5
7336
  8
0
 10
3895.7318724784918231
 20
70.0770356651811852
 30
0.0
 40
0.5274172003743109
 50
248.5440593515590137
 51
277.4623394947846009
  0
ARC
  5
7337
  8
0
 10
3895.6565903299670026
 20
69.904153566776003
 30
0.0
 40
0.3390475987506909
 50
215.2034753536146923
 51
249.6978751334218032
  0
ARC
  5
7338
  8
0
 10
3895.5710281445058172
 20
69.8410040693333087
 30
0.0
 40
0.2327404655993564
 50
180.4228093774873969
 51
214.64340166561459
  0
LINE
  5
733A
  8
0
 10
3890.3186089765567885
 20
71.6958708982405426
 30
0.0
 11
3903.310734960757145
 21
71.6958708982405426
 31
0.0
  0
LINE
  5
733B
  8
0
 10
3903.2871129136578929
 20
71.3021701111288877
 30
0.0
 11
3901.1690026775281694
 21
71.3021701110982349
 31
0.0
  0
LINE
  5
733C
  8
0
 10
3901.121758582467919
 20
71.3021701110975528
 30
0.0
 11
3899.0036483461840362
 21
71.3021701110668999
 31
0.0
  0
LINE
  5
733D
  8
0
 10
3898.9564042523279568
 20
71.3021701110662178
 30
0.0
 11
3896.8382940161282022
 21
71.302170111035565
 31
0.0
  0
LINE
  5
733E
  8
0
 10
3896.7910499210679518
 20
71.3021701110348829
 30
0.0
 11
3894.6729396847849785
 21
71.3021701110042301
 31
0.0
  0
LINE
  5
733F
  8
0
 10
3894.6256955909279895
 20
71.302170111003548
 30
0.0
 11
3892.5075853547277802
 21
71.3021701109728951
 31
0.0
  0
LINE
  5
7340
  8
0
 10
3892.4603412596679846
 20
71.302170110972213
 30
0.0
 11
3890.3422310235400801
 21
71.3021701109415602
 31
0.0
  0
ENDSEC
  0
EOF
