  0
SECTION
  2
HEADER
  9
$ACADVER
  1
AC1009
  9
$INSBASE
 10
4636.6790777354735837
 20
313.1504395832394039
 30
0.0
  9
$EXTMIN
 10
4627.9443746290298805
 20
283.6149182647952784
 30
0.0
  9
$EXTMAX
 10
4645.413780841919106
 20
313.1503400549656817
 30
0.0
  9
$LIMMIN
 10
0.0
 20
0.0
  9
$LIMMAX
 10
11.6929133858000007
 20
8.2677165353999982
  9
$ORTHOMODE
 70
     0
  9
$REGENMODE
 70
     1
  9
$FILLMODE
 70
     1
  9
$QTEXTMODE
 70
     0
  9
$MIRRTEXT
 70
     0
  9
$DRAGMODE
 70
     2
  9
$LTSCALE
 40
0.6431102362
  9
$OSMODE
 70
  4095
  9
$ATTMODE
 70
     1
  9
$TEXTSIZE
 40
0.2
  9
$TRACEWID
 40
0.05
  9
$TEXTSTYLE
  7
STANDARD
  9
$CLAYER
  8
0
  9
$CELTYPE
  6
BYLAYER
  9
$CECOLOR
 62
   256
  9
$DIMSCALE
 40
1.0
  9
$DIMASZ
 40
0.1875
  9
$DIMEXO
 40
0.0625
  9
$DIMDLI
 40
0.4443307087
  9
$DIMRND
 40
0.0
  9
$DIMDLE
 40
0.0
  9
$DIMEXE
 40
0.125
  9
$DIMTP
 40
0.01
  9
$DIMTM
 40
0.01
  9
$DIMTXT
 40
2.0
  9
$DIMCEN
 40
0.1052362205
  9
$DIMTSZ
 40
0.0
  9
$DIMTOL
 70
     1
  9
$DIMLIM
 70
     0
  9
$DIMTIH
 70
     1
  9
$DIMTOH
 70
     1
  9
$DIMSE1
 70
     0
  9
$DIMSE2
 70
     0
  9
$DIMTAD
 70
     0
  9
$DIMZIN
 70
     0
  9
$DIMBLK
  1

  9
$DIMASO
 70
     1
  9
$DIMSHO
 70
     1
  9
$DIMPOST
  1
\X
  9
$DIMAPOST
  1

  9
$DIMALT
 70
     1
  9
$DIMALTD
 70
     2
  9
$DIMALTF
 40
25.3999999999999986
  9
$DIMLFAC
 40
1.0
  9
$DIMTOFL
 70
     0
  9
$DIMTVP
 40
0.0
  9
$DIMTIX
 70
     0
  9
$DIMSOXD
 70
     0
  9
$DIMSAH
 70
     0
  9
$DIMBLK1
  1

  9
$DIMBLK2
  1

  9
$DIMSTYLE
  2
STANDARD
  9
$DIMCLRD
 70
     0
  9
$DIMCLRE
 70
     0
  9
$DIMCLRT
 70
     0
  9
$DIMTFAC
 40
1.0
  9
$DIMGAP
 40
0.09
  9
$LUNITS
 70
     2
  9
$LUPREC
 70
     4
  9
$SKETCHINC
 40
0.1
  9
$FILLETRAD
 40
0.0
  9
$AUNITS
 70
     0
  9
$AUPREC
 70
     0
  9
$MENU
  1
.
  9
$ELEVATION
 40
0.0
  9
$PELEVATION
 40
0.0
  9
$THICKNESS
 40
0.0
  9
$LIMCHECK
 70
     0
  9
$BLIPMODE
 70
     0
  9
$CHAMFERA
 40
0.0
  9
$CHAMFERB
 40
0.0
  9
$SKPOLY
 70
     0
  9
$TDCREATE
 40
2458060.468368056230247
  9
$TDUPDATE
 40
2459867.7257754630409181
  9
$TDINDWG
 40
0.3573913194
  9
$TDUSRTIMER
 40
0.3573913194
  9
$USRTIMER
 70
     1
  9
$ANGBASE
 50
0.0
  9
$ANGDIR
 70
     0
  9
$PDMODE
 70
     0
  9
$PDSIZE
 40
0.3125
  9
$PLINEWID
 40
0.0
  9
$COORDS
 70
     1
  9
$SPLFRAME
 70
     0
  9
$SPLINETYPE
 70
     6
  9
$SPLINESEGS
 70
     8
  9
$ATTDIA
 70
     1
  9
$ATTREQ
 70
     1
  9
$HANDLING
 70
     1
  9
$HANDSEED
  5
CFF9
  9
$SURFTAB1
 70
     6
  9
$SURFTAB2
 70
     6
  9
$SURFTYPE
 70
     6
  9
$SURFU
 70
     6
  9
$SURFV
 70
     6
  9
$UCSNAME
  2

  9
$UCSORG
 10
0.0
 20
0.0
 30
0.0
  9
$UCSXDIR
 10
1.0
 20
0.0
 30
0.0
  9
$UCSYDIR
 10
0.0
 20
1.0
 30
0.0
  9
$PUCSNAME
  2

  9
$PUCSORG
 10
0.0
 20
0.0
 30
0.0
  9
$PUCSXDIR
 10
1.0
 20
0.0
 30
0.0
  9
$PUCSYDIR
 10
0.0
 20
1.0
 30
0.0
  9
$USERI1
 70
     0
  9
$USERI2
 70
     0
  9
$USERI3
 70
     0
  9
$USERI4
 70
     0
  9
$USERI5
 70
     0
  9
$USERR1
 40
0.0
  9
$USERR2
 40
0.0
  9
$USERR3
 40
0.0
  9
$USERR4
 40
0.0
  9
$USERR5
 40
0.0
  9
$WORLDVIEW
 70
     1
  9
$SHADEDGE
 70
     3
  9
$SHADEDIF
 70
    70
  9
$TILEMODE
 70
     1
  9
$MAXACTVP
 70
    64
  9
$PLIMCHECK
 70
     0
  9
$PEXTMIN
 10
1.0000000000000000E+20
 20
1.0000000000000000E+20
 30
1.0000000000000000E+20
  9
$PEXTMAX
 10
-1.0000000000000000E+20
 20
-1.0000000000000000E+20
 30
-1.0000000000000000E+20
  9
$PLIMMIN
 10
0.0
 20
0.0
  9
$PLIMMAX
 10
12.0
 20
9.0
  9
$UNITMODE
 70
     0
  9
$VISRETAIN
 70
     1
  9
$PLINEGEN
 70
     0
  9
$PSLTSCALE
 70
     1
  0
ENDSEC
  0
SECTION
  2
TABLES
  0
TABLE
  2
VPORT
 70
     1
  0
VPORT
  2
*ACTIVE
 70
     0
 10
0.0
 20
0.0
 11
1.0
 21
1.0
 12
43.8765216005736605
 22
104.8315212272635932
 13
0.0
 23
0.0
 14
1.0
 24
1.0
 15
0.0
 25
0.0
 16
0.0
 26
0.0
 36
70.1442342548394606
 17
4592.81298828125
 27
208.3136978149414063
 37
0.0
 40
0.0281369520520779
 41
2.0416666666666661
 42
50.0
 43
0.0
 44
0.0
 50
0.0
 51
0.0
 71
     0
 72
   100
 73
     1
 74
     1
 75
     0
 76
     0
 77
     0
 78
     0
  0
ENDTAB
  0
TABLE
  2
LTYPE
 70
     2
  0
LTYPE
  2
CONTINUOUS
 70
     0
  3
Solid line
 72
    65
 73
     0
 40
0.0
  0
LTYPE
  2
PHANTOM2
 70
     0
  3
___ _ _ ___ _ _ ___ _ _ ___ _ _
 72
    65
 73
     6
 40
1.25
 49
0.625
 49
-0.125
 49
0.125
 49
-0.125
 49
0.125
 49
-0.125
  0
ENDTAB
  0
TABLE
  2
LAYER
 70
     2
  0
LAYER
  2
0
 70
     0
 62
   255
  6
CONTINUOUS
  0
LAYER
  2
DEFPOINTS
 70
     0
 62
     7
  6
CONTINUOUS
  0
ENDTAB
  0
TABLE
  2
STYLE
 70
     1
  0
STYLE
  2
STANDARD
 70
     0
 40
0.0
 41
0.8
 50
0.0
 71
     0
 42
0.2
  3
txt
  4

  0
ENDTAB
  0
TABLE
  2
VIEW
 70
     0
  0
ENDTAB
  0
TABLE
  2
UCS
 70
     0
  0
ENDTAB
  0
TABLE
  2
APPID
 70
     9
  0
APPID
  2
ACAD
 70
     0
  0
APPID
  2
ACAD_MLEADERVER
 70
     0
  0
APPID
  2
ACAD_EXEMPT_FROM_CAD_STANDARDS
 70
     0
  0
APPID
  2
ACAD_NAV_VCDISPLAY
 70
     0
  0
APPID
  2
ACAECLAYERSTANDARD
 70
     0
  0
APPID
  2
ACCMTRANSPARENCY
 70
     0
  0
APPID
  2
ACAD_DSTYLE_DIMJAG
 70
     0
  0
APPID
  2
ACAD_DSTYLE_DIMTALN
 70
     0
  0
APPID
  2
ACDBATTR
 70
     0
  0
ENDTAB
  0
TABLE
  2
DIMSTYLE
 70
     1
  0
DIMSTYLE
  2
STANDARD
 70
     0
  3

  4

  5

  6

  7

 40
1.0
 41
0.1875
 42
0.0625
 43
0.38
 44
0.125
 45
0.0
 46
0.0
 47
0.01
 48
0.01
140
0.15625
141
0.09
142
0.0
143
25.3999999999999986
144
1.0
145
0.0
146
1.0
147
0.09
 71
     1
 72
     0
 73
     1
 74
     1
 75
     0
 76
     0
 77
     0
 78
     4
170
     0
171
     2
172
     0
173
     0
174
     0
175
     0
176
     0
177
     0
178
     0
  0
ENDTAB
  0
ENDSEC
  0
SECTION
  2
BLOCKS
  0
BLOCK
  8
0
  2
$MODEL_SPACE
 70
     0
 10
0.0
 20
0.0
 30
0.0
  3
$MODEL_SPACE
  1

  0
ENDBLK
  5
21
  8
0
  0
BLOCK
 67
     1
  8
0
  2
$PAPER_SPACE
 70
     0
 10
0.0
 20
0.0
 30
0.0
  3
$PAPER_SPACE
  1

  0
ENDBLK
  5
1D
 67
     1
  8
0
  0
BLOCK
  8
0
  2
_FILLED
 70
     0
 10
0.0
 20
0.0
 30
0.0
  3
_FILLED
  1

  0
SOLID
  5
C373
  8
0
  6
BYBLOCK
 62
     0
 10
0.0
 20
0.0
 30
0.0
 11
-1.0
 21
0.1666666667
 31
0.0
 12
-1.0
 22
-0.1666666667
 32
0.0
 13
-1.0
 23
-0.1666666667
 33
0.0
  0
ENDBLK
  5
C374
  8
0
  6
BYBLOCK
 62
     0
  0
ENDSEC
  0
SECTION
  2
ENTITIES
  0
ATTDEF
  5
3930
  8
DEFPOINTS
 10
4636.6791798116519203
 20
313.149340054965819
 30
0.0
 40
0.001
  1
K-15494X
  3

  2
MODELNUMBER
 70
     0
1001
ACDBATTR
1070
     0
1070
     1
  0
ATTDEF
  5
3931
  8
DEFPOINTS
 10
4636.6791798116519203
 20
313.147673388299097
 30
0.0
 40
0.001
  1
STINSON
  3

  2
TRADENAME
 70
     0
1001
ACDBATTR
1070
     0
1070
     1
  0
ATTDEF
  5
3932
  8
DEFPOINTS
 10
4636.6791798116519203
 20
313.146006721632375
 30
0.0
 40
0.001
  1
TOILET
  3

  2
PRODUCT
 70
     0
1001
ACDBATTR
1070
     0
1070
     1
  0
LINE
  5
CDF2
  8
0
 10
4627.9443746290298805
 20
311.4849395832393952
 30
0.0
 11
4627.9443746290298805
 21
307.9851755175799894
 31
0.0
  0
LINE
  5
CDF3
  8
0
 10
4628.9398746290298732
 20
312.480439583239388
 30
0.0
 11
4644.4182808419191133
 21
312.480439583239388
 31
0.0
  0
ARC
  5
CDF4
  8
0
 10
4628.9398746290298732
 20
311.4849395832393952
 30
0.0
 40
0.9955000000000001
 50
90.0
 51
180.0
  0
ARC
  5
CDF5
  8
0
 10
4636.8040837991411536
 20
355.8223204048763932
 30
0.0
 40
51.9627262901556293
 50
264.0400169143438802
 51
266.2925326934446275
  0
ARC
  5
CDF6
  8
0
 10
4636.6492463352760751
 20
353.432778673759401
 30
0.0
 40
49.568173236876973
 50
266.2925326934446275
 51
270.0344820742748766
  0
ARC
  5
CDF7
  8
0
 10
4631.8099746290299663
 20
307.9851755175799894
 30
0.0
 40
3.8656000000000001
 50
180.0
 51
264.0400169143438802
  0
ARC
  5
CDF8
  8
0
 10
4619.6372568939568737
 20
306.0765956654284992
 30
0.0
 40
12.8518735735148404
 50
347.9079639207383821
 51
350.939297564770186
  0
ARC
  5
CDF9
  8
0
 10
4619.6371700423942457
 20
306.0766142721636811
 30
0.0
 40
12.8519623958352298
 50
342.5021366146563082
 51
347.9079639207383821
  0
ARC
  5
CDFA
  8
0
 10
4636.6791626166195783
 20
235.1293579872379098
 30
0.0
 40
67.3437411091549762
 50
90.0000722165147238
 51
91.670567475691584
  0
ARC
  5
CDFB
  8
0
 10
4636.6727644242955648
 20
235.3487358536501972
 30
0.0
 40
67.1242699603982089
 50
91.670567475691584
 51
92.236570706370685
  0
ARC
  5
CDFC
  8
0
 10
4636.6781655345721447
 20
235.2104421596361874
 30
0.0
 40
67.2626690853819156
 50
92.236570706370685
 51
93.0173335121890545
  0
ARC
  5
CDFD
  8
0
 10
4636.6531828516081077
 20
235.6843966610103109
 30
0.0
 40
66.7880566078586071
 50
93.0173335121890545
 51
93.3247377904731223
  0
ARC
  5
CDFE
  8
0
 10
4632.8875595853533014
 20
300.5051785095920991
 30
0.0
 40
1.85798901167636
 50
93.3247377904731223
 51
101.9406234030820002
  0
ARC
  5
CDFF
  8
0
 10
4632.7895317829161286
 20
300.9687246632735764
 30
0.0
 40
1.384191073053193
 50
101.9406234030820002
 51
104.2309723516216025
  0
ARC
  5
CE00
  8
0
 10
4632.7257639092749741
 20
301.2201612287498165
 30
0.0
 40
1.1247942955728281
 50
104.2309723516216025
 51
121.6640433276936051
  0
ARC
  5
CE01
  8
0
 10
4632.6606684225298523
 20
301.3257079024073732
 30
0.0
 40
1.000788155745747
 50
121.6640433276936051
 51
137.7131489815060092
  0
ARC
  5
CE02
  8
0
 10
4632.6330699214513515
 20
301.3508090308214946
 30
0.0
 40
0.9634820716649029
 50
137.7131489815060092
 51
144.3438760686514115
  0
ARC
  5
CE03
  8
0
 10
4637.0872571042400523
 20
297.5144763993363881
 30
0.0
 40
6.8387673624704961
 50
139.9771396890575943
 51
155.3125975756333901
  0
ARC
  5
CE04
  8
0
 10
4641.1041974163790655
 20
295.6676590852579238
 30
0.0
 40
11.2599146815945801
 50
155.3112053062876043
 51
169.9824931063517113
  0
ARC
  5
CE05
  8
0
 10
4647.2254920542673062
 20
294.4460759707394004
 30
0.0
 40
17.5009266938520192
 50
169.5301504703091098
 51
175.8596732398845006
  0
ARC
  5
CE06
  8
0
 10
4642.4249278780671375
 20
294.8332038497076724
 30
0.0
 40
12.6850021018617305
 50
176.0381753335877022
 51
190.4947460320904042
  0
ARC
  5
CE07
  8
0
 10
4643.7523730285538477
 20
294.9820098623077911
 30
0.0
 40
14.0176706832516107
 50
190.1045141597467989
 51
203.8822519003894911
  0
ARC
  5
CE08
  8
0
 10
4642.2023920038091092
 20
294.3558611464777073
 30
0.0
 40
12.3470208382759292
 50
204.1374094471736953
 51
220.4341427831963074
  0
ARC
  5
CE09
  8
0
 10
4636.9164783245032595
 20
289.7522123750308083
 30
0.0
 40
5.3383700761155071
 50
219.6208653127854973
 51
243.8612578707370062
  0
ARC
  5
CE0A
  8
0
 10
4636.6827204722458191
 20
289.544977667266096
 30
0.0
 40
5.0507397270550181
 50
245.2062729294565884
 51
260.2716086436212777
  0
ARC
  5
CE0B
  8
0
 10
4636.6391635947265968
 20
289.4707878599166975
 30
0.0
 40
4.9703495665174824
 50
260.6219791946147097
 51
270.4601158042332258
  0
ARC
  5
CE0C
  8
0
 10
4628.5974770730217642
 20
302.3628897437487808
 30
0.0
 40
4.6374463654890263
 50
0.2721765259278554
 51
2.252289861404988
  0
ARC
  5
CE0D
  8
0
 10
4633.0733317045678632
 20
302.5389257079038998
 30
0.0
 40
0.1581313125591069
 50
2.2522898614082432
 51
18.1123105332780092
  0
ARC
  5
CE0E
  8
0
 10
4633.1901209149864371
 20
302.5771260818449946
 30
0.0
 40
0.0352533721485807
 50
18.1123105332780092
 51
95.3453030710755201
  0
ARC
  5
CE0F
  8
0
 10
4633.0158931379555725
 20
274.4632348093347218
 30
0.0
 40
28.1495103899894303
 50
89.6520575443324361
 51
90.1136813545482482
  0
ARC
  5
CE10
  8
0
 10
4632.9403014418112434
 20
300.9075713942996799
 30
0.0
 40
1.7052326559075659
 50
89.3367250844452485
 51
101.0848670201776969
  0
ARC
  5
CE11
  8
0
 10
4632.8973117022624137
 20
301.1194222198553234
 30
0.0
 40
1.489069615417193
 50
101.0288178212680066
 51
115.6939526704703951
  0
ARC
  5
CE12
  8
0
 10
4632.8387700177563602
 20
301.2377772484330194
 30
0.0
 40
1.35703639932786
 50
115.6332060270112976
 51
142.0661609253266988
  0
ARC
  5
CE13
  8
0
 10
4638.7913932354622375
 20
296.6525838769185839
 30
0.0
 40
8.8708529609216473
 50
142.3435248080758981
 51
148.6612902230681925
  0
ARC
  5
CE14
  8
0
 10
4639.8593395567595508
 20
296.0979794659855884
 30
0.0
 40
10.0717734844780402
 50
149.1263108711081884
 51
158.6280884430775018
  0
ARC
  5
CE15
  8
0
 10
4642.1732186330846162
 20
295.327828435581182
 30
0.0
 40
12.5078313592299999
 50
159.2054303483724027
 51
171.8748678204524083
  0
ARC
  5
CE16
  8
0
 10
4645.1163777903957453
 20
294.6447764781225942
 30
0.0
 40
15.5201675429428505
 50
170.9141597888130093
 51
193.5701372387887034
  0
ARC
  5
CE17
  8
0
 10
4643.7907395875326984
 20
295.1517420460564836
 30
0.0
 40
14.3729853924937299
 50
196.7762575650542942
 51
209.8988007322552107
  0
ARC
  5
CE18
  8
0
 10
4640.9961458845109519
 20
293.381584311259985
 30
0.0
 40
11.06886725026345
 50
209.1661144772770058
 51
223.7553993163315909
  0
ARC
  5
CE19
  8
0
 10
4637.0253421670067837
 20
289.6808536121070006
 30
0.0
 40
5.6418785954691586
 50
224.4977787868888868
 51
239.6984020090648926
  0
ARC
  5
CE1A
  8
0
 10
4636.5979699800091112
 20
289.0128592752907934
 30
0.0
 40
4.8496185225599717
 50
240.075848814992213
 51
254.2300484467550916
  0
ARC
  5
CE1B
  8
0
 10
4636.6669556717915839
 20
289.2466929109385205
 30
0.0
 40
5.0934002313082178
 50
254.1981142246629872
 51
264.8927475887865057
  0
ARC
  5
CE1C
  8
0
 10
4636.6789236882195837
 20
289.3512503506523785
 30
0.0
 40
5.1986086114954064
 50
264.863951411537073
 51
270.0016978114904873
  0
ARC
  5
CE1D
  8
0
 10
4639.8796693891381437
 20
293.7944790605484968
 30
0.0
 40
10.8648225101412503
 50
155.061982549491205
 51
160.2246155528738996
  0
ARC
  5
CE1E
  8
0
 10
4635.5042775095462275
 20
295.1785149576691083
 30
0.0
 40
6.2817185235830584
 50
158.6015079318962933
 51
169.854607495359204
  0
ARC
  5
CE1F
  8
0
 10
4644.1507548444951681
 20
294.7297665293144746
 30
0.0
 40
14.9113028596197292
 50
174.0131496939698934
 51
189.4938404234166001
  0
ARC
  5
CE20
  8
0
 10
4643.0593133443353508
 20
294.4263804885692934
 30
0.0
 40
13.7852849141060894
 50
188.9983759177818001
 51
209.7576390111327953
  0
ARC
  5
CE21
  8
0
 10
4639.4046348346346349
 20
292.0719434576297999
 30
0.0
 40
9.4467571656559191
 50
208.3623470510057984
 51
233.5140709313220952
  0
ARC
  5
CE22
  8
0
 10
4636.9274145152257915
 20
289.5193596324264718
 30
0.0
 40
5.9403843117309707
 50
238.0893858174682123
 51
257.5479658602930044
  0
ARC
  5
CE23
  8
0
 10
4637.5452195237940032
 20
297.4191092837826886
 30
0.0
 40
13.8313372920394304
 50
262.1098614522177854
 51
266.4096919941972033
  0
ARC
  5
CE24
  8
0
 10
4634.2602581912024107
 20
302.4217872863239904
 30
0.0
 40
0.3182709973894203
 50
3.3366698599190472
 51
7.0631321330950811
  0
ARC
  5
CE25
  8
0
 10
4634.556359924181379
 20
302.4584752350218082
 30
0.0
 40
0.0199050444838246
 50
7.0631321330983132
 51
72.1122709521077638
  0
ARC
  5
CE26
  8
0
 10
4634.5556842250598493
 20
302.4563816973853818
 30
0.0
 40
0.0221049238299636
 50
72.1122709521077638
 51
89.1272874466849743
  0
ARC
  5
CE27
  8
0
 10
4634.4831075839529149
 20
297.6919107141126801
 30
0.0
 40
4.7871286508728499
 50
89.1272874466849743
 51
90.7237673547575554
  0
ARC
  5
CE28
  8
0
 10
4634.4866302085611096
 20
302.3797327239994956
 30
0.0
 40
0.1026240472153129
 50
75.1886938705448529
 51
86.2040101547037807
  0
ARC
  5
CE29
  8
0
 10
4634.4785279209991131
 20
302.2576176824725849
 30
0.0
 40
0.2250075854500575
 50
86.2040101547037807
 51
92.8923871182317527
  0
ARC
  5
CE2A
  8
0
 10
4634.5010254389144393
 20
301.8123392276972936
 30
0.0
 40
0.6708540170825459
 50
92.8923871182317527
 51
95.5029057602416174
  0
ARC
  5
CE2B
  8
0
 10
4634.5435828300469439
 20
301.3705986435120963
 30
0.0
 40
1.1146398609940931
 50
95.5029057602416174
 51
97.0310751715135638
  0
ARC
  5
CE2C
  8
0
 10
4634.2543010305225835
 20
303.7160924201099874
 30
0.0
 40
1.2486258912214341
 50
274.1425500172646821
 51
277.0310751715135211
  0
ARC
  5
CE2D
  8
0
 10
4634.0699311069938631
 20
306.2616754741994782
 30
0.0
 40
3.8008769278496581
 50
270.067966022279677
 51
274.1425500172646821
  0
ARC
  5
CE2E
  8
0
 10
4634.0031816089240237
 20
362.5318911198644969
 30
0.0
 40
60.0711321636768503
 50
269.7799184308237272
 51
270.067966022279677
  0
ARC
  5
CE2F
  8
0
 10
4633.7870397621973098
 20
306.2620511042171074
 30
0.0
 40
3.8008770311073889
 50
265.7053344846767118
 51
269.7799184308237272
  0
ARC
  5
CE30
  8
0
 10
4634.0080711199461803
 20
307.9505852021251826
 30
0.0
 40
5.5020244495269957
 50
263.6043174066348911
 51
264.7267918468193102
  0
ARC
  5
CE31
  8
0
 10
4633.3716699795877503
 20
302.3011595215662055
 30
0.0
 40
0.1831590012291176
 50
82.625774768772402
 51
102.3306638330318066
  0
ARC
  5
CE32
  8
0
 10
4634.5105794630662785
 20
302.3755866401428989
 30
0.0
 40
1.2435660308887431
 50
177.6315561099679883
 51
179.4943352240067043
  0
ARC
  5
CE33
  8
0
 10
4633.9109455991711002
 20
302.4003879196230855
 30
0.0
 40
0.6434194869573724
 50
174.8197088799315111
 51
177.6315561099679883
  0
ARC
  5
CE34
  8
0
 10
4633.304972351043034
 20
302.455325639894113
 30
0.0
 40
0.0349609998317524
 50
158.4508682363089918
 51
174.819708879934808
  0
ARC
  5
CE35
  8
0
 10
4633.2900090084676776
 20
302.461234684492922
 30
0.0
 40
0.0188731650131735
 50
86.9471976543945146
 51
158.4508682363089918
  0
ARC
  5
CE36
  8
0
 10
4633.3216919533488181
 20
268.854332339318205
 30
0.0
 40
33.6257627210602479
 50
89.8304186390979567
 51
90.0522727319875429
  0
LINE
  5
CE37
  8
0
 10
4633.2984666969341561
 20
302.4800870395550874
 30
0.0
 11
4633.2991307040238098
 21
302.8591942016893768
 31
0.0
  0
LINE
  5
CE38
  8
0
 10
4633.2991307040238098
 20
302.8591942016893768
 30
0.0
 11
4633.2994123128482897
 21
303.1939207649830905
 31
0.0
  0
ARC
  5
CE39
  8
0
 10
4634.2129740879317978
 20
303.193152176274225
 30
0.0
 40
0.9135620983943336
 50
171.6674486038417058
 51
179.9517964958542109
  0
ARC
  5
CE3A
  8
0
 10
4633.5794464211821833
 20
303.2859414837470808
 30
0.0
 40
0.2732753188030548
 50
142.1829225017550868
 51
171.6674486038417058
  0
ARC
  5
CE3B
  8
0
 10
4633.4388881476406823
 20
303.3950367738465843
 30
0.0
 40
0.0953472137081725
 50
116.3937968793751025
 51
142.1829225017550868
  0
ARC
  5
CE3C
  8
0
 10
4633.5220391866523642
 20
303.1160483453260781
 30
0.0
 40
0.3854144879286506
 50
95.3262449630674809
 51
109.0090933337493055
  0
ARC
  5
CE3D
  8
0
 10
4633.8493314850111346
 20
274.6708379306620031
 30
0.0
 40
28.8312469286203914
 50
89.013203981820169
 51
90.721539165466325
  0
ARC
  5
CE3E
  8
0
 10
4634.3542462350660571
 20
303.2300341368700174
 30
0.0
 40
0.267905975301902
 50
68.3510227792163789
 51
91.7932017298568752
  0
ARC
  5
CE3F
  8
0
 10
4634.342147207796188
 20
303.3233599010907824
 30
0.0
 40
0.1911636752243742
 50
14.7659131491551996
 51
54.5274688488574668
  0
ARC
  5
CE40
  8
0
 10
4634.1207054024371246
 20
303.235879422490882
 30
0.0
 40
0.4285143800680633
 50
2.0107154624219521
 51
18.5328344904868985
  0
ARC
  5
CE41
  8
0
 10
3880.5838529073939753
 20
303.3451507080462761
 30
0.0
 40
753.9651089205452763
 50
359.9341480157235083
 51
359.9928387404279988
  0
LINE
  5
CE42
  8
0
 10
4633.7748154891205559
 20
303.5019885637088919
 30
0.0
 11
4633.76859912517466
 21
303.6161514222395112
 31
0.0
  0
LINE
  5
CE43
  8
0
 10
4633.76859912517466
 20
303.6161514222395112
 30
0.0
 11
4634.081347038973945
 21
303.6157362621394782
 31
0.0
  0
LINE
  5
CE44
  8
0
 10
4634.081347038973945
 20
303.6157362621394782
 30
0.0
 11
4634.0748269795549277
 21
303.501203020979915
 31
0.0
  0
LINE
  5
CE45
  8
0
 10
4635.1107826903526075
 20
302.4548334848813056
 30
0.0
 11
4635.1080720003747047
 21
302.6030440982394794
 31
0.0
  0
ARC
  5
CE46
  8
0
 10
4635.0745396366810382
 20
302.602430809891473
 30
0.0
 40
0.0335379715769386
 50
1.0477912337124979
 51
74.3335823016973336
  0
ARC
  5
CE47
  8
0
 10
4635.0509474348709773
 20
302.5183096419639242
 30
0.0
 40
0.1209048009788226
 50
74.3335823016973336
 51
88.4477573441485561
  0
ARC
  5
CE48
  8
0
 10
4634.8664454205436414
 20
104.4295201042712051
 30
0.0
 40
198.2097389184228007
 50
89.9457199276373842
 51
90.0511446304145977
  0
ARC
  5
CE49
  8
0
 10
4634.6819810490733289
 20
302.3357965957894748
 30
0.0
 40
0.3034769920777704
 50
88.5774479551972576
 51
93.5439556435853774
  0
ARC
  5
CE4A
  8
0
 10
4634.6681701580628214
 20
302.5633338707978055
 30
0.0
 40
0.0755216545584531
 50
93.7568141952685892
 51
108.2112751463706957
  0
ARC
  5
CE4B
  8
0
 10
4634.657516182098334
 20
302.5958904905966165
 30
0.0
 40
0.0412662127368221
 50
108.2867104779754044
 51
131.6382234837716112
  0
ARC
  5
CE4C
  8
0
 10
4634.6502733520073889
 20
302.6043263599577813
 30
0.0
 40
0.0301499182088284
 50
132.0031653270667107
 51
170.7443114034747111
  0
ARC
  5
CE4D
  8
0
 10
4654.1805637976231083
 20
302.1484500641129216
 30
0.0
 40
19.5654731345818895
 50
178.6506805187439113
 51
179.1417191508197959
  0
LINE
  5
CE4E
  8
0
 10
4632.1564057199748277
 20
304.0678615440410226
 30
0.0
 11
4632.1401201385779132
 21
304.0127584321388099
 31
0.0
  0
ARC
  5
CE4F
  8
0
 10
4632.0538107228612716
 20
304.0382669554597896
 30
0.0
 40
0.0900000000192667
 50
266.0084604616848765
 51
343.5350923229855198
  0
ARC
  5
CE50
  8
0
 10
4851.7013355171866351
 20
1304.4436391236979489
 30
0.0
 40
1024.3233572409069438
 50
257.4965303694564795
 51
257.6174454787567925
  0
ARC
  5
CE51
  8
0
 10
4629.9588376359706672
 20
304.5144295310706752
 30
0.0
 40
0.1026
 50
173.8141704759379138
 51
257.4965303694041836
  0
LINE
  5
CE52
  8
0
 10
4629.8568350096829818
 20
304.525485037865792
 30
0.0
 11
4629.8694564582647217
 21
304.6419356833873167
 31
0.0
  0
LINE
  5
CE53
  8
0
 10
4645.413780841919106
 20
311.4849395832393952
 30
0.0
 11
4645.413780841919106
 21
307.9851755175799894
 31
0.0
  0
ARC
  5
CE54
  8
0
 10
4644.4182808419191133
 20
311.4849395832393952
 30
0.0
 40
0.9955000000000001
 50
0.0
 51
90.0
  0
ARC
  5
CE55
  8
0
 10
4636.5540716718078329
 20
355.8223204048763932
 30
0.0
 40
51.9627262901556293
 50
273.7074673065553725
 51
275.9599830856561198
  0
ARC
  5
CE56
  8
0
 10
4636.7089091356729114
 20
353.432778673759401
 30
0.0
 40
49.568173236876973
 50
269.9655179257251234
 51
273.7074673065553725
  0
ARC
  5
CE57
  8
0
 10
4641.5481808419190202
 20
307.9851755175799894
 30
0.0
 40
3.8656000000000001
 50
275.9599830856561198
 51
0.0
  0
ARC
  5
CE58
  8
0
 10
4653.7208985769921128
 20
306.0765956654284992
 30
0.0
 40
12.8518735735148404
 50
189.060702435229814
 51
192.0920360792615895
  0
ARC
  5
CE59
  8
0
 10
4653.7209854285547408
 20
306.0766142721636811
 30
0.0
 40
12.8519623958352298
 50
192.0920360792615895
 51
197.4978633853436918
  0
ARC
  5
CE5A
  8
0
 10
4636.6789928543275892
 20
235.1293579872379098
 30
0.0
 40
67.3437411091549762
 50
88.329432524308416
 51
89.9999277834852478
  0
ARC
  5
CE5B
  8
0
 10
4636.6853910466516027
 20
235.3487358536501972
 30
0.0
 40
67.1242699603982089
 50
87.763429293629315
 51
88.329432524308416
  0
ARC
  5
CE5C
  8
0
 10
4636.6799899363768418
 20
235.2104421596361874
 30
0.0
 40
67.2626690853819156
 50
86.9826664878109455
 51
87.763429293629315
  0
ARC
  5
CE5D
  8
0
 10
4636.7049726193399692
 20
235.6843966610103109
 30
0.0
 40
66.7880566078586071
 50
86.6752622095268919
 51
86.9826664878109455
  0
ARC
  5
CE5E
  8
0
 10
4640.4705958855947756
 20
300.5051785095920991
 30
0.0
 40
1.85798901167636
 50
78.0593765969179572
 51
86.6752622095268919
  0
ARC
  5
CE5F
  8
0
 10
4640.5686236880319484
 20
300.9687246632735764
 30
0.0
 40
1.384191073053193
 50
75.7690276483783549
 51
78.0593765969179572
  0
ARC
  5
CE60
  8
0
 10
4640.6323915616731028
 20
301.2201612287498165
 30
0.0
 40
1.1247942955728281
 50
58.3359566723064304
 51
75.7690276483783549
  0
ARC
  5
CE61
  8
0
 10
4640.6974870484191342
 20
301.3257079024073732
 30
0.0
 40
1.000788155745747
 50
42.2868510184939623
 51
58.3359566723064304
  0
ARC
  5
CE62
  8
0
 10
4640.7250855494967254
 20
301.3508090308214946
 30
0.0
 40
0.9634820716649029
 50
35.6561239313486311
 51
42.2868510184939623
  0
ARC
  5
CE63
  8
0
 10
4636.2708983667089342
 20
297.5144763993363881
 30
0.0
 40
6.8387673624704961
 50
24.6874024243666206
 51
40.0228603109423133
  0
ARC
  5
CE64
  8
0
 10
4632.2539580545708304
 20
295.6676590852579238
 30
0.0
 40
11.2599146815945801
 50
10.01750689364831
 51
24.6887946937123601
  0
ARC
  5
CE65
  8
0
 10
4626.1326634166825897
 20
294.4460759707394004
 30
0.0
 40
17.5009266938520192
 50
4.1403267601154878
 51
10.4698495296908796
  0
ARC
  5
CE66
  8
0
 10
4630.9332275928809395
 20
294.8332038497076724
 30
0.0
 40
12.6850021018617305
 50
349.5052539679095958
 51
3.9618246664122729
  0
ARC
  5
CE67
  8
0
 10
4629.6057824423942293
 20
294.9820098623077911
 30
0.0
 40
14.0176706832516107
 50
336.1177480996104805
 51
349.8954858402531727
  0
ARC
  5
CE68
  8
0
 10
4631.1557634671398773
 20
294.3558611464777073
 30
0.0
 40
12.3470208382759292
 50
319.5658572168035789
 51
335.8625905528264184
  0
ARC
  5
CE69
  8
0
 10
4636.4416771464448175
 20
289.7522123750308083
 30
0.0
 40
5.3383700761155071
 50
296.1387421292629938
 51
320.3791346872145027
  0
ARC
  5
CE6A
  8
0
 10
4636.6754349987031674
 20
289.544977667266096
 30
0.0
 40
5.0507397270550181
 50
279.7283913563787223
 51
294.7937270705434116
  0
ARC
  5
CE6B
  8
0
 10
4636.7189918762223897
 20
289.4707878599166975
 30
0.0
 40
4.9703495665174824
 50
269.5398841957667742
 51
279.3780208053854039
  0
ARC
  5
CE6C
  8
0
 10
4644.7606783979272222
 20
302.3628897437487808
 30
0.0
 40
4.6374463654890263
 50
177.7477101385950107
 51
179.7278234740720961
  0
ARC
  5
CE6D
  8
0
 10
4640.2848237663811233
 20
302.5389257079038998
 30
0.0
 40
0.1581313125591069
 50
161.8876894667220085
 51
177.7477101385917138
  0
ARC
  5
CE6E
  8
0
 10
4640.1680345559616399
 20
302.5771260818449946
 30
0.0
 40
0.0352533721485807
 50
84.6546969289244942
 51
161.8876894667220085
  0
ARC
  5
CE6F
  8
0
 10
4640.342262332991595
 20
274.4632348093347218
 30
0.0
 40
28.1495103899894303
 50
89.886318645451766
 51
90.3479424556675639
  0
ARC
  5
CE70
  8
0
 10
4640.4178540291386525
 20
300.9075713942996799
 30
0.0
 40
1.7052326559075659
 50
78.9151329798222463
 51
90.6632749155547373
  0
ARC
  5
CE71
  8
0
 10
4640.4608437686865727
 20
301.1194222198553234
 30
0.0
 40
1.489069615417193
 50
64.3060473295295907
 51
78.9711821787320076
  0
ARC
  5
CE72
  8
0
 10
4640.5193854531944453
 20
301.2377772484330194
 30
0.0
 40
1.35703639932786
 50
37.9338390746732372
 51
64.366793972988674
  0
ARC
  5
CE73
  8
0
 10
4634.566762235486749
 20
296.6525838769185839
 30
0.0
 40
8.8708529609216473
 50
31.338709776931811
 51
37.6564751919214871
  0
ARC
  5
CE74
  8
0
 10
4633.4988159141876167
 20
296.0979794659855884
 30
0.0
 40
10.0717734844780402
 50
21.3719115569224805
 51
30.8736891288918294
  0
ARC
  5
CE75
  8
0
 10
4631.1849368378643703
 20
295.327828435581182
 30
0.0
 40
12.5078313592299999
 50
8.1251321795475402
 51
20.7945696516275511
  0
ARC
  5
CE76
  8
0
 10
4628.2417776805523317
 20
294.6447764781225942
 30
0.0
 40
15.5201675429428505
 50
346.4298627612113251
 51
9.0858402111869836
  0
ARC
  5
CE77
  8
0
 10
4629.5674158834153786
 20
295.1517420460564836
 30
0.0
 40
14.3729853924937299
 50
330.101199267744903
 51
343.2237424349426078
  0
ARC
  5
CE78
  8
0
 10
4632.3620095864371251
 20
293.381584311259985
 30
0.0
 40
11.06886725026345
 50
316.2446006836684091
 51
330.8338855227229942
  0
ARC
  5
CE79
  8
0
 10
4636.3328133039431123
 20
289.6808536121070006
 30
0.0
 40
5.6418785954691586
 50
300.301597990935079
 51
315.5022212131111132
  0
ARC
  5
CE7A
  8
0
 10
4636.7601854909398753
 20
289.0128592752907934
 30
0.0
 40
4.8496185225599717
 50
285.7699515532448231
 51
299.9241511850078155
  0
ARC
  5
CE7B
  8
0
 10
4636.6911997991574026
 20
289.2466929109385205
 30
0.0
 40
5.0934002313082178
 50
275.1072524112134943
 51
285.8018857753369844
  0
ARC
  5
CE7C
  8
0
 10
4636.6792317827275838
 20
289.3512503506523785
 30
0.0
 40
5.1986086114954064
 50
269.9983021885095127
 51
275.136048588462927
  0
ARC
  5
CE7D
  8
0
 10
4633.4784860818108427
 20
293.7944790605484968
 30
0.0
 40
10.8648225101412503
 50
19.7753844471261395
 51
24.9380174505087417
  0
ARC
  5
CE7E
  8
0
 10
4637.8538779614018495
 20
295.1785149576691083
 30
0.0
 40
6.2817185235830584
 50
10.14539250464078
 51
21.3984920681036996
  0
ARC
  5
CE7F
  8
0
 10
4629.2074006264538184
 20
294.7297665293144746
 30
0.0
 40
14.9113028596197292
 50
350.5061595765832863
 51
5.986850306030095
  0
ARC
  5
CE80
  8
0
 10
4630.2988421266136356
 20
294.4263804885692934
 30
0.0
 40
13.7852849141060894
 50
330.2423609888643909
 51
351.0016240822180862
  0
ARC
  5
CE81
  8
0
 10
4633.9535206363143516
 20
292.0719434576297999
 30
0.0
 40
9.4467571656559191
 50
306.4859290686778763
 51
331.6376529489941731
  0
ARC
  5
CE82
  8
0
 10
4636.4307409557231949
 20
289.5193596324264718
 30
0.0
 40
5.9403843117309707
 50
282.4520341397069956
 51
301.9106141825317877
  0
ARC
  5
CE83
  8
0
 10
4639.0978972797465758
 20
302.4217872863239904
 30
0.0
 40
0.3182709973894203
 50
172.9368678669048904
 51
176.6633301400808875
  0
ARC
  5
CE84
  8
0
 10
4638.8017955467676074
 20
302.4584752350218082
 30
0.0
 40
0.0199050444838246
 50
107.8877290478921935
 51
172.9368678669017072
  0
ARC
  5
CE85
  8
0
 10
4638.8024712458891372
 20
302.4563816973853818
 30
0.0
 40
0.0221049238299636
 50
90.8727125533150257
 51
107.8877290478921935
  0
ARC
  5
CE86
  8
0
 10
4638.8750478869951621
 20
297.6919107141126801
 30
0.0
 40
4.7871286508728499
 50
89.2762326452424446
 51
90.8727125533150257
  0
ARC
  5
CE87
  8
0
 10
4638.8715252623878769
 20
302.3797327239994956
 30
0.0
 40
0.1026240472153129
 50
93.7959898452962051
 51
104.8113061294551045
  0
ARC
  5
CE88
  8
0
 10
4638.8796275499498734
 20
302.2576176824725849
 30
0.0
 40
0.2250075854500575
 50
87.1076128817682331
 51
93.7959898452962051
  0
ARC
  5
CE89
  8
0
 10
4638.8571300320345472
 20
301.8123392276972936
 30
0.0
 40
0.6708540170825459
 50
84.4970942397583684
 51
87.1076128817682331
  0
ARC
  5
CE8A
  8
0
 10
4638.8145726409020426
 20
301.3705986435120963
 30
0.0
 40
1.1146398609940931
 50
82.9689248284864647
 51
84.4970942397583684
  0
ARC
  5
CE8B
  8
0
 10
4639.103854440424584
 20
303.7160924201099874
 30
0.0
 40
1.2486258912214341
 50
262.9689248284864789
 51
265.8574499827353748
  0
ARC
  5
CE8C
  8
0
 10
4639.2882243639551234
 20
306.2616754741994782
 30
0.0
 40
3.8008769278496581
 50
265.8574499827353748
 51
269.932033977720323
  0
ARC
  5
CE8D
  8
0
 10
4639.3549738620249627
 20
362.5318911198644969
 30
0.0
 40
60.0711321636768503
 50
269.932033977720323
 51
270.2200815691762159
  0
ARC
  5
CE8E
  8
0
 10
4639.5711157087516767
 20
306.2620511042171074
 30
0.0
 40
3.8008770311073889
 50
270.2200815691762159
 51
274.2946655153232882
  0
ARC
  5
CE8F
  8
0
 10
4639.3500843510018967
 20
307.9505852021251826
 30
0.0
 40
5.5020244495269957
 50
275.2732081531806898
 51
276.3956825933651089
  0
ARC
  5
CE90
  8
0
 10
4639.9864854913603267
 20
302.3011595215662055
 30
0.0
 40
0.1831590012291176
 50
77.6693361669681934
 51
97.3742252312275838
  0
ARC
  5
CE91
  8
0
 10
4638.8475760078817984
 20
302.3755866401428989
 30
0.0
 40
1.2435660308887431
 50
0.50566477599333
 51
2.3684438900319691
  0
ARC
  5
CE92
  8
0
 10
4639.4472098717769768
 20
302.4003879196230855
 30
0.0
 40
0.6434194869573724
 50
2.3684438900319691
 51
5.1802911200684356
  0
ARC
  5
CE93
  8
0
 10
4640.053183119905043
 20
302.455325639894113
 30
0.0
 40
0.0349609998317524
 50
5.180291120065192
 51
21.5491317636909798
  0
ARC
  5
CE94
  8
0
 10
4640.0681464624822183
 20
302.461234684492922
 30
0.0
 40
0.0188731650131735
 50
21.5491317636909798
 51
93.0528023456055138
  0
ARC
  5
CE95
  8
0
 10
4640.0364635176001684
 20
268.854332339318205
 30
0.0
 40
33.6257627210602479
 50
89.9477272680124713
 51
90.1695813609020433
  0
LINE
  5
CE96
  8
0
 10
4640.0596887740148304
 20
302.4800870395550874
 30
0.0
 11
4640.0590247669242672
 21
302.8591942016893768
 31
0.0
  0
LINE
  5
CE97
  8
0
 10
4640.0590247669242672
 20
302.8591942016893768
 30
0.0
 11
4640.0587431581006967
 21
303.1939207649830905
 31
0.0
  0
ARC
  5
CE98
  8
0
 10
4639.1451813830171886
 20
303.193152176274225
 30
0.0
 40
0.9135620983943336
 50
0.0482035041457775
 51
8.3325513961583084
  0
ARC
  5
CE99
  8
0
 10
4639.7787090497668032
 20
303.2859414837470808
 30
0.0
 40
0.2732753188030548
 50
8.3325513961583084
 51
37.8170774982448279
  0
ARC
  5
CE9A
  8
0
 10
4639.9192673233083042
 20
303.3950367738465843
 30
0.0
 40
0.0953472137081725
 50
37.8170774982448279
 51
63.6062031206249117
  0
ARC
  5
CE9B
  8
0
 10
4639.8361162842957128
 20
303.1160483453260781
 30
0.0
 40
0.3854144879286506
 50
70.9909066662506518
 51
84.6737550369325191
  0
ARC
  5
CE9C
  8
0
 10
4639.5088239859387613
 20
274.6708379306620031
 30
0.0
 40
28.8312469286203914
 50
89.2784608345336892
 51
90.9867960181798452
  0
ARC
  5
CE9D
  8
0
 10
4639.0039092358838388
 20
303.2300341368700174
 30
0.0
 40
0.267905975301902
 50
88.206798270143139
 51
111.6489772207836069
  0
ARC
  5
CE9E
  8
0
 10
4639.0160082631527985
 20
303.3233599010907824
 30
0.0
 40
0.1911636752243742
 50
125.4725311511425048
 51
165.2340868508447898
  0
ARC
  5
CE9F
  8
0
 10
4639.2374500685118619
 20
303.235879422490882
 30
0.0
 40
0.4285143800680633
 50
161.4671655095131086
 51
177.9892845375779871
  0
ARC
  5
CEA0
  8
0
 10
5392.7743025635545564
 20
303.3451507080462761
 30
0.0
 40
753.9651089205452763
 50
180.0071612595720012
 51
180.0658519842764917
  0
LINE
  5
CEA1
  8
0
 10
4639.5833399818284306
 20
303.5019885637088919
 30
0.0
 11
4639.5895563457743265
 21
303.6161514222395112
 31
0.0
  0
LINE
  5
CEA2
  8
0
 10
4639.5895563457743265
 20
303.6161514222395112
 30
0.0
 11
4639.2768084319750415
 21
303.6157362621394782
 31
0.0
  0
LINE
  5
CEA3
  8
0
 10
4639.2768084319750415
 20
303.6157362621394782
 30
0.0
 11
4639.2833284913940588
 21
303.501203020979915
 31
0.0
  0
LINE
  5
CEA4
  8
0
 10
4638.247372780596379
 20
302.4548334848813056
 30
0.0
 11
4638.2500834705742818
 21
302.6030440982394794
 31
0.0
  0
ARC
  5
CEA5
  8
0
 10
4638.2836158342688577
 20
302.602430809891473
 30
0.0
 40
0.0335379715769386
 50
105.6664176983025953
 51
178.9522087662874981
  0
ARC
  5
CEA6
  8
0
 10
4638.3072080360780092
 20
302.5183096419639242
 30
0.0
 40
0.1209048009788226
 50
91.5522426558514439
 51
105.6664176983025953
  0
ARC
  5
CEA7
  8
0
 10
4638.4917100504053451
 20
104.4295201042712051
 30
0.0
 40
198.2097389184228007
 50
89.9488553695854165
 51
90.05428007236263
  0
ARC
  5
CEA8
  8
0
 10
4638.6761744218756576
 20
302.3357965957894748
 30
0.0
 40
0.3034769920777704
 50
86.4560443564146084
 51
91.4225520448027567
  0
ARC
  5
CEA9
  8
0
 10
4638.6899853128852556
 20
302.5633338707978055
 30
0.0
 40
0.0755216545584531
 50
71.7887248536292759
 51
86.243185804731425
  0
ARC
  5
CEAA
  8
0
 10
4638.700639288851562
 20
302.5958904905966165
 30
0.0
 40
0.0412662127368221
 50
48.361776516228403
 51
71.7132895220246382
  0
ARC
  5
CEAB
  8
0
 10
4638.7078821189415976
 20
302.6043263599577813
 30
0.0
 40
0.0301499182088284
 50
9.2556885965252604
 51
47.9968346729332467
  0
ARC
  5
CEAC
  8
0
 10
4619.1775916733267877
 20
302.1484500641129216
 30
0.0
 40
19.5654731345818895
 50
0.8582808491801971
 51
1.3493194812561271
  0
ARC
  5
CEAE
  8
0
 10
4635.8129359471540738
 20
297.4191092837826886
 30
0.0
 40
13.8313372920394304
 50
273.5903080058027967
 51
277.8901385477821009
  0
ENDSEC
  0
EOF
