  0
SECTION
  2
HEADER
  9
$ACADVER
  1
AC1009
  9
$INSBASE
 10
4762.7788070975702794
 20
270.8448623900076768
 30
0.0
  9
$EXTMIN
 10
4733.2433064126907993
 20
270.8400305633920198
 30
0.0
  9
$EXTMAX
 10
4762.7898207724319946
 20
298.8749522312576801
 30
0.0
  9
$LIMMIN
 10
0.0
 20
0.0
  9
$LIMMAX
 10
11.6929133858000007
 20
8.2677165353999982
  9
$ORTHOMODE
 70
     0
  9
$REGENMODE
 70
     1
  9
$FILLMODE
 70
     1
  9
$QTEXTMODE
 70
     0
  9
$MIRRTEXT
 70
     0
  9
$DRAGMODE
 70
     2
  9
$LTSCALE
 40
0.6431102362
  9
$OSMODE
 70
  4095
  9
$ATTMODE
 70
     1
  9
$TEXTSIZE
 40
0.2
  9
$TRACEWID
 40
0.05
  9
$TEXTSTYLE
  7
STANDARD
  9
$CLAYER
  8
0
  9
$CELTYPE
  6
BYLAYER
  9
$CECOLOR
 62
   256
  9
$DIMSCALE
 40
1.0
  9
$DIMASZ
 40
0.1875
  9
$DIMEXO
 40
0.0625
  9
$DIMDLI
 40
0.4443307087
  9
$DIMRND
 40
0.0
  9
$DIMDLE
 40
0.0
  9
$DIMEXE
 40
0.125
  9
$DIMTP
 40
0.01
  9
$DIMTM
 40
0.01
  9
$DIMTXT
 40
2.0
  9
$DIMCEN
 40
0.1052362205
  9
$DIMTSZ
 40
0.0
  9
$DIMTOL
 70
     1
  9
$DIMLIM
 70
     0
  9
$DIMTIH
 70
     1
  9
$DIMTOH
 70
     1
  9
$DIMSE1
 70
     0
  9
$DIMSE2
 70
     0
  9
$DIMTAD
 70
     0
  9
$DIMZIN
 70
     0
  9
$DIMBLK
  1

  9
$DIMASO
 70
     1
  9
$DIMSHO
 70
     1
  9
$DIMPOST
  1
\X
  9
$DIMAPOST
  1

  9
$DIMALT
 70
     1
  9
$DIMALTD
 70
     2
  9
$DIMALTF
 40
25.3999999999999986
  9
$DIMLFAC
 40
1.0
  9
$DIMTOFL
 70
     0
  9
$DIMTVP
 40
0.0
  9
$DIMTIX
 70
     0
  9
$DIMSOXD
 70
     0
  9
$DIMSAH
 70
     0
  9
$DIMBLK1
  1

  9
$DIMBLK2
  1

  9
$DIMSTYLE
  2
STANDARD
  9
$DIMCLRD
 70
     0
  9
$DIMCLRE
 70
     0
  9
$DIMCLRT
 70
     0
  9
$DIMTFAC
 40
1.0
  9
$DIMGAP
 40
0.09
  9
$LUNITS
 70
     2
  9
$LUPREC
 70
     4
  9
$SKETCHINC
 40
0.1
  9
$FILLETRAD
 40
0.0
  9
$AUNITS
 70
     0
  9
$AUPREC
 70
     0
  9
$MENU
  1
.
  9
$ELEVATION
 40
0.0
  9
$PELEVATION
 40
0.0
  9
$THICKNESS
 40
0.0
  9
$LIMCHECK
 70
     0
  9
$BLIPMODE
 70
     0
  9
$CHAMFERA
 40
0.0
  9
$CHAMFERB
 40
0.0
  9
$SKPOLY
 70
     0
  9
$TDCREATE
 40
2458060.468368056230247
  9
$TDUPDATE
 40
2459867.7259143521077931
  9
$TDINDWG
 40
0.3552501157
  9
$TDUSRTIMER
 40
0.3552501157
  9
$USRTIMER
 70
     1
  9
$ANGBASE
 50
0.0
  9
$ANGDIR
 70
     0
  9
$PDMODE
 70
     0
  9
$PDSIZE
 40
0.3125
  9
$PLINEWID
 40
0.0
  9
$COORDS
 70
     1
  9
$SPLFRAME
 70
     0
  9
$SPLINETYPE
 70
     6
  9
$SPLINESEGS
 70
     8
  9
$ATTDIA
 70
     1
  9
$ATTREQ
 70
     1
  9
$HANDLING
 70
     1
  9
$HANDSEED
  5
CF37
  9
$SURFTAB1
 70
     6
  9
$SURFTAB2
 70
     6
  9
$SURFTYPE
 70
     6
  9
$SURFU
 70
     6
  9
$SURFV
 70
     6
  9
$UCSNAME
  2

  9
$UCSORG
 10
0.0
 20
0.0
 30
0.0
  9
$UCSXDIR
 10
1.0
 20
0.0
 30
0.0
  9
$UCSYDIR
 10
0.0
 20
1.0
 30
0.0
  9
$PUCSNAME
  2

  9
$PUCSORG
 10
0.0
 20
0.0
 30
0.0
  9
$PUCSXDIR
 10
1.0
 20
0.0
 30
0.0
  9
$PUCSYDIR
 10
0.0
 20
1.0
 30
0.0
  9
$USERI1
 70
     0
  9
$USERI2
 70
     0
  9
$USERI3
 70
     0
  9
$USERI4
 70
     0
  9
$USERI5
 70
     0
  9
$USERR1
 40
0.0
  9
$USERR2
 40
0.0
  9
$USERR3
 40
0.0
  9
$USERR4
 40
0.0
  9
$USERR5
 40
0.0
  9
$WORLDVIEW
 70
     1
  9
$SHADEDGE
 70
     3
  9
$SHADEDIF
 70
    70
  9
$TILEMODE
 70
     1
  9
$MAXACTVP
 70
    64
  9
$PLIMCHECK
 70
     0
  9
$PEXTMIN
 10
1.0000000000000000E+20
 20
1.0000000000000000E+20
 30
1.0000000000000000E+20
  9
$PEXTMAX
 10
-1.0000000000000000E+20
 20
-1.0000000000000000E+20
 30
-1.0000000000000000E+20
  9
$PLIMMIN
 10
0.0
 20
0.0
  9
$PLIMMAX
 10
12.0
 20
9.0
  9
$UNITMODE
 70
     0
  9
$VISRETAIN
 70
     1
  9
$PLINEGEN
 70
     0
  9
$PSLTSCALE
 70
     1
  0
ENDSEC
  0
SECTION
  2
TABLES
  0
TABLE
  2
VPORT
 70
     1
  0
VPORT
  2
*ACTIVE
 70
     0
 10
0.0
 20
0.0
 11
1.0
 21
1.0
 12
169.9774171628102977
 22
62.5298993495553077
 13
0.0
 23
0.0
 14
1.0
 24
1.0
 15
0.0
 25
0.0
 16
0.0
 26
0.0
 36
70.1442342548394606
 17
4592.81298828125
 27
208.3136978149414063
 37
0.0
 40
0.0151548674496883
 41
2.0416666666666661
 42
50.0
 43
0.0
 44
0.0
 50
0.0
 51
0.0
 71
     0
 72
   100
 73
     1
 74
     1
 75
     0
 76
     0
 77
     0
 78
     0
  0
ENDTAB
  0
TABLE
  2
LTYPE
 70
     2
  0
LTYPE
  2
CONTINUOUS
 70
     0
  3
Solid line
 72
    65
 73
     0
 40
0.0
  0
LTYPE
  2
PHANTOM2
 70
     0
  3
___ _ _ ___ _ _ ___ _ _ ___ _ _
 72
    65
 73
     6
 40
1.25
 49
0.625
 49
-0.125
 49
0.125
 49
-0.125
 49
0.125
 49
-0.125
  0
ENDTAB
  0
TABLE
  2
LAYER
 70
     2
  0
LAYER
  2
0
 70
     0
 62
   255
  6
CONTINUOUS
  0
LAYER
  2
DEFPOINTS
 70
     0
 62
     7
  6
CONTINUOUS
  0
ENDTAB
  0
TABLE
  2
STYLE
 70
     1
  0
STYLE
  2
STANDARD
 70
     0
 40
0.0
 41
0.8
 50
0.0
 71
     0
 42
0.2
  3
txt
  4

  0
ENDTAB
  0
TABLE
  2
VIEW
 70
     0
  0
ENDTAB
  0
TABLE
  2
UCS
 70
     0
  0
ENDTAB
  0
TABLE
  2
APPID
 70
     9
  0
APPID
  2
ACAD
 70
     0
  0
APPID
  2
ACAD_MLEADERVER
 70
     0
  0
APPID
  2
ACAD_EXEMPT_FROM_CAD_STANDARDS
 70
     0
  0
APPID
  2
ACAD_NAV_VCDISPLAY
 70
     0
  0
APPID
  2
ACAECLAYERSTANDARD
 70
     0
  0
APPID
  2
ACCMTRANSPARENCY
 70
     0
  0
APPID
  2
ACAD_DSTYLE_DIMJAG
 70
     0
  0
APPID
  2
ACAD_DSTYLE_DIMTALN
 70
     0
  0
APPID
  2
ACDBATTR
 70
     0
  0
ENDTAB
  0
TABLE
  2
DIMSTYLE
 70
     1
  0
DIMSTYLE
  2
STANDARD
 70
     0
  3

  4

  5

  6

  7

 40
1.0
 41
0.1875
 42
0.0625
 43
0.38
 44
0.125
 45
0.0
 46
0.0
 47
0.01
 48
0.01
140
0.15625
141
0.09
142
0.0
143
25.3999999999999986
144
1.0
145
0.0
146
1.0
147
0.09
 71
     1
 72
     0
 73
     1
 74
     1
 75
     0
 76
     0
 77
     0
 78
     4
170
     0
171
     2
172
     0
173
     0
174
     0
175
     0
176
     0
177
     0
178
     0
  0
ENDTAB
  0
ENDSEC
  0
SECTION
  2
BLOCKS
  0
BLOCK
  8
0
  2
$MODEL_SPACE
 70
     0
 10
0.0
 20
0.0
 30
0.0
  3
$MODEL_SPACE
  1

  0
ENDBLK
  5
21
  8
0
  0
BLOCK
 67
     1
  8
0
  2
$PAPER_SPACE
 70
     0
 10
0.0
 20
0.0
 30
0.0
  3
$PAPER_SPACE
  1

  0
ENDBLK
  5
1D
 67
     1
  8
0
  0
BLOCK
  8
0
  2
_FILLED
 70
     0
 10
0.0
 20
0.0
 30
0.0
  3
_FILLED
  1

  0
SOLID
  5
C373
  8
0
  6
BYBLOCK
 62
     0
 10
0.0
 20
0.0
 30
0.0
 11
-1.0
 21
0.1666666667
 31
0.0
 12
-1.0
 22
-0.1666666667
 32
0.0
 13
-1.0
 23
-0.1666666667
 33
0.0
  0
ENDBLK
  5
C374
  8
0
  6
BYBLOCK
 62
     0
  0
ENDSEC
  0
SECTION
  2
ENTITIES
  0
ATTDEF
  5
3930
  8
DEFPOINTS
 10
4762.7791541057631548
 20
270.8433638967254069
 30
0.0
 40
0.001
  1
K-15494X
  3

  2
MODELNUMBER
 70
     0
1001
ACDBATTR
1070
     0
1070
     1
  0
ATTDEF
  5
3931
  8
DEFPOINTS
 10
4762.7791541057631548
 20
270.8416972300586849
 30
0.0
 40
0.001
  1
STINSON
  3

  2
TRADENAME
 70
     0
1001
ACDBATTR
1070
     0
1070
     1
  0
ATTDEF
  5
3932
  8
DEFPOINTS
 10
4762.7791541057631548
 20
270.8400305633920198
 30
0.0
 40
0.001
  1
TOILET
  3

  2
PRODUCT
 70
     0
1001
ACDBATTR
1070
     0
1070
     1
  0
LINE
  5
CCAF
  8
0
 10
4734.9002557430430898
 20
270.8448623900076768
 30
0.0
 11
4756.9036913557829394
 21
270.8448623900076768
 31
0.0
  0
LINE
  5
CCB0
  8
0
 10
4753.7429834302556628
 20
298.8749522312576801
 30
0.0
 11
4761.8588070975711162
 21
298.8749522312576801
 31
0.0
  0
LINE
  5
CCB1
  8
0
 10
4734.0209173480443496
 20
285.9448623900076996
 30
0.0
 11
4760.7361087320350634
 21
285.9448623900076996
 31
0.0
  0
LINE
  5
CCB2
  8
0
 10
4733.9140775796004164
 20
286.1148623900076018
 30
0.0
 11
4751.5500330270442646
 21
286.1148623900076018
 31
0.0
  0
ARC
  5
CCB3
  8
0
 10
4733.9140775796004164
 20
286.1848623900077087
 30
0.0
 40
0.07
 50
162.0055709666441999
 51
270.0
  0
LINE
  5
CCB4
  8
0
 10
4734.149454756688101
 20
286.7104030798076906
 30
0.0
 11
4749.6562359116824155
 21
286.7104030798076906
 31
0.0
  0
ARC
  5
CCB5
  8
0
 10
4734.149454756688101
 20
286.5201030798075976
 30
0.0
 40
0.1903
 50
90.0
 51
162.0055709666441999
  0
LINE
  5
CCB6
  8
0
 10
4736.0534827065512218
 20
286.8348623900076859
 30
0.0
 11
4750.1202969590631255
 21
286.8348623900076859
 31
0.0
  0
LINE
  5
CCB7
  8
0
 10
4753.6647415149172957
 20
298.1848623900077087
 30
0.0
 11
4761.175826481866352
 21
298.1848623900077087
 31
0.0
  0
LINE
  5
CCB8
  8
0
 10
4746.158829229042567
 20
286.0048623900077018
 30
0.0
 11
4746.776377479295661
 21
286.0048623900077018
 31
0.0
  0
LINE
  5
CCB9
  8
0
 10
4753.5463873122989753
 20
298.2850562615968215
 30
0.0
 11
4753.4964121748016623
 21
298.5836894637350269
 31
0.0
  0
ARC
  5
CCBA
  8
0
 10
4753.7429834302556628
 20
298.6249522312576801
 30
0.0
 40
0.25
 50
90.0
 51
189.5002012457684941
  0
ARC
  5
CCBB
  8
0
 10
4753.6647415149172957
 20
298.3048623900075995
 30
0.0
 40
0.12
 50
189.5002012457651972
 51
270.0
  0
ARC
  5
CCBC
  8
0
 10
4754.0434526302624363
 20
298.1963254208084777
 30
0.0
 40
0.1001050450053462
 50
186.5755869276131023
 51
191.0810067746751031
  0
ARC
  5
CCBD
  8
0
 10
4735.7848569684028917
 20
294.9619121312315997
 30
0.0
 40
18.4427737642102088
 50
3.5263486243607041
 51
10.0398115923578999
  0
ARC
  5
CCBE
  8
0
 10
4352.2163671532644003
 20
272.6142907616243747
 30
0.0
 40
402.6616263584829767
 50
2.0272219131069131
 51
3.3432109366308258
  0
ARC
  5
CCBF
  8
0
 10
4736.3467549232545935
 20
301.6760581780026769
 30
0.0
 40
14.84119578789503
 50
261.6386292754049236
 51
264.8928239219877128
  0
ARC
  5
CCC0
  8
0
 10
4734.198786420439319
 20
287.0618713612402075
 30
0.0
 40
0.07
 50
161.9998614870189044
 51
261.6386292754049236
  0
ARC
  5
CCC1
  8
0
 10
4736.4634190781407597
 20
302.9814079190188068
 30
0.0
 40
16.1517485229674485
 50
264.8928239219877128
 51
268.5456592337025086
  0
LINE
  5
CCC2
  8
0
 10
4734.1322125165916077
 20
287.0835027117894924
 30
0.0
 11
4734.1589013289485592
 21
287.1656417545480053
 31
0.0
  0
ARC
  5
CCC3
  8
0
 10
4739.1300359743381705
 20
229.9272235100270905
 30
0.0
 40
57.5702053573759471
 50
94.4283907970614109
 51
94.7886989954655661
  0
ARC
  5
CCC4
  8
0
 10
4734.3398872418356405
 20
287.1068353829833768
 30
0.0
 40
0.1903
 50
94.7886989954655661
 51
161.9998614870189044
  0
ARC
  5
CCC5
  8
0
 10
4763.1419028664404323
 20
-80.1262667864521632
 30
0.0
 40
368.5520964646765947
 50
94.265734298022025
 51
94.4283907970614109
  0
ARC
  5
CCC6
  8
0
 10
4744.9352526394786764
 20
163.9667833757808069
 30
0.0
 40
123.780980419524397
 50
93.6510721610993784
 51
94.265734298022025
  0
ARC
  5
CCC7
  8
0
 10
4752.8031272591588277
 20
40.6644630201448578
 30
0.0
 40
247.3340688314087004
 50
93.2158371703231836
 51
93.6510721610993784
  0
ARC
  5
CCC8
  8
0
 10
4747.0509199960533806
 20
143.0424837772681883
 30
0.0
 40
144.7945787676108012
 50
92.1735766726928034
 51
93.2158371703231836
  0
ARC
  5
CCC9
  8
0
 10
4749.5794213239360033
 20
76.4228184934262345
 30
0.0
 40
211.4622105051807068
 50
91.3101681934053886
 51
92.1735766726928034
  0
ARC
  5
CCCA
  8
0
 10
4748.1423622912725477
 20
139.2567861537455087
 30
0.0
 40
148.6118116949789112
 50
90.117146529383831
 51
91.3101681934053886
  0
ARC
  5
CCCB
  8
0
 10
4748.262852375651164
 20
80.3257727886658159
 30
0.0
 40
207.5429482366718048
 50
89.1497600744790617
 51
90.117146529383831
  0
ARC
  5
CCCC
  8
0
 10
4749.8959940770537287
 20
190.3714850744675005
 30
0.0
 40
97.4851182366835758
 50
88.7438939905690631
 51
89.1497600744790617
  0
ARC
  5
CCCD
  8
0
 10
4752.0314727255408798
 20
287.7631941261568045
 30
0.0
 40
0.07
 50
0.9969363157318051
 51
88.7438939905690631
  0
ARC
  5
CCCE
  8
0
 10
4731.1225819298051647
 20
1204.7755467369840972
 30
0.0
 40
917.484481711965941
 50
270.2000646292689225
 51
270.5237477060493916
  0
ARC
  5
CCCF
  8
0
 10
4731.8439194405791568
 20
1125.8664778872318948
 30
0.0
 40
838.5721159221905054
 50
270.5237477060493916
 51
271.0857079623031041
  0
ARC
  5
CCD0
  8
0
 10
4740.5401934024212096
 20
666.995239561884091
 30
0.0
 40
379.6184815068414196
 50
271.0857079623031041
 51
271.6458299411552844
  0
ARC
  5
CCD1
  8
0
 10
4751.2857801845357244
 20
293.0152750324323279
 30
0.0
 40
5.4841720606986826
 50
271.6458299411552844
 51
273.1389162893599973
  0
ARC
  5
CCD2
  8
0
 10
4751.5276403326488435
 20
289.277573868918978
 30
0.0
 40
1.739225037420755
 50
271.9254620886932798
 51
280.7088196513176968
  0
ARC
  5
CCD3
  8
0
 10
4751.7621571972849779
 20
287.9385186239392738
 30
0.0
 40
0.3803578061121861
 50
283.4797777807532952
 51
289.2349055450392825
  0
ARC
  5
CCD4
  8
0
 10
4751.8470159065691405
 20
287.6990206533014884
 30
0.0
 40
0.1262794936804294
 50
288.6809599126827948
 51
301.1926764868072155
  0
ARC
  5
CCD5
  8
0
 10
4751.8982201565222567
 20
287.6158281103114973
 30
0.0
 40
0.0286034043014069
 50
299.7607297160973872
 51
331.6499107853139208
  0
ARC
  5
CCD6
  8
0
 10
4804.7103039769363022
 20
262.713348842189589
 30
0.0
 40
58.3602189557341191
 50
154.5053199069348011
 51
154.7562395035361931
  0
ARC
  5
CCD7
  8
0
 10
4750.0282646154355461
 20
289.660668287041176
 30
0.0
 40
2.827304178892502
 50
271.8653799482839872
 51
297.5896781889650242
  0
ARC
  5
CCD8
  8
0
 10
4751.7712122885050121
 20
286.295265187626228
 30
0.0
 40
0.9627315899482747
 50
89.8582001112703495
 51
116.7630812443124029
  0
ARC
  5
CCD9
  8
0
 10
5443.8156003021049401
 20
-8394.8011151780174259
 30
0.0
 40
8709.5965755883207748
 50
94.5564251950197558
 51
94.5573784640208146
  0
ARC
  5
CCDA
  8
0
 10
4761.5198086183336272
 20
166.9589495939646042
 30
0.0
 40
120.6930984130101052
 50
94.5512081191830163
 51
94.5629994043899842
  0
ARC
  5
CCDB
  8
0
 10
4751.9412222983009997
 20
287.2857639605994109
 30
0.0
 40
0.0143712101908405
 50
276.3191500508082754
 51
319.3523163761107071
  0
ARC
  5
CCDC
  8
0
 10
4752.01508156595537
 20
287.2197926479464059
 30
0.0
 40
0.0846643681135788
 50
124.5525939305766059
 51
138.0379608948892951
  0
ARC
  5
CCDD
  8
0
 10
4751.9433504395037744
 20
287.3382464131274787
 30
0.0
 40
0.0541875341999643
 50
295.9510954296467276
 51
333.36998646070532
  0
ARC
  5
CCDE
  8
0
 10
4749.8051420757319647
 20
288.410382710037311
 30
0.0
 40
2.44613470043392
 50
333.36998646070532
 51
334.8331924158887887
  0
ARC
  5
CCDF
  8
0
 10
4754.7640542019398708
 20
287.4023680091747792
 30
0.0
 40
2.745169327383985
 50
176.7811558200224908
 51
180.6724198805536048
  0
ARC
  5
CCE0
  8
0
 10
4752.2658565091960554
 20
287.5439154205448062
 30
0.0
 40
0.2429673149661082
 50
168.9683163727040096
 51
177.0289041467023026
  0
ARC
  5
CCE1
  8
0
 10
4754.1189419816810187
 20
286.6914690123721812
 30
0.0
 40
2.2765603360364071
 50
152.382490070462211
 51
156.7423181220025015
  0
LINE
  5
CCE2
  8
0
 10
4752.1014621294261815
 20
287.7644120521792956
 30
0.0
 11
4752.1017684868556898
 21
287.7468068992076837
 31
0.0
  0
ARC
  5
CCE3
  8
0
 10
4750.4371727087791442
 20
278.7961815984265854
 30
0.0
 40
7.9526576650458427
 50
91.6495320869363042
 51
95.635425178715991
  0
ARC
  5
CCE4
  8
0
 10
4749.9949190553807057
 20
289.3782846547588861
 30
0.0
 40
2.641369840318355
 50
274.6325369451337224
 51
283.0589409712969768
  0
ARC
  5
CCE5
  8
0
 10
4749.9317501812101909
 20
289.7592820651746024
 30
0.0
 40
3.026886742476413
 50
282.5941846711128278
 51
298.3378649808086038
  0
ARC
  5
CCE6
  8
0
 10
4751.7551972805122205
 20
286.3971542672160808
 30
0.0
 40
0.7979233258405209
 50
97.3666785456753558
 51
118.986364870835601
  0
ARC
  5
CCE7
  8
0
 10
4751.8603262510268905
 20
285.3257281397595762
 30
0.0
 40
1.874277885801731
 50
88.642438144495145
 51
96.3542916782562315
  0
ARC
  5
CCE8
  8
0
 10
4751.8876786103382983
 20
286.8198419355068722
 30
0.0
 40
0.380020789542455
 50
50.2043050989288702
 51
87.4281314226820854
  0
ARC
  5
CCE9
  8
0
 10
4752.0137933617888848
 20
286.9560538028204064
 30
0.0
 40
0.1948872176118411
 50
6.8996920548385168
 51
53.0617279022446482
  0
ARC
  5
CCEA
  8
0
 10
4733.7306675245763472
 20
284.7662365028950262
 30
0.0
 40
18.6086859816301207
 50
5.9025068547358197
 51
6.8306589194396006
  0
ARC
  5
CCEB
  8
0
 10
4751.5407827812068717
 20
286.8419856291681072
 30
0.0
 40
0.7184405842111439
 50
281.7678624702464845
 51
346.9597887377428833
  0
ARC
  5
CCEC
  8
0
 10
4749.5416871575880577
 20
298.1149864301303865
 30
0.0
 40
12.1670222367551304
 50
279.5009930140464007
 51
280.1570620428269081
  0
ARC
  5
CCED
  8
0
 10
4746.9073081295637166
 20
286.0447807747912066
 30
0.0
 40
0.0700880082275672
 50
90.7738767535006446
 51
167.4979035027795931
  0
ARC
  5
CCEE
  8
0
 10
4746.769863086240548
 20
286.0752568837456806
 30
0.0
 40
0.0706952761188752
 50
275.2871633640821187
 51
347.4979035027811847
  0
ARC
  5
CCEF
  8
0
 10
4746.161413595976228
 20
285.5463726946478005
 30
0.0
 40
0.5703276511507195
 50
94.6010785390080997
 51
99.9037818179986203
  0
ARC
  5
CCF0
  8
0
 10
4746.0730203605771749
 20
286.0526457936517204
 30
0.0
 40
0.0563959291881377
 50
99.9037818179986203
 51
118.602011456755406
  0
ARC
  5
CCF1
  8
0
 10
4746.0534124516143493
 20
286.0886062388619848
 30
0.0
 40
0.0154371241082606
 50
118.602011456755406
 51
159.5113659419702969
  0
ARC
  5
CCF2
  8
0
 10
4746.0452367112629872
 20
286.0916611744951865
 30
0.0
 40
0.0067092743149749
 50
159.5113659419702969
 51
210.3285658884109921
  0
ARC
  5
CCF3
  8
0
 10
4746.0721017562618727
 20
286.1112247645447155
 30
0.0
 40
0.0399148190229379
 50
215.1004585808387048
 51
247.0684217838044106
  0
ARC
  5
CCF4
  8
0
 10
4746.1330080219422598
 20
286.2411026721867984
 30
0.0
 40
0.1833417510672709
 50
245.3530099440536105
 51
258.1449788585974829
  0
ARC
  5
CCF5
  8
0
 10
4746.0613195205532975
 20
286.023735218422928
 30
0.0
 40
0.0509584211080491
 50
48.1123564037037923
 51
95.3789653992652262
  0
ARC
  5
CCF6
  8
0
 10
4746.0537999977232175
 20
286.0251874931923908
 30
0.0
 40
0.0552892969323707
 50
23.2895350974623803
 51
41.2903127168681223
  0
ARC
  5
CCF7
  8
0
 10
4746.161102440317336
 20
286.0637542273724989
 30
0.0
 40
0.0589356937492029
 50
196.4674914106363985
 51
267.7894935941712902
  0
LINE
  5
CCF8
  8
0
 10
4733.8475015205358432
 20
286.2064871064119984
 30
0.0
 11
4733.9684629846933603
 21
286.5788914159755905
 31
0.0
  0
ARC
  5
CCF9
  8
0
 10
4736.3961459475722222
 20
286.714563402315207
 30
0.0
 40
0.1203916191500498
 50
20.3808958667720397
 51
87.7522572709022768
  0
ARC
  5
CCFA
  8
0
 10
4736.6121950809656482
 20
286.7948293644201954
 30
0.0
 40
0.1100858259786185
 50
200.3808958667704871
 51
230.0775097145333916
  0
ARC
  5
CCFB
  8
0
 10
4750.8480961563200253
 20
285.631931423475919
 30
0.0
 40
13.2556920469888198
 50
174.7933447043174908
 51
175.0578004813563098
  0
ARC
  5
CCFC
  8
0
 10
4737.5414838101496571
 20
286.7825837668910935
 30
0.0
 40
0.1005773777660886
 50
314.1381110864008974
 51
355.0578004813564235
  0
ARC
  5
CCFD
  8
0
 10
4737.6178947542248352
 20
284.0396129963976932
 30
0.0
 40
2.0762598722624639
 50
78.9697082846778073
 51
88.2123686528140922
  0
ARC
  5
CCFE
  8
0
 10
4737.9465261331843067
 20
285.7255156873665101
 30
0.0
 40
0.3586258988409348
 50
61.6291453217945531
 51
78.9697082846778073
  0
ARC
  5
CCFF
  8
0
 10
4738.0815460848771181
 20
285.9755337601927749
 30
0.0
 40
0.074479063392843
 50
43.5235139272243288
 51
61.6291453217945531
  0
ARC
  5
CD00
  8
0
 10
4738.1224042863077557
 20
286.0143386262157037
 30
0.0
 40
0.0181300593980438
 50
18.0025424232759512
 51
43.5235139272243288
  0
ARC
  5
CD01
  8
0
 10
4738.1326890621548955
 20
286.0176808570205935
 30
0.0
 40
0.0073158501817667
 50
319.1957169342530847
 51
18.0025424232821507
  0
ARC
  5
CD02
  8
0
 10
4738.1239582646330746
 20
286.0252182182915135
 30
0.0
 40
0.018850087922708
 50
292.7420056220938136
 51
319.1957169342542784
  0
ARC
  5
CD03
  8
0
 10
4738.1016874652459592
 20
286.078348832675772
 30
0.0
 40
0.0764595549415871
 50
277.8844757168383808
 51
292.7420056220938136
  0
ARC
  5
CD04
  8
0
 10
4738.0050173008057754
 20
286.7764023968975948
 30
0.0
 40
0.7811750288852065
 50
276.3177993717563936
 51
277.8844757168383808
  0
ARC
  5
CD05
  8
0
 10
4738.1333787996536557
 20
285.9444683046431237
 30
0.0
 40
0.0698503722171913
 50
85.3335960479896443
 51
152.7941527545401073
  0
ARC
  5
CD06
  8
0
 10
4738.1327579851713381
 20
285.945473110738817
 30
0.0
 40
0.0686692516002699
 50
121.7096408328644941
 51
150.4376467416537935
  0
ARC
  5
CD07
  8
0
 10
4738.0133718674733245
 20
286.0131901448647227
 30
0.0
 40
0.0685846802551109
 50
274.9609318311603943
 51
330.4376467416536798
  0
ARC
  5
CD08
  8
0
 10
4734.4127028733046245
 20
277.7368704093997849
 30
0.0
 40
8.3901122479650372
 50
80.5827835713913458
 51
86.9199189844644451
  0
ARC
  5
CD09
  8
0
 10
4736.3812096610963636
 20
289.6055220183666847
 30
0.0
 40
3.6406778336801282
 50
260.5827835713913032
 51
264.6686218691681916
  0
ARC
  5
CD0A
  8
0
 10
4736.3931192884074335
 20
289.7331439632324077
 30
0.0
 40
3.768854274705701
 50
264.6686218691681916
 51
268.9777896724366997
  0
ARC
  5
CD0B
  8
0
 10
4736.4889513601701765
 20
234.211768793895601
 30
0.0
 40
51.7533775946286667
 50
89.4407676617360039
 51
90.1805321031243352
  0
ARC
  5
CD0C
  8
0
 10
4736.902759715881075
 20
286.0448409844797766
 30
0.0
 40
0.0700599824451146
 50
0.0175056627785128
 51
88.0985438807473429
  0
ARC
  5
CD0D
  8
0
 10
4769.3481731735719222
 20
286.0547540791126835
 30
0.0
 40
32.375354989626743
 50
180.0175056627784898
 51
180.0765561613440866
  0
ARC
  5
CD0E
  8
0
 10
4737.0397823594694273
 20
286.0115849683529063
 30
0.0
 40
0.0669353351636555
 50
180.0765561613457066
 51
265.4305202710718277
  0
LINE
  5
CD0F
  8
0
 10
4738.0620127870561191
 20
285.9648623900076814
 30
0.0
 11
4748.7853973866467641
 21
285.9653020596431929
 31
0.0
  0
ARC
  5
CD10
  8
0
 10
4748.7853127016533108
 20
288.0307386813822177
 30
0.0
 40
2.0654366234750499
 50
270.0023491850250821
 51
277.4588245192039722
  0
ARC
  5
CD11
  8
0
 10
4744.6018514988281822
 20
319.9847140319326968
 30
0.0
 40
34.2921008681519623
 50
277.4588245192039722
 51
278.4304083156919205
  0
ARC
  5
CD12
  8
0
 10
4750.3344498794949686
 20
281.3056911287989124
 30
0.0
 40
4.8094271957890884
 50
90.591095105550508
 51
98.4304083156921052
  0
LINE
  5
CD13
  8
0
 10
4733.7807774104076088
 20
285.764380807363807
 30
0.0
 11
4733.2879737498542454
 21
284.0620716235040959
 31
0.0
  0
ARC
  5
CD14
  8
0
 10
4734.3862413938550162
 20
283.7441327200648971
 30
0.0
 40
1.143362131688058
 50
163.8547311325480962
 51
178.4337909773117872
  0
ARC
  5
CD15
  8
0
 10
4745.6195274400597555
 20
284.7093138724325172
 30
0.0
 40
12.4114090015537908
 50
184.3154578493575002
 51
187.055323806737789
  0
ARC
  5
CD16
  8
0
 10
4740.8972325628701583
 20
288.0845544196400283
 30
0.0
 40
9.0384283254674145
 50
212.8265061741639101
 51
231.063373157721486
  0
ARC
  5
CD17
  8
0
 10
4753.7341188141281236
 20
301.925285998417678
 30
0.0
 40
27.9014845169378702
 50
228.4201698760126078
 51
231.3872347682037969
  0
ARC
  5
CD18
  8
0
 10
4736.0773182534558146
 20
279.8328645589077155
 30
0.0
 40
0.3800430179999997
 50
356.3308765367988826
 51
49.9037023220919806
  0
ARC
  5
CD19
  8
0
 10
4677.0522601569800827
 20
282.639303523684589
 30
0.0
 40
59.4717301480194322
 50
351.5978421346836171
 51
357.2717813062574237
  0
ARC
  5
CD1A
  8
0
 10
4730.1322798064284143
 20
274.8328274234456217
 30
0.0
 40
5.8208385332479944
 50
332.6359007670149026
 51
351.2692757197676769
  0
ARC
  5
CD1B
  8
0
 10
4733.114137645206938
 20
273.4209862999393863
 30
0.0
 40
2.5263946522399339
 50
316.3995540581153136
 51
329.9876500310023744
  0
ARC
  5
CD1C
  8
0
 10
4735.3049515739667186
 20
271.3330413976901241
 30
0.0
 40
0.5000201593870058
 50
136.2644227659174021
 51
174.7188185536878962
  0
ARC
  5
CD1D
  8
0
 10
19781.6260493291702005
 20
-1119.2873966769250274
 30
0.0
 40
15110.9468626436500927
 50
174.7195747695998023
 51
174.721068353650395
  0
ARC
  5
CD1E
  8
0
 10
4734.9002557430421803
 20
270.9748623900051143
 30
0.0
 40
0.13
 50
174.7210683599832919
 51
270.0000000005210836
  0
ARC
  5
CD1F
  8
0
 10
4734.0209173480443496
 20
285.6948623900076996
 30
0.0
 40
0.25
 50
90.0
 51
163.8547311325480962
  0
LINE
  5
CD20
  8
0
 10
4751.8242805595318714
 20
286.1818448239405939
 30
0.0
 11
4751.8254445681568541
 21
286.0105518115076961
 31
0.0
  0
ARC
  5
CD21
  8
0
 10
4751.8936412244265739
 20
286.0110152366933107
 30
0.0
 40
0.0681982308378277
 50
180.389343114615599
 51
255.9320772470188103
  0
LINE
  5
CD22
  8
0
 10
4752.0839739720704529
 20
287.7120728353489199
 30
0.0
 11
4752.2676635377556522
 21
286.819865358707716
 31
0.0
  0
LINE
  5
CD23
  8
0
 10
4752.2687947176400485
 20
286.8197920813731798
 30
0.0
 11
4752.2641409447978731
 21
286.7607751552565105
 31
0.0
  0
LINE
  5
CD24
  8
0
 10
4752.2288828609425764
 20
286.7908903825274933
 30
0.0
 11
4753.1212960589564318
 21
286.0141265483076722
 31
0.0
  0
LINE
  5
CD25
  8
0
 10
4753.1212960589564318
 20
286.0141265483076722
 30
0.0
 11
4753.1273934065566209
 21
285.9876577213076985
 31
0.0
  0
LINE
  5
CD26
  8
0
 10
4753.0450285812567017
 20
285.9448623900076996
 30
0.0
 11
4753.0654845472554371
 21
285.9683984867077129
 31
0.0
  0
LINE
  5
CD27
  8
0
 10
4752.1971495315310676
 20
286.5498562706471262
 30
0.0
 11
4752.8935076081552324
 21
285.9448623892076853
 31
0.0
  0
LINE
  5
CD28
  8
0
 10
4752.8487282552187025
 20
285.9837665614301159
 30
0.0
 11
4753.0804142896040503
 21
285.9673399642823028
 31
0.0
  0
LINE
  5
CD29
  8
0
 10
4753.0804142896040503
 20
285.9673399642823028
 30
0.0
 11
4753.1153131778573879
 21
285.9697296540077218
 31
0.0
  0
LINE
  5
CD2A
  8
0
 10
4753.1153131778573879
 20
285.9697296540077218
 30
0.0
 11
4753.1179356124566766
 21
285.9716185765076943
 31
0.0
  0
LINE
  5
CD2B
  8
0
 10
4753.1179356124566766
 20
285.9716185765076943
 30
0.0
 11
4753.1677404084557566
 21
285.967243984907725
 31
0.0
  0
LINE
  5
CD2C
  8
0
 10
4753.1677404084557566
 20
285.967243984907725
 30
0.0
 11
4753.1721096322562516
 21
285.9611775092076869
 31
0.0
  0
LINE
  5
CD2D
  8
0
 10
4753.1721096322562516
 20
285.9611775092076869
 30
0.0
 11
4753.2229999006558501
 21
285.9590141993077168
 31
0.0
  0
LINE
  5
CD2E
  8
0
 10
4753.2229999006558501
 20
285.9590141993077168
 30
0.0
 11
4753.2438140641552309
 21
285.9829539263076867
 31
0.0
  0
LINE
  5
CD2F
  8
0
 10
4753.2438140641552309
 20
285.9829539263076867
 30
0.0
 11
4753.1588169250862848
 21
285.9829534817754961
 31
0.0
  0
ARC
  5
CD30
  8
0
 10
4753.1466319698329244
 20
286.0088640514219946
 30
0.0
 40
0.0286326868089708
 50
227.7854171804139867
 51
295.1861789795817117
  0
LINE
  5
CD31
  8
0
 10
4751.4312975460297821
 20
287.1959927169780826
 30
0.0
 11
4751.444388336256452
 21
287.1660690982076858
 31
0.0
  0
LINE
  5
CD32
  8
0
 10
4751.444388336256452
 20
287.1660690982076858
 30
0.0
 11
4751.4546700883784069
 21
287.1363193642740725
 31
0.0
  0
LINE
  5
CD33
  8
0
 10
4751.6442851162846637
 20
287.2495930176912111
 30
0.0
 11
4751.6529032281423497
 21
287.1884930961570035
 31
0.0
  0
ARC
  5
CD34
  8
0
 10
4745.5093470679394159
 20
286.7724192614267054
 30
0.0
 40
0.0624894629778215
 50
56.7936075976833621
 51
87.7934547934735008
  0
ARC
  5
CD35
  8
0
 10
4745.6032155389993932
 20
286.873121088111418
 30
0.0
 40
0.0768230842090869
 50
219.0675542540105027
 51
268.343035169640018
  0
ARC
  5
CD36
  8
0
 10
4746.1507145675614083
 20
312.8304735055364745
 30
0.0
 40
26.0399465052060499
 50
268.7903585378363118
 51
271.3184352429428259
  0
ARC
  5
CD37
  8
0
 10
4746.7470709033941603
 20
286.8827022826354778
 30
0.0
 40
0.0853272618419826
 50
271.8784268126004804
 51
321.0385277668952995
  0
ARC
  5
CD38
  8
0
 10
4746.8373021809238708
 20
286.7830539330205966
 30
0.0
 40
0.0518260318187742
 50
91.4921810246383842
 51
117.4412478052961006
  0
LINE
  5
CD39
  8
0
 10
4762.1086546393116805
 20
298.616222632952713
 30
0.0
 11
4762.1063643284387581
 21
298.5506722466503788
 31
0.0
  0
ARC
  5
CD3A
  8
0
 10
4761.8588070975711162
 20
298.6249522312576801
 30
0.0
 40
0.25
 50
357.9989166489971808
 51
90.0
  0
LINE
  5
CD3B
  8
0
 10
4761.7645299463565607
 20
298.4346240531077115
 30
0.0
 11
4761.9865663898417552
 21
298.4348625230468883
 31
0.0
  0
ARC
  5
CD3C
  8
0
 10
4761.9864375084043786
 20
298.5548624538367903
 30
0.0
 40
0.12
 50
270.0615363657757939
 51
357.9989166490004777
  0
ARC
  5
CD3D
  8
0
 10
4761.4200683021008444
 20
298.5679829942536117
 30
0.0
 40
0.3252651761446529
 50
294.0051618996467937
 51
323.4206248754813942
  0
ARC
  5
CD3E
  8
0
 10
4761.8180305104260697
 20
298.2734118715470117
 30
0.0
 40
0.1698578165390109
 50
108.3591618092196001
 51
143.6263520356420997
  0
ARC
  5
CD3F
  8
0
 10
4761.1436552963159556
 20
299.1932875172437889
 30
0.0
 40
1.008938165806518
 50
271.8272533549023819
 51
293.8983994520011152
  0
LINE
  5
CD40
  8
0
 10
4761.9479342585618724
 20
298.3074821055502071
 30
0.0
 11
4761.7461992421949617
 21
286.8710818056204062
 31
0.0
  0
ARC
  5
CD41
  8
0
 10
4761.8229537015286041
 20
298.3096867288633121
 30
0.0
 40
0.125
 50
358.9894227131165962
 51
90.0615363657758081
  0
LINE
  5
CD42
  8
0
 10
4761.4346761876113305
 20
286.1948627100167073
 30
0.0
 11
4754.933488133490755
 21
286.1948627100167073
 31
0.0
  0
ARC
  5
CD43
  8
0
 10
4755.5255931350566243
 20
286.8845868126084042
 30
0.0
 40
0.9000000000014017
 50
181.6819814242471978
 51
221.5788964770800931
  0
ARC
  5
CD44
  8
0
 10
4754.7626085145511752
 20
286.207679753563923
 30
0.0
 40
0.1199748515092463
 50
15.1955636796165496
 51
41.5788964770885983
  0
ARC
  5
CD45
  8
0
 10
4754.9363695867132265
 20
286.2548751451150224
 30
0.0
 40
0.0600815707109359
 50
195.1955636796134002
 51
267.2510961266772256
  0
ARC
  5
CD46
  8
0
 10
4760.8463973107236598
 20
286.8896394808074888
 30
0.0
 40
0.8999932795241626
 50
318.0800436453836255
 51
358.8184891476473126
  0
ARC
  5
CD47
  8
0
 10
4761.6099106215642678
 20
286.2040979902087088
 30
0.0
 40
0.1261254812250917
 50
138.0800436453835118
 51
163.9581114775367041
  0
ARC
  5
CD48
  8
0
 10
4761.4298957370720018
 20
286.2558588863079763
 30
0.0
 40
0.0611832185284049
 50
274.4812793398069743
 51
343.9581114775414221
  0
LINE
  5
CD49
  8
0
 10
4760.6636865374566696
 20
286.1948627100167073
 30
0.0
 11
4760.6636865374566696
 21
285.9448623900076996
 31
0.0
  0
LINE
  5
CD4A
  8
0
 10
4760.9851574065605746
 20
285.7166513256617009
 30
0.0
 11
4761.0036865374559056
 21
285.5048623900077018
 31
0.0
  0
ARC
  5
CD4B
  8
0
 10
4760.7361087320350634
 20
285.6948623900076996
 30
0.0
 40
0.25
 50
4.9999999908780577
 51
90.0
  0
LINE
  5
CD4C
  8
0
 10
4761.0036865374559056
 20
285.5048623900077018
 30
0.0
 11
4748.5707517555238155
 21
285.5048623900077018
 31
0.0
  0
LINE
  5
CD4D
  8
0
 10
4733.3020974531564207
 20
283.1848494020077283
 30
0.0
 11
4743.8388229410002168
 21
282.9221394210031804
 31
0.0
  0
LINE
  5
CD4E
  8
0
 10
4743.8388229410002168
 20
282.9221394210031804
 30
0.0
 11
4757.3737828149551206
 21
282.5846779832372135
 31
0.0
  0
LINE
  5
CD4F
  8
0
 10
4757.3737828149551206
 20
282.5846779832372135
 30
0.0
 11
4759.3254851534557019
 21
282.5360168386076793
 31
0.0
  0
ARC
  5
CD50
  8
0
 10
4748.8352884941341472
 20
282.17652869881789
 30
0.0
 40
3.338829861790463
 50
94.5443289901178616
 51
127.7327643889314999
  0
ARC
  5
CD51
  8
0
 10
4744.0052285402725829
 20
288.4185156275992767
 30
0.0
 40
4.5536906467025897
 50
270.2322441905931214
 51
307.7327643889324804
  0
LINE
  5
CD52
  8
0
 10
4744.0236865368560757
 20
283.8648623900077155
 30
0.0
 11
4744.0236827629560139
 21
282.9174871550076205
 31
0.0
  0
ARC
  5
CD53
  8
0
 10
4737.4628310266098197
 20
281.9356677440725889
 30
0.0
 40
2.353123976587379
 50
244.6832278745266933
 51
253.6780005363127941
  0
ARC
  5
CD54
  8
0
 10
4739.0415977132961416
 20
288.0534852018664083
 30
0.0
 40
8.6704713936241706
 50
255.0274024902448105
 51
263.089126158161605
  0
ARC
  5
CD55
  8
0
 10
4736.0226611053758461
 20
265.1909604583229907
 30
0.0
 40
14.3913042775411899
 50
76.8921334141858779
 51
82.1094305984146047
  0
ARC
  5
CD56
  8
0
 10
4700.6438839223019386
 20
139.2692417217365914
 30
0.0
 40
145.1754209824441091
 50
73.6321440824287095
 51
74.5630359004997274
  0
ARC
  5
CD57
  8
0
 10
4743.903245364371287
 20
286.5569695467577844
 30
0.0
 40
8.3336898879956252
 50
253.6321440824287095
 51
270.0117936220955244
  0
ARC
  5
CD58
  8
0
 10
4743.9051534881291445
 20
277.2869220973773849
 30
0.0
 40
0.93635775776662
 50
56.1808969657239103
 51
90.0117936220955528
  0
LINE
  5
CD59
  8
0
 10
4744.4263046009209575
 20
278.0648471375744748
 30
0.0
 11
4744.7634207236560542
 21
272.8018277558077216
 31
0.0
  0
ARC
  5
CD5A
  8
0
 10
4745.7040690376989005
 20
272.7687891985498254
 30
0.0
 40
0.9412283447584266
 50
177.9884171091711949
 51
252.8565240571566051
  0
LINE
  5
CD5B
  8
0
 10
4745.6088139877083449
 20
271.843599221307727
 30
0.0
 11
4756.5023588217982251
 21
271.843599221307727
 31
0.0
  0
ARC
  5
CD5C
  8
0
 10
4745.6751826506642828
 20
272.9692362080862154
 30
0.0
 40
1.1275918700604881
 50
257.265700637459986
 51
266.6256910607697819
  0
LINE
  5
CD5D
  8
0
 10
4757.0007010491017354
 20
271.3842812134568021
 30
0.0
 11
4757.033260334881561
 21
270.9854397079665205
 31
0.0
  0
ARC
  5
CD5E
  8
0
 10
4756.9036913557829394
 20
270.9748623900076723
 30
0.0
 40
0.13
 50
270.0
 51
4.6669718980159001
  0
ARC
  5
CD5F
  8
0
 10
4756.5023588217982251
 20
271.343599221307727
 30
0.0
 40
0.5
 50
4.6669718980175228
 51
90.0
  0
LINE
  5
CD60
  8
0
 10
4734.8070539896816626
 20
271.3790650235267208
 30
0.0
 11
4745.3077115397636589
 21
271.4248577441263137
 31
0.0
  0
ARC
  5
CD61
  8
0
 10
4746.30164754460111
 20
271.3887758970707864
 30
0.0
 40
0.9983607068003315
 50
151.2227395351295911
 51
165.4842753694460953
  0
ARC
  5
CD62
  8
0
 10
4746.1674906034586456
 20
271.4235105253774236
 30
0.0
 40
0.8597801191981298
 50
165.4842753694460953
 51
179.91022125511941
  0
ARC
  5
CD63
  8
0
 10
4745.6607389474602314
 20
272.9150022881694895
 30
0.0
 40
1.531391234377091
 50
256.6718849496369899
 51
270.0366878174145882
  0
ARC
  5
CD64
  8
0
 10
4758.5776842119021239
 20
-3861.686808226400899
 30
0.0
 40
4133.0906009265836474
 50
90.0218881635577901
 51
90.1790503863612969
  0
ARC
  5
CD65
  8
0
 10
4753.463051911076036
 20
282.173641175563489
 30
0.0
 40
2.9904428060244199
 50
168.7837870489410079
 51
177.8836359678361134
  0
ARC
  5
CD66
  8
0
 10
4750.9814576397093333
 20
282.2653468258396856
 30
0.0
 40
0.5071546523921877
 50
177.8836359678377903
 51
190.1309993598196115
  0
ARC
  5
CD67
  8
0
 10
4750.6514192254389854
 20
282.2063737824913119
 30
0.0
 40
0.1718888254193146
 50
190.1309993598196115
 51
203.8425320126490021
  0
ARC
  5
CD68
  8
0
 10
4749.999277629610333
 20
281.8973070096640754
 30
0.0
 40
0.5498623510662087
 50
356.5012827646191909
 51
25.831012690326709
  0
ARC
  5
CD69
  8
0
 10
4745.6601003998830492
 20
282.8136831528279913
 30
0.0
 40
4.9794637331347591
 50
316.2362254932937731
 51
349.0022778070589879
  0
ARC
  5
CD6A
  8
0
 10
4746.2954754229067476
 20
282.531729249646105
 30
0.0
 40
4.3319988463333168
 50
291.6394064663310814
 51
313.1152358620445284
  0
ARC
  5
CD6B
  8
0
 10
4748.6655546684842193
 20
276.2431135644301889
 30
0.0
 40
2.3902293955445622
 50
108.8583855008424024
 51
134.6053490963425077
  0
ARC
  5
CD6C
  8
0
 10
4747.6060308222531603
 20
277.440695815774518
 30
0.0
 40
0.7982938562512829
 50
140.83504372917821
 51
184.3896209926444953
  0
ARC
  5
CD6D
  8
0
 10
4747.1272655777320324
 20
277.3860026950591191
 30
0.0
 40
0.3172516259698741
 50
181.1571899614758081
 51
245.1747618130897877
  0
ARC
  5
CD6E
  8
0
 10
4747.5535665386014443
 20
279.3812113109287907
 30
0.0
 40
2.3506989856724472
 50
256.2306355113021823
 51
274.6390389688875757
  0
ARC
  5
CD6F
  8
0
 10
4747.6621985987885637
 20
278.2717792149863953
 30
0.0
 40
1.236254575824036
 50
273.7794014586536946
 51
316.5288241382519914
  0
ARC
  5
CD70
  8
0
 10
4793.0538543239135834
 20
231.2113695294173112
 30
0.0
 40
64.1491366911687209
 50
129.8012236749642909
 51
133.9165524904383915
  0
ARC
  5
CD71
  8
0
 10
4754.871937357292154
 20
277.0590794937372721
 30
0.0
 40
4.4845042286188992
 50
94.8588571596256145
 51
129.9839316155897961
  0
ARC
  5
CD72
  8
0
 10
4757.848133493835121
 20
282.1373061348099895
 30
0.0
 40
1.674991045288829
 50
163.5048128268147138
 51
165.4830052910996017
  0
ARC
  5
CD73
  8
0
 10
4756.1017395816043063
 20
282.5895070020735034
 30
0.0
 40
0.1289982343439273
 50
311.5645261896738134
 51
345.4830052910995732
  0
ARC
  5
CD74
  8
0
 10
4755.0817785898670991
 20
283.7397503291056751
 30
0.0
 40
1.666327130855259
 50
298.2735409586767901
 51
311.5645261896738134
  0
ARC
  5
CD75
  8
0
 10
4754.6297273808013415
 20
284.2965619762665028
 30
0.0
 40
2.3746419925302691
 50
284.3957320239982778
 51
301.5173372225627872
  0
ARC
  5
CD76
  8
0
 10
4755.5151318277803512
 20
280.2088110003126076
 30
0.0
 40
1.811849904195683
 50
99.3712879474127817
 51
113.2811099917274049
  0
ARC
  5
CD77
  8
0
 10
4755.0017275177860938
 20
281.4140752232152067
 30
0.0
 40
0.5018256065975876
 50
113.8257998527961945
 51
138.780690857602707
  0
ARC
  5
CD78
  8
0
 10
4754.4487308936559202
 20
281.7026801461428818
 30
0.0
 40
0.1804981034521676
 50
283.9005748915932941
 51
13.4781609556005506
  0
ARC
  5
CD79
  8
0
 10
4759.7629625955332813
 20
285.3748059974581111
 30
0.0
 40
0.1301182671086329
 50
91.7670212187804424
 51
139.8091048875907063
  0
ARC
  5
CD7A
  8
0
 10
4772.673447267325173
 20
274.4681168247730056
 30
0.0
 40
17.0309017746901894
 50
139.8091048875907063
 51
142.8925254201402879
  0
ARC
  5
CD7B
  8
0
 10
4758.9331734702873291
 20
285.3663890034919177
 30
0.0
 40
0.1415633478484401
 50
101.9931117640956018
 51
169.2627442658570942
  0
ARC
  5
CD7C
  8
0
 10
4759.7505731391647714
 20
285.2113891867451798
 30
0.0
 40
0.9735291896198528
 50
169.2627442658570942
 51
173.3234591287776141
  0
ARC
  5
CD7D
  8
0
 10
-2965.875254172755831
 20
379.220080010443894
 30
0.0
 40
7725.2295429496016368
 50
359.3003938094042837
 51
359.3035872199645837
  0
ARC
  5
CD7E
  8
0
 10
4759.3489476870454382
 20
284.8774958967093767
 30
0.0
 40
0.5707866549450868
 50
178.3392784303439953
 51
202.4333191058281898
  0
ARC
  5
CD7F
  8
0
 10
4759.0301760044367256
 20
284.7443914513867185
 30
0.0
 40
0.2253487962031624
 50
202.0809573072430965
 51
232.5242889084397859
  0
ARC
  5
CD80
  8
0
 10
4758.9524506299785571
 20
284.664824764183777
 30
0.0
 40
0.1156777517473948
 50
239.1131705801053897
 51
279.5168692358425915
  0
ARC
  5
CD81
  8
0
 10
4758.8412316510593882
 20
284.7651944934107746
 30
0.0
 40
0.2509599861241512
 50
301.2910216726656927
 51
354.9410746196388118
  0
LINE
  5
CD82
  8
0
 10
4754.2631469964562712
 20
285.5048623900077018
 30
0.0
 11
4754.2865333422978438
 21
284.8146298430327761
 31
0.0
  0
ARC
  5
CD83
  8
0
 10
4754.5468781433783079
 20
284.8042231898331806
 30
0.0
 40
0.2605527084495041
 50
177.7109585412599984
 51
2.2890414587400021
  0
LINE
  5
CD84
  8
0
 10
4754.807222944458772
 20
284.8146298430327761
 30
0.0
 11
4754.8306092903021636
 21
285.5048623900077018
 31
0.0
  0
LINE
  5
CD85
  8
0
 10
4756.8318073785630986
 20
285.5048623900077018
 30
0.0
 11
4756.8412461192574483
 21
284.8643451199076821
 31
0.0
  0
ARC
  5
CD86
  8
0
 10
4757.1359837608770249
 20
284.8521828428836784
 30
0.0
 40
0.2949884715897326
 50
177.6370441973529921
 51
261.9911140862237744
  0
ARC
  5
CD87
  8
0
 10
4757.103760211167355
 20
284.6231581019063128
 30
0.0
 40
0.0637079295294414
 50
261.9911140862236039
 51
278.0808296924877254
  0
ARC
  5
CD88
  8
0
 10
4757.0711877787616686
 20
284.8525741772858169
 30
0.0
 40
0.2954247804387275
 50
278.080829692487896
 51
2.3474977512121948
  0
LINE
  5
CD89
  8
0
 10
4757.3663646336563033
 20
284.8646748067076828
 30
0.0
 11
4757.385243871342027
 21
285.5048623900077018
 31
0.0
  0
ARC
  5
CD8A
  8
0
 10
4750.0948730460186198
 20
286.8583369058129051
 30
0.0
 40
1.879100171662669
 50
226.0774375067838946
 51
277.9160966267526192
  0
ARC
  5
CD8B
  8
0
 10
4698.2543536922057683
 20
659.6834334027148543
 30
0.0
 40
378.2910978879910999
 50
277.9160966267526192
 51
278.4561597156201742
  0
LINE
  5
CD8C
  8
0
 10
4752.2095604025316788
 20
285.2598892576548906
 30
0.0
 11
4752.2130000220549846
 21
285.0628335851574207
 31
0.0
  0
ARC
  5
CD8D
  8
0
 10
4752.2529939298619865
 20
285.0635316814078237
 30
0.0
 40
0.0400000000001031
 50
180.9999999897669909
 51
269.9999999919750167
  0
LINE
  5
CD8E
  8
0
 10
4752.2529939298574391
 20
285.0235316814076896
 30
0.0
 11
4752.6463781488555469
 21
285.0235316813524946
 31
0.0
  0
ARC
  5
CD8F
  8
0
 10
4752.6463781488619134
 20
285.0635316813401801
 30
0.0
 40
0.0399999999876921
 50
269.9999999919750167
 51
359.0000000355130965
  0
LINE
  5
CD90
  8
0
 10
4752.6863720566561824
 20
285.0628335851076827
 30
0.0
 11
4752.6910282339276819
 21
285.3295858117751891
 31
0.0
  0
LINE
  5
CD91
  8
0
 10
4752.3246860393555835
 20
285.0235316813976283
 30
0.0
 11
4752.3246860393555835
 21
284.7512679019076813
 31
0.0
  0
LINE
  5
CD92
  8
0
 10
4752.3246860393555835
 20
284.7512679019076813
 30
0.0
 11
4752.3646860394555915
 21
284.711267901907604
 31
0.0
  0
LINE
  5
CD93
  8
0
 10
4752.3646860394555915
 20
284.711267901907604
 30
0.0
 11
4752.5346860392573944
 21
284.711267901907604
 31
0.0
  0
LINE
  5
CD94
  8
0
 10
4752.5346860392573944
 20
284.711267901907604
 30
0.0
 11
4752.5746860393555835
 21
284.7512679019076813
 31
0.0
  0
LINE
  5
CD95
  8
0
 10
4752.5746860393555835
 20
284.7512679019076813
 30
0.0
 11
4752.5746860393555835
 21
285.0235316814076896
 31
0.0
  0
LINE
  5
CD96
  8
0
 10
4755.7487035481562998
 20
286.1948627100167073
 30
0.0
 11
4755.7487035481562998
 21
285.9448623900076996
 31
0.0
  0
LINE
  5
CD97
  8
0
 10
4756.7045645305561266
 20
286.1948623900076996
 30
0.0
 11
4756.7045645305561266
 21
285.9448623900076996
 31
0.0
  0
LINE
  5
CD98
  8
0
 10
4757.3062014497572818
 20
286.1948623900076996
 30
0.0
 11
4757.3062014497572818
 21
286.0898623900076814
 31
0.0
  0
LINE
  5
CD99
  8
0
 10
4757.3062014497572818
 20
286.0898623900076814
 30
0.0
 11
4756.7045645305561266
 21
286.0898623900076814
 31
0.0
  0
LINE
  5
CD9A
  8
0
 10
4759.439951851855767
 20
286.1948623900076996
 30
0.0
 11
4759.439951851855767
 21
286.0898623900076814
 31
0.0
  0
LINE
  5
CD9B
  8
0
 10
4759.439951851855767
 20
286.0898623900076814
 30
0.0
 11
4759.4987035481562998
 21
286.0898623900076814
 31
0.0
  0
LINE
  5
CD9C
  8
0
 10
4759.783686537455651
 20
286.0898623900077951
 30
0.0
 11
4760.0210469985568125
 21
286.0898623900080224
 31
0.0
  0
LINE
  5
CD9D
  8
0
 10
4760.0210469985568125
 20
286.0898623900080224
 30
0.0
 11
4760.0210469985568125
 21
286.1948623901076871
 31
0.0
  0
LINE
  5
CD9E
  8
0
 10
4759.4987035481562998
 20
285.9448623900076996
 30
0.0
 11
4759.4987035481562998
 21
286.0898623580199001
 31
0.0
  0
LINE
  5
CD9F
  8
0
 10
4759.5287473575217518
 20
286.1198623260323188
 30
0.0
 11
4759.7537303468234313
 21
286.1195337802731729
 31
0.0
  0
ARC
  5
CDA0
  8
0
 10
4759.5287035481560451
 20
286.0898623580199001
 30
0.0
 40
0.03
 50
89.9163302432365157
 51
180.0
  0
LINE
  5
CDA1
  8
0
 10
4759.783686537455651
 20
285.9448623900076996
 30
0.0
 11
4759.783686537455651
 21
286.0895338122609246
 31
0.0
  0
ARC
  5
CDA2
  8
0
 10
4759.7536865374568151
 20
286.0895338122609246
 30
0.0
 40
0.03
 50
0.0
 51
89.9163302432365157
  0
ARC
  5
CDA3
  8
0
 10
4442.9749695136788432
 20
303.9744471282400013
 30
0.0
 40
317.0761029135383069
 50
356.1231093072082103
 51
356.6163489349011115
  0
ARC
  5
CDA4
  8
0
 10
4756.5921562910707507
 20
282.7212489699870162
 30
0.0
 40
2.7395980749825748
 50
315.6533087447936055
 51
356.1231093072082103
  0
ARC
  5
CDA5
  8
0
 10
4756.4478239407590081
 20
282.862326821215504
 30
0.0
 40
2.941426684087697
 50
295.9106846818547751
 51
315.6533087447936055
  0
ARC
  5
CDA6
  8
0
 10
4757.8145567134406519
 20
280.0489870919279269
 30
0.0
 40
0.1863263279497727
 50
115.9106846818539935
 51
211.6333126989779885
  0
ARC
  5
CDA7
  8
0
 10
4754.9201479350222144
 20
278.2660143231508982
 30
0.0
 40
3.213172763208858
 50
3.4422595323330469
 51
31.6333126989765994
  0
ARC
  5
CDA8
  8
0
 10
4755.7515676014209021
 20
278.3160251730320738
 30
0.0
 40
2.3802503497872012
 50
355.0031265706329009
 51
3.4422595323330469
  0
ARC
  5
CDA9
  8
0
 10
4724.7202049478410117
 20
281.0292113168476931
 30
0.0
 40
33.5299990998015929
 50
352.2871843558685896
 51
355.0031265706329009
  0
ARC
  5
CDAA
  8
0
 10
4757.3243858921150604
 20
276.6135268136804939
 30
0.0
 40
0.628161997923654
 50
322.6204352913395041
 51
352.2871843558685896
  0
ARC
  5
CDAB
  8
0
 10
4757.2243872486487817
 20
276.8621997931675764
 30
0.0
 40
0.8694363848292606
 50
292.6917846763406033
 51
313.5613774345064257
  0
ARC
  5
CDAC
  8
0
 10
2498.9916440238439463
 20
6209.3023046847465594
 30
0.0
 40
6348.5820130149859324
 50
290.8353748673130781
 51
290.8399974915515145
  0
ARC
  5
CDAD
  8
0
 10
4757.1060021717339623
 20
275.8124266802469151
 30
0.0
 40
0.0700161058873104
 50
110.8414827670334972
 51
193.0887043945409971
  0
ARC
  5
CDAE
  8
0
 10
4752.8313056225533728
 20
274.8183262036341716
 30
0.0
 40
4.3187498192940099
 50
352.8424155728934011
 51
13.0917509313882299
  0
ARC
  5
CDAF
  8
0
 10
5094.1304134385118232
 20
153.2870016017782007
 30
0.0
 40
358.0751357126937933
 50
159.9188659663757051
 51
160.2510814056047934
  0
ARC
  5
CDB0
  8
0
 10
4752.8401850879135964
 20
274.8188090299881878
 30
0.0
 40
4.3100000008582766
 50
333.1275709224601087
 51
352.8213400472063768
  0
ARC
  5
CDB1
  8
0
 10
4767.1867868630379235
 20
266.9346413679302827
 30
0.0
 40
12.0635289363110303
 50
150.5236913884114927
 51
153.1859458175705981
  0
ARC
  5
CDB2
  8
0
 10
4758.406208523640089
 20
271.4880366408264081
 30
0.0
 40
2.1754951668783602
 50
155.8971402997545965
 51
164.7666968631803002
  0
ARC
  5
CDB3
  8
0
 10
4756.4517505493686258
 20
272.0200252295575183
 30
0.0
 40
0.1499293164391322
 50
164.6760018661119034
 51
264.1736778843221032
  0
ARC
  5
CDB4
  8
0
 10
4756.4314676535050239
 20
271.2928313216684728
 30
0.0
 40
0.5780612730394318
 50
60.0715856390395118
 51
89.4981565854865977
  0
LINE
  5
CDB5
  8
0
 10
4756.6817071827736072
 20
272.8652426282167767
 30
0.0
 11
4756.8092961405545793
 21
271.7383009851164957
 31
0.0
  0
ARC
  5
CDB6
  8
0
 10
4745.4595939779319451
 20
274.103851836432284
 30
0.0
 40
2.522681889917282
 50
99.0885175723718561
 51
111.6274383043330971
  0
ARC
  5
CDB7
  8
0
 10
4745.2253847615647828
 20
283.4375850048385246
 30
0.0
 40
6.8446939215092657
 50
268.6247573948946865
 51
278.3059561278273009
  0
ARC
  5
CDB8
  8
0
 10
4746.0470914635825466
 20
277.8837858506686871
 30
0.0
 40
1.23049413876684
 50
277.8034857942574263
 51
320.3170438645836953
  0
ARC
  5
CDB9
  8
0
 10
4747.7082723775820341
 20
195.1214495048303945
 30
0.0
 40
76.9502693284090924
 50
88.2252997052233496
 51
90.9362886412283586
  0
ARC
  5
CDBA
  8
0
 10
4746.4343948060613911
 20
273.0688989110720968
 30
0.0
 40
1.0075887296842541
 50
184.9723742467942884
 51
270.936288641228316
  0
ARC
  5
CDBB
  8
0
 10
4903.9120894697716722
 20
286.7699044885064268
 30
0.0
 40
159.0801729131219133
 50
184.5256257212058983
 51
184.9723742467959084
  0
ARC
  5
CDBC
  8
0
 10
4745.5453967218600155
 20
274.2349042220300248
 30
0.0
 40
0.2181711518694803
 50
74.3063572270919508
 51
184.5256257212043067
  0
ARC
  5
CDBD
  8
0
 10
4747.8427336779577672
 20
282.4114231835511077
 30
0.0
 40
8.2749566240427335
 50
254.3063572270924055
 51
256.9584611011725883
  0
ARC
  5
CDBE
  8
0
 10
4745.8624921708405964
 20
268.9441989260093919
 30
0.0
 40
5.40688550201686
 50
82.318290358591554
 51
88.8031478525521436
  0
ARC
  5
CDBF
  8
0
 10
4747.4341128381147428
 20
280.3226325856686003
 30
0.0
 40
6.0796254146096951
 50
261.9737052515365008
 51
263.2121729970785964
  0
ARC
  5
CDC0
  8
0
 10
4745.7135195003229455
 20
266.4487274441323734
 30
0.0
 40
7.9006936398357741
 50
78.3832847756506652
 51
82.713703873802956
  0
ARC
  5
CDC1
  8
0
 10
4747.3366327398543945
 20
249.2853204718105928
 30
0.0
 40
24.9022879385545899
 50
89.057254195477725
 51
90.0740875108670451
  0
ARC
  5
CDC2
  8
0
 10
4747.6478679428446412
 20
278.519100436542999
 30
0.0
 40
4.3359816083871348
 50
271.3015484084883155
 51
310.7581370002989729
  0
ARC
  5
CDC3
  8
0
 10
3683.1140110009700948
 20
1515.6803812413529613
 30
0.0
 40
1636.451284670170935
 50
310.7109648494949283
 51
310.8704828663221065
  0
ARC
  5
CDC4
  8
0
 10
4755.1348904106871487
 20
276.8423331653373793
 30
0.0
 40
1.824861227262067
 50
97.6196996427614749
 51
131.3999003943166031
  0
ARC
  5
CDC5
  8
0
 10
4754.9507270370631886
 20
278.2148936089154745
 30
0.0
 40
0.4400012660945256
 50
0.0002030499442899
 51
97.5494395032664414
  0
ARC
  5
CDC6
  8
0
 10
4755.2412513339659199
 20
278.2224436506114102
 30
0.0
 40
0.1496674443696473
 50
320.5112088779421242
 51
357.1090590186660165
  0
ARC
  5
CDC7
  8
0
 10
4745.011437768000178
 20
286.6518905292030013
 30
0.0
 40
13.4050308974562196
 50
318.8293577507498071
 51
320.5112088779421242
  0
ARC
  5
CDC8
  8
0
 10
4753.3432320790798258
 20
279.3654935157550767
 30
0.0
 40
2.3365902719784089
 50
303.821675151145314
 51
318.8293577507498071
  0
ARC
  5
CDC9
  8
0
 10
4754.2964163142896723
 20
283.0821397130509922
 30
0.0
 40
5.6684790834056278
 50
268.8201656908884161
 51
273.5134965762970864
  0
ARC
  5
CDCA
  8
0
 10
4754.1796993422703963
 20
277.924862584477296
 30
0.0
 40
0.5100001941696354
 50
193.9202564461224085
 51
269.9999929881025196
  0
ARC
  5
CDCB
  8
0
 10
4754.3274000541050555
 20
277.6996301595787031
 30
0.0
 40
0.6508513442565186
 50
136.1307179666349896
 51
170.9353329719874921
  0
ARC
  5
CDCC
  8
0
 10
4758.8712974977870545
 20
274.6944786470605777
 30
0.0
 40
5.0322688942924509
 50
147.1483080467679088
 51
151.269451181486005
  0
ARC
  5
CDCD
  8
0
 10
4757.0029354442986005
 20
275.7186721298181169
 30
0.0
 40
2.9016002074625069
 50
151.269451181486005
 51
194.9518011130726052
  0
ARC
  5
CDCE
  8
0
 10
4717.9936941866008056
 20
265.3013412976187055
 30
0.0
 40
37.4746512922592103
 50
14.0274185662987296
 51
14.9518011130726691
  0
ARC
  5
CDCF
  8
0
 10
4754.3009574302050169
 20
274.3722156513014738
 30
0.0
 40
0.0514215307778487
 50
264.4950933156194992
 51
14.0274185663050499
  0
ARC
  5
CDD0
  8
0
 10
4752.9767199061279825
 20
-3544794.4475580779835582
 30
0.0
 40
3545068.7685896009206772
 50
89.9999786772324626
 51
90.0000212213610666
  0
ARC
  5
CDD1
  8
0
 10
4751.6637026515181788
 20
271.564865663694377
 30
0.0
 40
2.7561656162065891
 50
90.0003349826549623
 51
139.942812034070613
  0
ARC
  5
CDD2
  8
0
 10
4749.5211863026361243
 20
273.3647995269533908
 30
0.0
 40
0.042088183355753
 50
255.8739639859061015
 51
321.5039047514193271
  0
LINE
  5
CDD3
  8
0
 10
4747.3044324429556582
 20
274.187587590407702
 30
0.0
 11
4747.3035817508316541
 21
274.038201153320415
 31
0.0
  0
LINE
  5
CDD4
  8
0
 10
4747.3035817508316541
 20
274.038201153320415
 30
0.0
 11
4747.3108542097070313
 21
273.9829440271799967
 31
0.0
  0
ARC
  5
CDD5
  8
0
 10
4747.3553976613529812
 20
273.9888064460720898
 30
0.0
 40
0.0449275754944715
 50
187.4976763594681017
 51
254.163044805658302
  0
LINE
  5
CDD6
  8
0
 10
4747.3431368895562628
 20
273.9455842236076819
 30
0.0
 11
4749.5109144411562738
 21
273.3239840392076871
 31
0.0
  0
LINE
  5
CDD7
  8
0
 10
4749.4736016294600631
 20
273.1938588007570274
 30
0.0
 11
4748.9995177852561028
 21
272.3242512608077277
 31
0.0
  0
LINE
  5
CDD8
  8
0
 10
4749.5109144390553411
 20
273.323984109007597
 30
0.0
 11
4749.4736016294600631
 21
273.1938588007570274
 31
0.0
  0
ARC
  5
CDD9
  8
0
 10
4748.7006802814639741
 20
272.2235778691504038
 30
0.0
 40
0.315339476533861
 50
329.0402897092350827
 51
18.6178164371001102
  0
ARC
  5
CDDA
  8
0
 10
4745.9674279449818641
 20
274.2066828494635047
 30
0.0
 40
0.1434452554778896
 50
3.8278678355506268
 51
86.802732005316301
  0
LINE
  5
CDDB
  8
0
 10
4746.1105531906769102
 20
274.2162591412100028
 30
0.0
 11
4746.1882966809889695
 21
273.6257387050783905
 31
0.0
  0
ARC
  5
CDDC
  8
0
 10
4747.0983654876708897
 20
273.7672979805875002
 30
0.0
 40
0.9210126282394314
 50
188.8413852942956055
 51
252.5803357675034988
  0
LINE
  5
CDDD
  8
0
 10
4746.82264352565835
 20
272.888525165213423
 30
0.0
 11
4748.7301217977155829
 21
272.3410876506974887
 31
0.0
  0
LINE
  5
CDDE
  8
0
 10
4748.7301217977155829
 20
272.3410876506974887
 30
0.0
 11
4748.9995177852561028
 21
272.3242512608077277
 31
0.0
  0
ARC
  5
CDDF
  8
0
 10
4754.2070547397788687
 20
271.3428889651794975
 30
0.0
 40
4.17343463522396
 50
166.8348744408714879
 51
173.1093065557415969
  0
ARC
  5
CDE0
  8
0
 10
4750.7837332794997565
 20
272.143623762946504
 30
0.0
 40
0.6577119446866941
 50
145.3468859814722123
 51
166.8348744408714879
  0
ARC
  5
CDE1
  8
0
 10
4750.7558922283596985
 20
272.1628681335757278
 30
0.0
 40
0.6238671529227661
 50
116.6890462514951992
 51
145.3468859814722123
  0
ARC
  5
CDE2
  8
0
 10
4750.7886305318015729
 20
272.097744249036225
 30
0.0
 40
0.6967569111183359
 50
70.0597383628144996
 51
116.6890462514951992
  0
ARC
  5
CDE3
  8
0
 10
4750.7719016129840384
 20
272.0516323878952107
 30
0.0
 40
0.7458095406372376
 50
47.038093727172793
 51
70.0597383628144996
  0
ARC
  5
CDE4
  8
0
 10
4750.9389512935667881
 20
272.2310101953070784
 30
0.0
 40
0.5006932548161908
 50
16.1072319552970313
 51
47.038093727172793
  0
ARC
  5
CDE5
  8
0
 10
4748.582934330084754
 20
271.5506586750850033
 30
0.0
 40
2.952976705660026
 50
9.3558953741062023
 51
16.1072319552970313
  0
ARC
  5
CDE6
  8
0
 10
4749.5219963477220517
 20
271.7053768047330777
 30
0.0
 40
2.0012544916658941
 50
3.9604514244032472
 51
9.3558953741062023
  0
LINE
  5
CDE7
  8
0
 10
4751.4966293373845474
 20
272.0307137017265973
 30
0.0
 11
4756.4344953933532452
 21
271.8710921589561167
 31
0.0
  0
LINE
  5
CDE9
  8
0
 10
4754.0697987723233382
 20
297.3695681168568967
 30
0.0
 11
4753.7087773332877987
 21
297.3437105167830055
 31
0.0
  0
LINE
  5
CDEA
  8
0
 10
4754.1908419515493733
 20
296.1262234805083153
 30
0.0
 11
4753.6962505911251355
 21
296.1616478188697101
 31
0.0
  0
ARC
  5
CDEB
  8
0
 10
4753.8715248747257647
 20
297.1567958599998747
 30
0.0
 40
0.2478383569272197
 50
131.0462550131165926
 51
168.4450296874636877
  0
ARC
  5
CDEC
  8
0
 10
4755.5781138025213295
 20
296.8078809880789777
 30
0.0
 40
1.989730246891666
 50
168.4450296874636877
 51
198.9525081098356907
  0
ENDSEC
  0
EOF
