  0
SECTION
  2
HEADER
  9
$ACADVER
  1
AC1009
  9
$INSBASE
 10
3446.2220684990488735
 20
143.8978040949658919
 30
0.0
  9
$EXTMIN
 10
3439.1507372539149401
 20
143.8945043127324936
 30
-0.0015258207003583
  9
$EXTMAX
 10
3447.5673889454619712
 20
153.1357356942579031
 30
0.0000000349246037
  9
$LIMMIN
 10
0.0
 20
0.0
  9
$LIMMAX
 10
11.6929133858000007
 20
8.2677165353999982
  9
$ORTHOMODE
 70
     0
  9
$REGENMODE
 70
     1
  9
$FILLMODE
 70
     1
  9
$QTEXTMODE
 70
     0
  9
$MIRRTEXT
 70
     0
  9
$DRAGMODE
 70
     2
  9
$LTSCALE
 40
0.6431102362
  9
$OSMODE
 70
  2039
  9
$ATTMODE
 70
     1
  9
$TEXTSIZE
 40
0.2
  9
$TRACEWID
 40
0.05
  9
$TEXTSTYLE
  7
STANDARD
  9
$CLAYER
  8
0
  9
$CELTYPE
  6
BYLAYER
  9
$CECOLOR
 62
   256
  9
$DIMSCALE
 40
1.0
  9
$DIMASZ
 40
0.1875
  9
$DIMEXO
 40
0.0625
  9
$DIMDLI
 40
0.4443307087
  9
$DIMRND
 40
0.0
  9
$DIMDLE
 40
0.0
  9
$DIMEXE
 40
0.125
  9
$DIMTP
 40
0.01
  9
$DIMTM
 40
0.01
  9
$DIMTXT
 40
2.0
  9
$DIMCEN
 40
0.1052362205
  9
$DIMTSZ
 40
0.0
  9
$DIMTOL
 70
     1
  9
$DIMLIM
 70
     0
  9
$DIMTIH
 70
     1
  9
$DIMTOH
 70
     1
  9
$DIMSE1
 70
     0
  9
$DIMSE2
 70
     0
  9
$DIMTAD
 70
     0
  9
$DIMZIN
 70
     0
  9
$DIMBLK
  1

  9
$DIMASO
 70
     1
  9
$DIMSHO
 70
     1
  9
$DIMPOST
  1
\X
  9
$DIMAPOST
  1

  9
$DIMALT
 70
     1
  9
$DIMALTD
 70
     2
  9
$DIMALTF
 40
25.3999999999999986
  9
$DIMLFAC
 40
1.0
  9
$DIMTOFL
 70
     0
  9
$DIMTVP
 40
0.0
  9
$DIMTIX
 70
     0
  9
$DIMSOXD
 70
     0
  9
$DIMSAH
 70
     0
  9
$DIMBLK1
  1

  9
$DIMBLK2
  1

  9
$DIMSTYLE
  2
STANDARD
  9
$DIMCLRD
 70
     0
  9
$DIMCLRE
 70
     0
  9
$DIMCLRT
 70
     0
  9
$DIMTFAC
 40
1.0
  9
$DIMGAP
 40
0.09
  9
$LUNITS
 70
     2
  9
$LUPREC
 70
     4
  9
$SKETCHINC
 40
0.1
  9
$FILLETRAD
 40
0.0
  9
$AUNITS
 70
     0
  9
$AUPREC
 70
     0
  9
$MENU
  1
.
  9
$ELEVATION
 40
0.0
  9
$PELEVATION
 40
0.0
  9
$THICKNESS
 40
0.0
  9
$LIMCHECK
 70
     0
  9
$BLIPMODE
 70
     0
  9
$CHAMFERA
 40
0.0
  9
$CHAMFERB
 40
0.0
  9
$SKPOLY
 70
     0
  9
$TDCREATE
 40
2458060.468368056230247
  9
$TDUPDATE
 40
2459164.3797222222201526
  9
$TDINDWG
 40
0.5717200231
  9
$TDUSRTIMER
 40
0.5717200231
  9
$USRTIMER
 70
     1
  9
$ANGBASE
 50
0.0
  9
$ANGDIR
 70
     0
  9
$PDMODE
 70
     0
  9
$PDSIZE
 40
0.3125
  9
$PLINEWID
 40
0.0
  9
$COORDS
 70
     1
  9
$SPLFRAME
 70
     0
  9
$SPLINETYPE
 70
     6
  9
$SPLINESEGS
 70
     8
  9
$ATTDIA
 70
     1
  9
$ATTREQ
 70
     1
  9
$HANDLING
 70
     1
  9
$HANDSEED
  5
16DC9
  9
$SURFTAB1
 70
     6
  9
$SURFTAB2
 70
     6
  9
$SURFTYPE
 70
     6
  9
$SURFU
 70
     6
  9
$SURFV
 70
     6
  9
$UCSNAME
  2

  9
$UCSORG
 10
0.0
 20
0.0
 30
0.0
  9
$UCSXDIR
 10
1.0
 20
0.0
 30
0.0
  9
$UCSYDIR
 10
0.0
 20
1.0
 30
0.0
  9
$PUCSNAME
  2

  9
$PUCSORG
 10
0.0
 20
0.0
 30
0.0
  9
$PUCSXDIR
 10
1.0
 20
0.0
 30
0.0
  9
$PUCSYDIR
 10
0.0
 20
1.0
 30
0.0
  9
$USERI1
 70
     0
  9
$USERI2
 70
     0
  9
$USERI3
 70
     0
  9
$USERI4
 70
     0
  9
$USERI5
 70
     0
  9
$USERR1
 40
0.0
  9
$USERR2
 40
0.0
  9
$USERR3
 40
0.0
  9
$USERR4
 40
0.0
  9
$USERR5
 40
0.0
  9
$WORLDVIEW
 70
     1
  9
$SHADEDGE
 70
     3
  9
$SHADEDIF
 70
    70
  9
$TILEMODE
 70
     1
  9
$MAXACTVP
 70
    64
  9
$PLIMCHECK
 70
     0
  9
$PEXTMIN
 10
1.0000000000000000E+20
 20
1.0000000000000000E+20
 30
1.0000000000000000E+20
  9
$PEXTMAX
 10
-1.0000000000000000E+20
 20
-1.0000000000000000E+20
 30
-1.0000000000000000E+20
  9
$PLIMMIN
 10
0.0
 20
0.0
  9
$PLIMMAX
 10
12.0
 20
9.0
  9
$UNITMODE
 70
     0
  9
$VISRETAIN
 70
     1
  9
$PLINEGEN
 70
     0
  9
$PSLTSCALE
 70
     1
  0
ENDSEC
  0
SECTION
  2
TABLES
  0
TABLE
  2
VPORT
 70
     1
  0
VPORT
  2
*ACTIVE
 70
     0
 10
0.0
 20
0.0
 11
1.0
 21
1.0
 12
139.6659478653137114
 22
-46.7463915723925467
 13
0.0
 23
0.0
 14
1.0
 24
1.0
 15
0.0
 25
0.0
 16
0.0
 26
0.0
 36
96.5995694866707311
 17
3303.693115234375
 27
195.2615115758877096
 37
0.0
 40
9.3181348326892532
 41
2.6486111111111108
 42
50.0
 43
0.0
 44
0.0
 50
0.0
 51
0.0
 71
     0
 72
   100
 73
     1
 74
     1
 75
     0
 76
     0
 77
     0
 78
     0
  0
ENDTAB
  0
TABLE
  2
LTYPE
 70
     2
  0
LTYPE
  2
CONTINUOUS
 70
     0
  3
Solid line
 72
    65
 73
     0
 40
0.0
  0
LTYPE
  2
PHANTOM2
 70
     0
  3
___ _ _ ___ _ _ ___ _ _ ___ _ _
 72
    65
 73
     6
 40
1.25
 49
0.625
 49
-0.125
 49
0.125
 49
-0.125
 49
0.125
 49
-0.125
  0
ENDTAB
  0
TABLE
  2
LAYER
 70
     2
  0
LAYER
  2
0
 70
     0
 62
   255
  6
CONTINUOUS
  0
LAYER
  2
DEFPOINTS
 70
     0
 62
     7
  6
CONTINUOUS
  0
ENDTAB
  0
TABLE
  2
STYLE
 70
     1
  0
STYLE
  2
STANDARD
 70
     0
 40
0.0
 41
0.8
 50
0.0
 71
     0
 42
0.2
  3
txt
  4

  0
ENDTAB
  0
TABLE
  2
VIEW
 70
     0
  0
ENDTAB
  0
TABLE
  2
UCS
 70
     0
  0
ENDTAB
  0
TABLE
  2
APPID
 70
     9
  0
APPID
  2
ACAD
 70
     0
  0
APPID
  2
ACAD_MLEADERVER
 70
     0
  0
APPID
  2
ACAD_EXEMPT_FROM_CAD_STANDARDS
 70
     0
  0
APPID
  2
ACAD_NAV_VCDISPLAY
 70
     0
  0
APPID
  2
ACAECLAYERSTANDARD
 70
     0
  0
APPID
  2
ACCMTRANSPARENCY
 70
     0
  0
APPID
  2
ACAD_DSTYLE_DIMJAG
 70
     0
  0
APPID
  2
ACAD_DSTYLE_DIMTALN
 70
     0
  0
APPID
  2
ACDBATTR
 70
     0
  0
ENDTAB
  0
TABLE
  2
DIMSTYLE
 70
     1
  0
DIMSTYLE
  2
STANDARD
 70
     0
  3

  4

  5

  6

  7

 40
1.0
 41
0.1875
 42
0.0625
 43
0.38
 44
0.125
 45
0.0
 46
0.0
 47
0.01
 48
0.01
140
0.15625
141
0.09
142
0.0
143
25.3999999999999986
144
1.0
145
0.0
146
1.0
147
0.09
 71
     1
 72
     0
 73
     1
 74
     1
 75
     0
 76
     0
 77
     0
 78
     4
170
     0
171
     2
172
     0
173
     0
174
     0
175
     0
176
     0
177
     0
178
     0
  0
ENDTAB
  0
ENDSEC
  0
SECTION
  2
BLOCKS
  0
BLOCK
  8
0
  2
$MODEL_SPACE
 70
     0
 10
0.0
 20
0.0
 30
0.0
  3
$MODEL_SPACE
  1

  0
ENDBLK
  5
21
  8
0
  0
BLOCK
 67
     1
  8
0
  2
$PAPER_SPACE
 70
     0
 10
0.0
 20
0.0
 30
0.0
  3
$PAPER_SPACE
  1

  0
ENDBLK
  5
1D
 67
     1
  8
0
  0
BLOCK
  8
0
  2
_FILLED
 70
     0
 10
0.0
 20
0.0
 30
0.0
  3
_FILLED
  1

  0
SOLID
  5
9E2C
  8
0
  6
BYBLOCK
 62
     0
 10
0.0
 20
0.0
 30
0.0
 11
-1.0
 21
0.1666666667
 31
0.0
 12
-1.0
 22
-0.1666666667
 32
0.0
 13
-1.0
 23
-0.1666666667
 33
0.0
  0
ENDBLK
  5
9E2D
  8
0
  6
BYBLOCK
 62
     0
  0
BLOCK
  8
0
  2
A$C6B0F1CD5
 70
     2
 10
0.0
 20
0.0
 30
0.0
  3
A$C6B0F1CD5
  1

  0
ATTDEF
  5
B779
  8
DEFPOINTS
 10
0.0005209962714616
 20
0.000347009907216
 30
0.0
 40
0.001
  1
BATH FAUCET
  3

  2
PRODUCT
 70
     0
1001
ACDBATTR
1070
     0
1070
     1
  0
ATTDEF
  5
B77A
  8
DEFPOINTS
 10
0.0005209962714616
 20
0.0020136765738812
 30
0.0
 40
0.001
  1
SINGULIER
  3

  2
TRADENAME
 70
     0
1001
ACDBATTR
1070
     0
1070
     1
  0
ATTDEF
  5
B77B
  8
DEFPOINTS
 10
0.0005209962714616
 20
0.0036803432405463
 30
0.0
 40
0.001
  1
K-10873W
  3

  2
MODELNUMBER
 70
     0
1001
ACDBATTR
1070
     0
1070
     1
  0
ENDBLK
  5
B77F
  8
0
  0
ENDSEC
  0
SECTION
  2
ENTITIES
  0
ATTDEF
  5
15B77
  8
DEFPOINTS
 10
3446.2225305319420841
 20
143.9018071356994994
 30
0.0
 40
0.001
  1
K-15537T
  3

  2
MODELNUMBER
 70
     0
1001
ACDBATTR
1070
     0
1070
     1
  0
ATTDEF
  5
15B78
  8
DEFPOINTS
 10
3446.2225305319420841
 20
143.9001404690328059
 30
0.0
 40
0.001
  1
MARGAUX
  3

  2
TRADENAME
 70
     0
1001
ACDBATTR
1070
     0
1070
     1
  0
ATTDEF
  5
15B79
  8
DEFPOINTS
 10
3446.2225305319420841
 20
143.8984738023661976
 30
0.0
 40
0.001
  1
BATHROOM SINK FAUCET
  3

  2
PRODUCT
 70
     0
1001
ACDBATTR
1070
     0
1070
     1
  0
LINE
  5
16A87
  8
0
 10
3444.9822380331479508
 20
143.8978040949658919
 30
0.0
 11
3447.4618989649488867
 21
143.8978040949658919
 31
0.0
  0
LINE
  5
16A88
  8
0
 10
3445.0037131732460693
 20
144.1711535062659095
 30
0.0
 11
3447.4403489620030996
 21
144.1711535062659095
 31
0.0
  0
LINE
  5
16A89
  8
0
 10
3444.9822380331479508
 20
143.8978040949658919
 30
0.0
 11
3444.9822139304569646
 21
144.1427342697178915
 31
0.0
  0
ARC
  5
16A8A
  8
0
 10
3445.0117430002678702
 20
144.1427371755667934
 30
0.0
 40
0.0295290699550036
 50
105.7791192756200047
 51
180.0056382702832991
  0
ARC
  5
16A8B
  8
0
 10
3444.6933798962832043
 20
145.3599598533704125
 30
0.0
 40
1.2286444862965109
 50
284.6303445416929208
 51
297.602395029856325
  0
ARC
  5
16A8C
  8
0
 10
3445.1066087310418879
 20
144.5847634187294091
 30
0.0
 40
0.3502854610086716
 50
296.4536202959095021
 51
339.5524091116274121
  0
ARC
  5
16A8D
  8
0
 10
3444.6377935867440101
 20
144.7039949915622117
 30
0.0
 40
0.8328439709892403
 50
343.1363503071797254
 51
4.4106827805143327
  0
ARC
  5
16A8E
  8
0
 10
-22206789.1134242489933968
 20
-789896.1899432353675365
 30
0.0
 40
22224281.4256117083132267
 50
2.0372110515252371
 51
2.0372215320437479
  0
ARC
  5
16A8F
  8
0
 10
3443.4976894802539391
 20
148.7751871952985994
 30
0.0
 40
1.8268118304570731
 50
1.74233695419748
 51
9.8700998903003505
  0
ARC
  5
16A90
  8
0
 10
3443.0389769508219615
 20
148.670359220526791
 30
0.0
 40
2.2968362396911162
 50
10.4849240750824695
 51
50.8338017663629387
  0
ARC
  5
16A91
  8
0
 10
3443.1143021772199972
 20
148.8014734428994075
 30
0.0
 40
2.1477465069109551
 50
50.1826748632906217
 51
75.3891375538973847
  0
ARC
  5
16A92
  8
0
 10
3385.1470640341790386
 20
-137.5703735548798932
 30
0.0
 40
294.3242887094776847
 50
78.533732367703152
 51
78.8730323346639182
  0
ARC
  5
16A93
  8
0
 10
3441.0346795670211577
 20
146.8056497500267028
 30
0.0
 40
4.5087820939623802
 50
78.3274490319212902
 51
87.4163729147294646
  0
ARC
  5
16A94
  8
0
 10
3441.0877457141000377
 20
147.4710267453423
 30
0.0
 40
3.8417583304959471
 50
87.7596740500579244
 51
91.2823153552087092
  0
ARC
  5
16A95
  8
0
 10
3441.023711933415143
 20
149.9443955655657987
 30
0.0
 40
1.367603395946259
 50
90.9192160525513344
 51
94.9772851465562127
  0
ARC
  5
16A96
  8
0
 10
3440.9816092995738472
 20
150.4278382520583079
 30
0.0
 40
0.8823308303715757
 50
94.9772851465562127
 51
105.2444143347828032
  0
ARC
  5
16A97
  8
0
 10
3440.8620342331028041
 20
150.9248300892288057
 30
0.0
 40
0.3717013733098644
 50
107.6050440476341947
 51
143.4726605596023035
  0
ARC
  5
16A98
  8
0
 10
3441.5034303837492189
 20
150.4270453225909137
 30
0.0
 40
1.183535201329869
 50
142.5894522502171071
 51
152.1852516334697896
  0
ARC
  5
16A99
  8
0
 10
3395.9422746077830197
 20
175.3382163682919099
 30
0.0
 40
50.7433298395098831
 50
331.2456419350078249
 51
331.3118715627198867
  0
ARC
  5
16A9A
  8
0
 10
3440.393854850282878
 20
150.9468456727452121
 30
0.0
 40
0.0394645976675391
 50
264.0042182452754105
 51
331.2453121395849962
  0
ARC
  5
16A9B
  8
0
 10
3563.5258603425968431
 20
687.3540842890620297
 30
0.0
 40
550.3974379742412566
 50
256.9570063651611918
 51
257.0722494719124143
  0
ARC
  5
16A9C
  8
0
 10
3439.3198431701489426
 20
151.1947161281659078
 30
0.0
 40
0.0393702090000006
 50
171.4524895403004905
 51
257.0034595241618831
  0
ARC
  5
16A9D
  8
0
 10
3442.1584812734131447
 20
150.7680597336334927
 30
0.0
 40
2.9098931509561239
 50
150.5448425578196066
 51
171.4522485633029021
  0
ARC
  5
16A9E
  8
0
 10
3439.6678988890539586
 20
152.1743297201932137
 30
0.0
 40
0.0497195809924702
 50
102.3427182830279065
 51
150.2822884854512893
  0
ARC
  5
16A9F
  8
0
 10
3440.921879441486908
 20
146.3108648776554048
 30
0.0
 40
6.0457749982032141
 50
85.627531105647563
 51
102.0738502458761019
  0
ARC
  5
16AA0
  8
0
 10
3440.1524506325281436
 20
136.2480353694076882
 30
0.0
 40
16.1379778501140905
 50
82.6630740103667705
 51
85.627531105647563
  0
ARC
  5
16AA1
  8
0
 10
3435.1248861130980004
 20
97.2014364321065614
 30
0.0
 40
55.5069160319786334
 50
81.7148102430414411
 51
82.6630740103667705
  0
ARC
  5
16AA2
  8
0
 10
3445.9112865179640721
 20
171.2735577252547898
 30
0.0
 40
19.3464445242513605
 50
261.7148102430414269
 51
263.0955015944539923
  0
ARC
  5
16AA3
  8
0
 10
3449.5809155969891435
 20
193.8408389762558102
 30
0.0
 40
42.2014600367726231
 50
261.8326334692762885
 51
263.1219671572313246
  0
ARC
  5
16AA4
  8
0
 10
3445.0470508601711117
 20
157.2118914501386087
 30
0.0
 40
5.2944029647018658
 50
264.3632574149618222
 51
269.8024598353767942
  0
ARC
  5
16AA5
  8
0
 10
3445.28409004478317
 20
1091.8384048178691046
 30
0.0
 40
939.9209195358247371
 50
269.984437839499094
 51
270.0051873741488748
  0
LINE
  5
16AA6
  8
0
 10
3445.3691874377482236
 20
151.9174891342659066
 30
0.0
 11
3447.4099103102489607
 21
151.9174891342659066
 31
0.0
  0
ARC
  5
16AA7
  8
0
 10
3447.4099101944480026
 20
151.8682765522659111
 30
0.0
 40
0.0492125973000017
 50
0.0000000000016284
 51
89.9998651666088136
  0
ARC
  5
16AA8
  8
0
 10
-106601.2194375420949655
 20
7650.710509687852209
 30
0.0
 40
110303.8724964502034709
 50
356.0981404867437163
 51
356.1018262604844153
  0
ARC
  5
16AA9
  8
0
 10
3447.8435253618040406
 20
144.6951576160502952
 30
0.0
 40
0.8720843625061068
 50
173.8237331554130947
 51
194.3491145398176059
  0
ARC
  5
16AAA
  8
0
 10
3447.3093288005029535
 20
144.5679568162202031
 30
0.0
 40
0.3231584320161929
 50
195.9728809480039899
 51
244.6361584440280126
  0
ARC
  5
16AAB
  8
0
 10
3447.7479382595761308
 20
145.3608056127845884
 30
0.0
 40
1.228775066062503
 50
241.9913251089660946
 51
255.5073467961767051
  0
ARC
  5
16AAC
  8
0
 10
3447.4314580515529087
 20
144.1420341486148118
 30
0.0
 40
0.0304482315264242
 50
1.2574372678345129
 51
72.8625134611381071
  0
LINE
  5
16AAD
  8
0
 10
3447.4618989507489459
 20
144.1427023246658905
 30
0.0
 11
3447.4618989649488867
 21
143.8978040949658919
 31
0.0
  0
ARC
  5
16AAE
  8
0
 10
3441.1747290467988023
 20
151.4051414576346133
 30
0.0
 40
0.1107277983991852
 50
236.619603596265506
 51
255.2986135352111035
  0
LINE
  5
16AAF
  8
0
 10
3441.1466283965478397
 20
151.2980387088659029
 30
0.0
 11
3441.1481284238220724
 21
151.3123105149043965
 31
0.0
  0
LINE
  5
16AB0
  8
0
 10
3441.1876287472291551
 20
151.3114864117920888
 30
0.0
 11
3441.1857828018492
 21
151.2939234150659047
 31
0.0
  0
ARC
  5
16AB1
  8
0
 10
3441.1806693444718803
 20
151.4039876223336876
 30
0.0
 40
0.110182925936115
 50
272.6599837927042813
 51
301.3077889506993756
  0
LINE
  5
16AB2
  8
0
 10
3447.3725118571301209
 20
151.9174891342659066
 30
0.0
 11
3446.896615042348003
 21
144.7650321796658943
 31
0.0
  0
ARC
  5
16AB3
  8
0
 10
3448.0274109005317769
 20
144.6897933980147002
 30
0.0
 40
1.1332961427399211
 50
176.1933712644299135
 51
190.3425876419005931
  0
ARC
  5
16AB4
  8
0
 10
3447.2252282169038153
 20
144.5433960636910911
 30
0.0
 40
0.3178642097074234
 50
190.3425876419005931
 51
230.5359958548012003
  0
ARC
  5
16AB5
  8
0
 10
3447.4877066574299533
 20
144.894911792275991
 30
0.0
 40
0.7563578932806144
 50
232.1104296298281895
 51
253.1319411499356988
  0
ARC
  5
16AB6
  8
0
 10
3447.2593270016300266
 20
144.1431432104060946
 30
0.0
 40
0.0293377771883207
 50
359.0415644212343977
 51
72.3234088117863365
  0
LINE
  5
16AB7
  8
0
 10
3447.288660674248149
 20
144.1426524751659031
 30
0.0
 11
3447.288660674248149
 21
143.8978040949658919
 31
0.0
  0
ARC
  5
16AB8
  8
0
 10
3446.2208073681040332
 20
150.1905217496978935
 30
0.0
 40
2.940192315289762
 50
89.9756591259524043
 51
96.7860080104878335
  0
ARC
  5
16AB9
  8
0
 10
3445.2033535764348926
 20
145.1587818833357062
 30
0.0
 40
7.9795154392004521
 50
85.1832273644340745
 51
86.9573056845748766
  0
ARC
  5
16ABA
  8
0
 10
3445.6269068688488915
 20
153.0871283082659033
 30
0.0
 40
0.0399199644999975
 50
90.0
 51
179.9714916714034132
  0
LINE
  5
16ABB
  8
0
 10
3445.5869869092898625
 20
153.0871481710101989
 30
0.0
 11
3445.5869818873561599
 21
152.7035860781035979
 31
0.0
  0
ARC
  5
16ABC
  8
0
 10
3445.6270573385609168
 20
152.7036298327784891
 30
0.0
 40
0.0400754750910492
 50
180.0625559321703122
 51
274.5656462009446273
  0
ARC
  5
16ABD
  8
0
 10
3445.6327762743740095
 20
152.229663828351903
 30
0.0
 40
0.4340250648189225
 50
79.0092895571833225
 51
90.3338397990429343
  0
ARC
  5
16ABE
  8
0
 10
3445.6661713359339956
 20
152.3839686575502128
 30
0.0
 40
0.2762042058607918
 50
50.1063346165419432
 51
79.7072057006727732
  0
ARC
  5
16ABF
  8
0
 10
3445.6179785502281447
 20
152.3556003097208134
 30
0.0
 40
0.3294143890406703
 50
8.2648743712141961
 51
46.8379788518521067
  0
ARC
  5
16AC0
  8
0
 10
3445.2303418362098455
 20
152.2718952201767024
 30
0.0
 40
0.7255644789478907
 50
359.4303837290694901
 51
10.4064210318228092
  0
ARC
  5
16AC1
  8
0
 10
3445.7449905722851327
 20
152.2538058662665037
 30
0.0
 40
0.2111601694843895
 50
347.6810887949910125
 51
2.9524174538830108
  0
ARC
  5
16AC2
  8
0
 10
3445.8476596397640606
 20
152.2313848886269909
 30
0.0
 40
0.1060714562208042
 50
324.5713286196381091
 51
347.6810887949910125
  0
ARC
  5
16AC3
  8
0
 10
3445.836597805834117
 20
152.2443254090287894
 30
0.0
 40
0.1226561526704249
 50
283.1919360646314772
 51
322.6408011291683238
  0
ARC
  5
16AC4
  8
0
 10
3445.8002588360541267
 20
152.3814486697934001
 30
0.0
 40
0.2644855011686655
 50
269.1971416328764235
 51
284.0772548640059085
  0
ARC
  5
16AC5
  8
0
 10
3445.7965920847100278
 20
152.0769534980715036
 30
0.0
 40
0.0400356553208521
 50
90.0561517599147834
 51
179.949000364993708
  0
LINE
  5
16AC6
  8
0
 10
3445.7565564452488616
 20
152.0769891342658866
 30
0.0
 11
3445.7565564452488616
 21
151.9574891342658987
 31
0.0
  0
ARC
  5
16AC7
  8
0
 10
3445.7965564452488252
 20
151.9574891342658987
 30
0.0
 40
0.0399999999999956
 50
179.9999999999917861
 51
270.0
  0
ARC
  5
16AC8
  8
0
 10
3446.2151511820111409
 20
150.5368054606221051
 30
0.0
 40
2.55401834739975
 50
89.8450410127633603
 51
101.3702472970528987
  0
ARC
  5
16AC9
  8
0
 10
3445.685312591911952
 20
153.1629678492037954
 30
0.0
 40
0.1250704142858202
 50
265.1890991443585222
 51
282.1474160968559204
  0
ARC
  5
16ACA
  8
0
 10
3445.850650101338033
 20
153.4581858392620859
 30
0.0
 40
0.4551782399327527
 50
234.6020063171162917
 51
247.2766918110810934
  0
LINE
  5
16ACB
  8
0
 10
3445.6748232576492228
 20
153.038338067865908
 30
0.0
 11
3445.674824082349005
 21
152.7035816822659058
 31
0.0
  0
ARC
  5
16ACC
  8
0
 10
3445.7148473668721635
 20
152.7035817808665001
 30
0.0
 40
0.0400232845236637
 50
180.0001411528824065
 51
265.5050132372970211
  0
LINE
  5
16ACD
  8
0
 10
3445.6238595340651045
 20
152.6636816001658872
 30
0.0
 11
3446.8138528388740269
 21
152.6636816001658872
 31
0.0
  0
LINE
  5
16ACE
  8
0
 10
3445.7965528484492097
 20
152.1169891341658911
 30
0.0
 11
3445.8039648236572248
 21
152.1169891341658911
 31
0.0
  0
LINE
  5
16ACF
  8
0
 10
3445.7965528484492097
 20
152.1169891341658911
 30
0.0
 11
3445.8039648236572248
 21
152.1169891341658911
 31
0.0
  0
ARC
  5
16AD0
  8
0
 10
3446.2130775802897915
 20
150.0173850944653111
 30
0.0
 40
3.1133416527329909
 50
83.4035767237299268
 51
89.8347589704379033
  0
ARC
  5
16AD1
  8
0
 10
3447.2407594603619145
 20
145.1587818833357062
 30
0.0
 40
7.9795154392004521
 50
93.0426943154251234
 51
94.8167726355659255
  0
ARC
  5
16AD2
  8
0
 10
3446.8172061679479157
 20
153.0871283082659033
 30
0.0
 40
0.0399199644999975
 50
0.028508328596594
 51
90.0
  0
LINE
  5
16AD3
  8
0
 10
3446.8571261275078541
 20
153.0871481710101989
 30
0.0
 11
3446.8571311494420115
 21
152.7035860781035979
 31
0.0
  0
ARC
  5
16AD4
  8
0
 10
3446.8116833917360964
 20
152.7094546212586863
 30
0.0
 40
0.0458250856969062
 50
272.729529655203919
 51
352.6422682116732972
  0
ARC
  5
16AD5
  8
0
 10
3446.8113367624227976
 20
152.229663828351903
 30
0.0
 40
0.4340250648189225
 50
89.66616020095708
 51
100.9907104428167059
  0
ARC
  5
16AD6
  8
0
 10
3446.7779417008641758
 20
152.3839686575502128
 30
0.0
 40
0.2762042058607918
 50
100.2927942993271984
 51
129.893665383458
  0
ARC
  5
16AD7
  8
0
 10
3446.8261344865700266
 20
152.3556003097208134
 30
0.0
 40
0.3294143890406703
 50
133.1620211481478862
 51
171.735125628785795
  0
ARC
  5
16AD8
  8
0
 10
3447.2137712005869616
 20
152.2718952201767024
 30
0.0
 40
0.7255644789478907
 50
169.5935789681772121
 51
180.5696162709305099
  0
ARC
  5
16AD9
  8
0
 10
3446.6991224645121292
 20
152.2538058662665037
 30
0.0
 40
0.2111601694843895
 50
177.0475825461170132
 51
192.3189112050089875
  0
ARC
  5
16ADA
  8
0
 10
3446.5964533970332013
 20
152.2313848886269909
 30
0.0
 40
0.1060714562208042
 50
192.3189112050089875
 51
215.4286713803604982
  0
ARC
  5
16ADB
  8
0
 10
3446.6075152309640544
 20
152.2443254090287894
 30
0.0
 40
0.1226561526704249
 50
217.3591988708317047
 51
256.8080639353684091
  0
ARC
  5
16ADC
  8
0
 10
3446.6438542007440446
 20
152.3814486697934001
 30
0.0
 40
0.2644855011686655
 50
255.9227451359940915
 51
270.8028583671235197
  0
ARC
  5
16ADD
  8
0
 10
3446.6475209520881435
 20
152.0769534980715036
 30
0.0
 40
0.0400356553208521
 50
0.050999635006242
 51
89.943848240085174
  0
LINE
  5
16ADE
  8
0
 10
3446.6875565915488551
 20
152.0769891342658866
 30
0.0
 11
3446.6875565915488551
 21
151.9574891342658987
 31
0.0
  0
ARC
  5
16ADF
  8
0
 10
3446.6475565915488914
 20
151.9574891342658987
 30
0.0
 40
0.0399999999999956
 50
270.0
 51
0.0000000000081422
  0
ARC
  5
16AE0
  8
0
 10
3446.1595081946588834
 20
149.8294392808805071
 30
0.0
 40
3.2619749636263862
 50
79.883369682212475
 51
88.9012498072891617
  0
ARC
  5
16AE1
  8
0
 10
3446.7588004448848551
 20
153.1629678492037954
 30
0.0
 40
0.1250704142857482
 50
257.8525839031436249
 51
274.8109008556414778
  0
ARC
  5
16AE2
  8
0
 10
3446.5934629354587742
 20
153.4581858392620859
 30
0.0
 40
0.4551782399327575
 50
292.7233081889189066
 51
305.3979936828837936
  0
LINE
  5
16AE3
  8
0
 10
3446.7692897791489486
 20
153.038338067865908
 30
0.0
 11
3446.7692889544478021
 21
152.7035816822659058
 31
0.0
  0
ARC
  5
16AE4
  8
0
 10
3446.7292656699250983
 20
152.7035817808665001
 30
0.0
 40
0.0400232845236637
 50
274.4949867627029789
 51
359.9998588471175935
  0
LINE
  5
16AE5
  8
0
 10
3446.6475601883489617
 20
152.1169891341658911
 30
0.0
 11
3446.6401482131400371
 21
152.1169891341658911
 31
0.0
  0
LINE
  5
16AE6
  8
0
 10
3446.6475601883489617
 20
152.1169891341658911
 30
0.0
 11
3446.6401482131400371
 21
152.1169891341658911
 31
0.0
  0
LINE
  5
16AE7
  8
0
 10
3445.7965528484492097
 20
152.1169891341658911
 30
0.0
 11
3446.6475601883489617
 21
152.1169891341658911
 31
0.0
  0
LINE
  5
16AE9
  8
0
 10
3445.1554517277490959
 20
143.8978040949658919
 30
0.0
 11
3445.155451731849098
 21
144.1426649743659141
 31
0.0
  0
ARC
  5
16AEA
  8
0
 10
3445.1843071105640774
 20
144.1430389702356933
 30
0.0
 40
0.0288578023018397
 50
100.6406802172116954
 51
180.7425716126853104
  0
ARC
  5
16AEB
  8
0
 10
3444.6625257173059254
 20
145.6117399315195939
 30
0.0
 40
1.530131059196854
 50
289.7259697777208203
 51
291.348649644452621
  0
ARC
  5
16AEC
  8
0
 10
3445.029420442619994
 20
144.7483037431611024
 30
0.0
 40
0.5930095613544255
 50
288.7011195378090065
 51
314.5071364801526101
  0
ARC
  5
16AED
  8
0
 10
3445.0689996933951988
 20
144.6154029946557102
 30
0.0
 40
0.4749448363659415
 50
322.3655015459527817
 51
358.6682101930222757
  0
ARC
  5
16AEE
  8
0
 10
3443.9631016627999998
 20
144.7120579096497863
 30
0.0
 40
1.584378887427456
 50
356.1024791461072141
 51
2.061993505397071
  0
ARC
  5
16AEF
  8
0
 10
-5135.5196718733523085
 20
-105.7422652149740969
 30
0.0
 40
8584.7219986523323314
 50
1.6721892426784191
 51
1.701592489056575
  0
ARC
  5
16AF0
  8
0
 10
3442.2059177338551308
 20
149.1928253832508915
 30
0.0
 40
3.210911806901831
 50
359.6407566974405086
 51
23.7015223682439498
  0
ARC
  5
16AF1
  8
0
 10
3443.7140379961870167
 20
149.7064246859704042
 30
0.0
 40
1.6292275604226929
 50
28.4878946312568218
 51
69.6415814503123158
  0
ARC
  5
16AF2
  8
0
 10
3438.4716051723380588
 20
131.0960069579676883
 30
0.0
 40
20.9590348081280204
 50
73.9085921547979723
 51
80.1848038513242045
  0
ARC
  5
16AF3
  8
0
 10
3441.1222781380938613
 20
147.3750790789798941
 30
0.0
 40
4.4693633960536232
 50
78.0917462584622086
 51
93.9924237229952553
  0
ARC
  5
16AF4
  8
0
 10
3440.880887569324841
 20
150.8336971758369884
 30
0.0
 40
1.002331733867966
 50
93.9924237229952553
 51
141.7010666793694895
  0
ARC
  5
16AF5
  8
0
 10
3441.3932268228199973
 20
150.4290915015604071
 30
0.0
 40
1.6551695868827661
 50
141.7010666793694895
 51
158.6549639513380043
  0
ENDSEC
  0
EOF
