  0
SECTION
  2
HEADER
  9
$ACADVER
  1
AC1009
  9
$INSBASE
 10
3435.3841612491000888
 20
162.2701661898321959
 30
0.0
  9
$EXTMIN
 10
3434.1443266249780208
 20
155.3285826988525002
 30
0.0
  9
$EXTMAX
 10
3436.6239958498717897
 20
163.51000871903139
 30
0.0
  9
$LIMMIN
 10
0.0
 20
0.0
  9
$LIMMAX
 10
11.6929133858000007
 20
8.2677165353999982
  9
$ORTHOMODE
 70
     0
  9
$REGENMODE
 70
     1
  9
$FILLMODE
 70
     1
  9
$QTEXTMODE
 70
     0
  9
$MIRRTEXT
 70
     0
  9
$DRAGMODE
 70
     2
  9
$LTSCALE
 40
0.6431102362
  9
$OSMODE
 70
  2039
  9
$ATTMODE
 70
     1
  9
$TEXTSIZE
 40
0.2
  9
$TRACEWID
 40
0.05
  9
$TEXTSTYLE
  7
STANDARD
  9
$CLAYER
  8
0
  9
$CELTYPE
  6
BYLAYER
  9
$CECOLOR
 62
   256
  9
$DIMSCALE
 40
1.0
  9
$DIMASZ
 40
0.1875
  9
$DIMEXO
 40
0.0625
  9
$DIMDLI
 40
0.4443307087
  9
$DIMRND
 40
0.0
  9
$DIMDLE
 40
0.0
  9
$DIMEXE
 40
0.125
  9
$DIMTP
 40
0.01
  9
$DIMTM
 40
0.01
  9
$DIMTXT
 40
2.0
  9
$DIMCEN
 40
0.1052362205
  9
$DIMTSZ
 40
0.0
  9
$DIMTOL
 70
     1
  9
$DIMLIM
 70
     0
  9
$DIMTIH
 70
     1
  9
$DIMTOH
 70
     1
  9
$DIMSE1
 70
     0
  9
$DIMSE2
 70
     0
  9
$DIMTAD
 70
     0
  9
$DIMZIN
 70
     0
  9
$DIMBLK
  1

  9
$DIMASO
 70
     1
  9
$DIMSHO
 70
     1
  9
$DIMPOST
  1
\X
  9
$DIMAPOST
  1

  9
$DIMALT
 70
     1
  9
$DIMALTD
 70
     2
  9
$DIMALTF
 40
25.3999999999999986
  9
$DIMLFAC
 40
1.0
  9
$DIMTOFL
 70
     0
  9
$DIMTVP
 40
0.0
  9
$DIMTIX
 70
     0
  9
$DIMSOXD
 70
     0
  9
$DIMSAH
 70
     0
  9
$DIMBLK1
  1

  9
$DIMBLK2
  1

  9
$DIMSTYLE
  2
STANDARD
  9
$DIMCLRD
 70
     0
  9
$DIMCLRE
 70
     0
  9
$DIMCLRT
 70
     0
  9
$DIMTFAC
 40
1.0
  9
$DIMGAP
 40
0.09
  9
$LUNITS
 70
     2
  9
$LUPREC
 70
     4
  9
$SKETCHINC
 40
0.1
  9
$FILLETRAD
 40
0.0
  9
$AUNITS
 70
     0
  9
$AUPREC
 70
     0
  9
$MENU
  1
.
  9
$ELEVATION
 40
0.0
  9
$PELEVATION
 40
0.0
  9
$THICKNESS
 40
0.0
  9
$LIMCHECK
 70
     0
  9
$BLIPMODE
 70
     0
  9
$CHAMFERA
 40
0.0
  9
$CHAMFERB
 40
0.0
  9
$SKPOLY
 70
     0
  9
$TDCREATE
 40
2458060.468368056230247
  9
$TDUPDATE
 40
2459165.3703472218476236
  9
$TDINDWG
 40
0.5736181713
  9
$TDUSRTIMER
 40
0.5736181713
  9
$USRTIMER
 70
     1
  9
$ANGBASE
 50
0.0
  9
$ANGDIR
 70
     0
  9
$PDMODE
 70
     0
  9
$PDSIZE
 40
0.3125
  9
$PLINEWID
 40
0.0
  9
$COORDS
 70
     1
  9
$SPLFRAME
 70
     0
  9
$SPLINETYPE
 70
     6
  9
$SPLINESEGS
 70
     8
  9
$ATTDIA
 70
     1
  9
$ATTREQ
 70
     1
  9
$HANDLING
 70
     1
  9
$HANDSEED
  5
170E0
  9
$SURFTAB1
 70
     6
  9
$SURFTAB2
 70
     6
  9
$SURFTYPE
 70
     6
  9
$SURFU
 70
     6
  9
$SURFV
 70
     6
  9
$UCSNAME
  2

  9
$UCSORG
 10
0.0
 20
0.0
 30
0.0
  9
$UCSXDIR
 10
1.0
 20
0.0
 30
0.0
  9
$UCSYDIR
 10
0.0
 20
1.0
 30
0.0
  9
$PUCSNAME
  2

  9
$PUCSORG
 10
0.0
 20
0.0
 30
0.0
  9
$PUCSXDIR
 10
1.0
 20
0.0
 30
0.0
  9
$PUCSYDIR
 10
0.0
 20
1.0
 30
0.0
  9
$USERI1
 70
     0
  9
$USERI2
 70
     0
  9
$USERI3
 70
     0
  9
$USERI4
 70
     0
  9
$USERI5
 70
     0
  9
$USERR1
 40
0.0
  9
$USERR2
 40
0.0
  9
$USERR3
 40
0.0
  9
$USERR4
 40
0.0
  9
$USERR5
 40
0.0
  9
$WORLDVIEW
 70
     1
  9
$SHADEDGE
 70
     3
  9
$SHADEDIF
 70
    70
  9
$TILEMODE
 70
     1
  9
$MAXACTVP
 70
    64
  9
$PLIMCHECK
 70
     0
  9
$PEXTMIN
 10
1.0000000000000000E+20
 20
1.0000000000000000E+20
 30
1.0000000000000000E+20
  9
$PEXTMAX
 10
-1.0000000000000000E+20
 20
-1.0000000000000000E+20
 30
-1.0000000000000000E+20
  9
$PLIMMIN
 10
0.0
 20
0.0
  9
$PLIMMAX
 10
12.0
 20
9.0
  9
$UNITMODE
 70
     0
  9
$VISRETAIN
 70
     1
  9
$PLINEGEN
 70
     0
  9
$PSLTSCALE
 70
     1
  0
ENDSEC
  0
SECTION
  2
TABLES
  0
TABLE
  2
VPORT
 70
     1
  0
VPORT
  2
*ACTIVE
 70
     0
 10
0.0
 20
0.0
 11
1.0
 21
1.0
 12
131.6910460030493937
 22
-35.8422158669457716
 13
0.0
 23
0.0
 14
1.0
 24
1.0
 15
0.0
 25
0.0
 16
0.0
 26
0.0
 36
96.5995694866707311
 17
3303.693115234375
 27
195.2615115758877096
 37
0.0
 40
8.2495100092511677
 41
2.6486111111111108
 42
50.0
 43
0.0
 44
0.0
 50
0.0
 51
0.0
 71
     0
 72
   100
 73
     1
 74
     1
 75
     0
 76
     0
 77
     0
 78
     0
  0
ENDTAB
  0
TABLE
  2
LTYPE
 70
     2
  0
LTYPE
  2
CONTINUOUS
 70
     0
  3
Solid line
 72
    65
 73
     0
 40
0.0
  0
LTYPE
  2
PHANTOM2
 70
     0
  3
___ _ _ ___ _ _ ___ _ _ ___ _ _
 72
    65
 73
     6
 40
1.25
 49
0.625
 49
-0.125
 49
0.125
 49
-0.125
 49
0.125
 49
-0.125
  0
ENDTAB
  0
TABLE
  2
LAYER
 70
     2
  0
LAYER
  2
0
 70
     0
 62
   255
  6
CONTINUOUS
  0
LAYER
  2
DEFPOINTS
 70
     0
 62
     7
  6
CONTINUOUS
  0
ENDTAB
  0
TABLE
  2
STYLE
 70
     1
  0
STYLE
  2
STANDARD
 70
     0
 40
0.0
 41
0.8
 50
0.0
 71
     0
 42
0.2
  3
txt
  4

  0
ENDTAB
  0
TABLE
  2
VIEW
 70
     0
  0
ENDTAB
  0
TABLE
  2
UCS
 70
     0
  0
ENDTAB
  0
TABLE
  2
APPID
 70
     9
  0
APPID
  2
ACAD
 70
     0
  0
APPID
  2
ACAD_MLEADERVER
 70
     0
  0
APPID
  2
ACAD_EXEMPT_FROM_CAD_STANDARDS
 70
     0
  0
APPID
  2
ACAD_NAV_VCDISPLAY
 70
     0
  0
APPID
  2
ACAECLAYERSTANDARD
 70
     0
  0
APPID
  2
ACCMTRANSPARENCY
 70
     0
  0
APPID
  2
ACAD_DSTYLE_DIMJAG
 70
     0
  0
APPID
  2
ACAD_DSTYLE_DIMTALN
 70
     0
  0
APPID
  2
ACDBATTR
 70
     0
  0
ENDTAB
  0
TABLE
  2
DIMSTYLE
 70
     1
  0
DIMSTYLE
  2
STANDARD
 70
     0
  3

  4

  5

  6

  7

 40
1.0
 41
0.1875
 42
0.0625
 43
0.38
 44
0.125
 45
0.0
 46
0.0
 47
0.01
 48
0.01
140
0.15625
141
0.09
142
0.0
143
25.3999999999999986
144
1.0
145
0.0
146
1.0
147
0.09
 71
     1
 72
     0
 73
     1
 74
     1
 75
     0
 76
     0
 77
     0
 78
     4
170
     0
171
     2
172
     0
173
     0
174
     0
175
     0
176
     0
177
     0
178
     0
  0
ENDTAB
  0
ENDSEC
  0
SECTION
  2
BLOCKS
  0
BLOCK
  8
0
  2
$MODEL_SPACE
 70
     0
 10
0.0
 20
0.0
 30
0.0
  3
$MODEL_SPACE
  1

  0
ENDBLK
  5
21
  8
0
  0
BLOCK
 67
     1
  8
0
  2
$PAPER_SPACE
 70
     0
 10
0.0
 20
0.0
 30
0.0
  3
$PAPER_SPACE
  1

  0
ENDBLK
  5
1D
 67
     1
  8
0
  0
BLOCK
  8
0
  2
_FILLED
 70
     0
 10
0.0
 20
0.0
 30
0.0
  3
_FILLED
  1

  0
SOLID
  5
9E2C
  8
0
  6
BYBLOCK
 62
     0
 10
0.0
 20
0.0
 30
0.0
 11
-1.0
 21
0.1666666667
 31
0.0
 12
-1.0
 22
-0.1666666667
 32
0.0
 13
-1.0
 23
-0.1666666667
 33
0.0
  0
ENDBLK
  5
9E2D
  8
0
  6
BYBLOCK
 62
     0
  0
BLOCK
  8
0
  2
A$C6B0F1CD5
 70
     2
 10
0.0
 20
0.0
 30
0.0
  3
A$C6B0F1CD5
  1

  0
ATTDEF
  5
B779
  8
DEFPOINTS
 10
0.0005209962714616
 20
0.000347009907216
 30
0.0
 40
0.001
  1
BATH FAUCET
  3

  2
PRODUCT
 70
     0
1001
ACDBATTR
1070
     0
1070
     1
  0
ATTDEF
  5
B77A
  8
DEFPOINTS
 10
0.0005209962714616
 20
0.0020136765738812
 30
0.0
 40
0.001
  1
SINGULIER
  3

  2
TRADENAME
 70
     0
1001
ACDBATTR
1070
     0
1070
     1
  0
ATTDEF
  5
B77B
  8
DEFPOINTS
 10
0.0005209962714616
 20
0.0036803432405463
 30
0.0
 40
0.001
  1
K-10873W
  3

  2
MODELNUMBER
 70
     0
1001
ACDBATTR
1070
     0
1070
     1
  0
ENDBLK
  5
B77F
  8
0
  0
ENDSEC
  0
SECTION
  2
ENTITIES
  0
ATTDEF
  5
16431
  8
DEFPOINTS
 10
3435.3846956910660992
 20
162.2747363307711055
 30
0.0
 40
0.001
  1
K-15538T
  3

  2
MODELNUMBER
 70
     0
1001
ACDBATTR
1070
     0
1070
     1
  0
ATTDEF
  5
16432
  8
DEFPOINTS
 10
3435.3846956910660992
 20
162.2730696641044119
 30
0.0
 40
0.001
  1
MARGAUX
  3

  2
TRADENAME
 70
     0
1001
ACDBATTR
1070
     0
1070
     1
  0
ATTDEF
  5
16433
  8
DEFPOINTS
 10
3435.3846956910660992
 20
162.2714029974378036
 30
0.0
 40
0.001
  1
BATHROOM SINK FAUCET
  3

  2
PRODUCT
 70
     0
1001
ACDBATTR
1070
     0
1070
     1
  0
ARC
  5
16DD5
  8
0
 10
3435.3841612373830685
 20
160.3251662003605134
 30
0.0
 40
3.1848425186709122
 50
89.9999992544592544
 51
108.9846901750837986
  0
ARC
  5
16DD6
  8
0
 10
3434.3640919487997962
 20
163.2902360622983906
 30
0.0
 40
0.049211698615084
 50
108.9846901750586028
 51
161.0161316805518936
  0
ARC
  5
16DD7
  8
0
 10
3437.3293033369459408
 20
162.2701656516998128
 30
0.0
 40
3.1849767119685608
 50
161.0161316805518936
 51
198.9838683194481064
  0
ARC
  5
16DD8
  8
0
 10
3434.3640876413091974
 20
161.2500937592695891
 30
0.0
 40
0.0492071433649829
 50
198.9838683194464863
 51
251.0190389001027995
  0
ARC
  5
16DD9
  8
0
 10
3435.3857241517071088
 20
164.220347534308388
 30
0.0
 40
3.190249748537672
 50
251.0190389001027995
 51
255.6175997918469136
  0
ARC
  5
16DDA
  8
0
 10
3434.6587054811930102
 20
163.3560820726725069
 30
0.0
 40
0.0686823497878062
 50
109.4452555390954984
 51
145.9636109863691047
  0
ARC
  5
16DDB
  8
0
 10
3437.0155188556700523
 20
161.9696122637768951
 30
0.0
 40
2.8029399018430818
 50
149.4451310673651108
 51
154.8335909507237034
  0
ARC
  5
16DDC
  8
0
 10
3436.2708316757511966
 20
162.2870184935300983
 30
0.0
 40
1.9941811581665561
 50
153.9888443988523932
 51
206.523367575313614
  0
ARC
  5
16DDD
  8
0
 10
3432.2210622081579459
 20
160.3340652855933968
 30
0.0
 40
2.5022208951957881
 50
16.9084114211623913
 51
25.12492144332262
  0
ARC
  5
16DDE
  8
0
 10
3431.1811068081701706
 20
159.9156502906421906
 30
0.0
 40
3.6202358776333599
 50
10.2893397222626604
 51
18.4574462455614601
  0
ARC
  5
16DDF
  8
0
 10
3427.0531185119089059
 20
159.7745723468322012
 30
0.0
 40
7.7302442087607801
 50
358.9025930328093068
 51
5.8486624307854571
  0
ARC
  5
16DE0
  8
0
 10
3413.5823911697279982
 20
159.3854418878219121
 30
0.0
 40
21.2009243902463886
 50
356.9423385245930262
 51
0.6515341141256766
  0
ARC
  5
16DE1
  8
0
 10
3459.3599633820231247
 20
157.1010221884833982
 30
0.0
 40
24.6338539260937814
 50
177.3159984507535114
 51
180.9260386552051045
  0
ARC
  5
16DE2
  8
0
 10
3444.6623183481588057
 20
156.8098400692105088
 30
0.0
 40
9.9335671709167652
 50
180.6168498755286009
 51
188.1273852347142963
  0
ARC
  5
16DE3
  8
0
 10
3434.8772753677699257
 20
155.4137000717327055
 30
0.0
 40
0.0494402284947165
 50
189.5613517293288908
 51
261.7530275986587753
  0
ARC
  5
16DE4
  8
0
 10
3435.3845276546480818
 20
159.0018477835486124
 30
0.0
 40
3.6732651029715888
 50
261.9507848761920172
 51
269.9942846051495167
  0
ARC
  5
16DE5
  8
0
 10
3435.3841657618340832
 20
161.2916978309083049
 30
0.0
 40
1.6135367779248251
 50
90.000160659184175
 51
108.9916677057426995
  0
ARC
  5
16DE6
  8
0
 10
3434.8739726796911782
 20
162.7803636801610878
 30
0.0
 40
0.039924595100947
 50
111.915237473037493
 51
158.1067169630464093
  0
ARC
  5
16DE7
  8
0
 10
3436.3549241869359321
 20
162.2714351877422985
 30
0.0
 40
1.605832125939934
 50
160.9619680950158909
 51
180.0453552153240082
  0
ARC
  5
16DE8
  8
0
 10
3436.169613014567858
 20
162.2378970783227032
 30
0.0
 40
1.42088664389869
 50
178.6987574175012128
 51
200.2939762210885135
  0
ARC
  5
16DE9
  8
0
 10
3434.8739532021718333
 20
161.7599570201601011
 30
0.0
 40
0.0399025472738299
 50
201.9488655008692035
 51
248.1054439114942056
  0
ARC
  5
16DEA
  8
0
 10
3435.2244979599358885
 20
162.6322039629936
 30
0.0
 40
0.9799537993224133
 50
248.1054439114942056
 51
249.4454044287903116
  0
ARC
  5
16DEB
  8
0
 10
3435.390245830351887
 20
163.308505691901189
 30
0.0
 40
1.6734189630740011
 50
252.2633504615874074
 51
269.7916706356942882
  0
LINE
  5
16DEC
  8
0
 10
3435.3841612443247868
 20
162.2701661946321963
 30
0.0
 11
3434.8734074863541537
 21
162.7835772014929034
 31
0.0
  0
LINE
  5
16DED
  8
0
 10
3435.3841612491000888
 20
162.2701661898321959
 30
0.0
 11
3434.8471689431858067
 21
161.7303797559696079
 31
0.0
  0
LINE
  5
16DEE
  8
0
 10
3434.3292937734240695
 20
163.3250337385296973
 30
0.0
 11
3434.4823200972009545
 21
163.1695005021587974
 31
0.0
  0
LINE
  5
16DEF
  8
0
 10
3434.3292936671059579
 20
161.2152986296543133
 30
0.0
 11
3434.4946663045247988
 21
161.3791541900322102
 31
0.0
  0
ARC
  5
16DF0
  8
0
 10
3435.3841612374658325
 20
160.3251662003605134
 30
0.0
 40
3.1848425186709122
 50
71.0153098249162014
 51
90.0000007455407456
  0
ARC
  5
16DF1
  8
0
 10
3436.4042305260500143
 20
163.2902360622983906
 30
0.0
 40
0.049211698615084
 50
18.9838683194480993
 51
71.0153098249413688
  0
ARC
  5
16DF2
  8
0
 10
3433.4390191379029602
 20
162.2701656516998128
 30
0.0
 40
3.1849767119685608
 50
341.0161316805518936
 51
18.9838683194480993
  0
ARC
  5
16DF3
  8
0
 10
3436.4042348335410679
 20
161.2500937592695891
 30
0.0
 40
0.0492071433649829
 50
288.9809610998971721
 51
341.0161316805518936
  0
ARC
  5
16DF4
  8
0
 10
3435.3825983231431564
 20
164.220347534308388
 30
0.0
 40
3.190249748537672
 50
284.3824002081531148
 51
288.9809610998971721
  0
ARC
  5
16DF5
  8
0
 10
3436.1096169936568003
 20
163.3560820726725069
 30
0.0
 40
0.0686823497878062
 50
34.0363890136309166
 51
70.5547444609045158
  0
ARC
  5
16DF6
  8
0
 10
3433.7528036191788487
 20
161.9696122637768951
 30
0.0
 40
2.8029399018430818
 50
25.1664090492762895
 51
30.5548689326348892
  0
ARC
  5
16DF7
  8
0
 10
3434.4974907990981592
 20
162.2870184935300983
 30
0.0
 40
1.9941811581665561
 50
333.4766324246864997
 51
26.0111556011475784
  0
ARC
  5
16DF8
  8
0
 10
3438.5472602666918647
 20
160.3340652855933968
 30
0.0
 40
2.5022208951957881
 50
154.8750785566788011
 51
163.0915885788359958
  0
ARC
  5
16DF9
  8
0
 10
3439.5872156666800947
 20
159.9156502906421906
 30
0.0
 40
3.6202358776333599
 50
161.5425537544385008
 51
169.7106602777373041
  0
ARC
  5
16DFA
  8
0
 10
3443.7152039629399951
 20
159.7745723468322012
 30
0.0
 40
7.7302442087607801
 50
174.1513375692144905
 51
181.0974069671906932
  0
ARC
  5
16DFB
  8
0
 10
3457.1859313051209028
 20
159.3854418878219121
 30
0.0
 40
21.2009243902463886
 50
179.3484658858743046
 51
183.0576614754070022
  0
ARC
  5
16DFC
  8
0
 10
3411.4083590928257763
 20
157.1010221884833982
 30
0.0
 40
24.6338539260937814
 50
359.0739613447948955
 51
2.6840015492464762
  0
ARC
  5
16DFD
  8
0
 10
3426.1060041266910048
 20
156.8098400692105088
 30
0.0
 40
9.9335671709167652
 50
351.8726147652840837
 51
359.3831501244713991
  0
ARC
  5
16DFE
  8
0
 10
3435.8910471070789754
 20
155.4137000717327055
 30
0.0
 40
0.0494402284947165
 50
278.2469724013412247
 51
350.438648270671024
  0
ARC
  5
16DFF
  8
0
 10
3435.3837948202008192
 20
159.001847783548186
 30
0.0
 40
3.6732651029711949
 50
270.0057153948504833
 51
278.0492151238079828
  0
ARC
  5
16E00
  8
0
 10
3435.384156713016182
 20
161.2916978309083049
 30
0.0
 40
1.6135367779248251
 50
71.0083322942572437
 51
89.999839340815825
  0
ARC
  5
16E01
  8
0
 10
3435.8943497951590871
 20
162.7803636801610878
 30
0.0
 40
0.039924595100947
 50
21.8932830369536013
 51
68.0847625269624501
  0
ARC
  5
16E02
  8
0
 10
3434.4133982879138784
 20
162.2714351877422985
 30
0.0
 40
1.605832125939934
 50
359.9546447846760202
 51
19.0380319049840487
  0
ARC
  5
16E03
  8
0
 10
3434.5987094602819525
 20
162.2378970783227032
 30
0.0
 40
1.42088664389869
 50
339.7060237789115149
 51
1.301242582498833
  0
ARC
  5
16E04
  8
0
 10
3435.8943692726779773
 20
161.7599570201601011
 30
0.0
 40
0.0399025472738299
 50
291.8945560885059081
 51
338.0511344991309102
  0
ARC
  5
16E05
  8
0
 10
3435.543824514913922
 20
162.6322039629936
 30
0.0
 40
0.9799537993224133
 50
290.5545955712096884
 51
291.8945560885059081
  0
ARC
  5
16E06
  8
0
 10
3435.3780766444970141
 20
163.308505691901189
 30
0.0
 40
1.6734189630740011
 50
270.2083293643057118
 51
287.736649538412621
  0
LINE
  5
16E07
  8
0
 10
3435.3841612305250237
 20
162.2701661946321963
 30
0.0
 11
3435.9211539679258749
 21
162.8099526919091886
 31
0.0
  0
LINE
  5
16E08
  8
0
 10
3435.3841612257488123
 20
162.2701661898321959
 30
0.0
 11
3435.9211535316640038
 21
161.7303797559696079
 31
0.0
  0
LINE
  5
16E09
  8
0
 10
3436.4390287014248315
 20
163.3250337385296973
 30
0.0
 11
3436.2860023776488561
 21
163.1695005021587974
 31
0.0
  0
LINE
  5
16E0A
  8
0
 10
3436.4390288077438527
 20
161.2152986296543133
 30
0.0
 11
3436.2736561703250118
 21
161.3791541900322102
 31
0.0
  0
ENDSEC
  0
EOF
