  0
SECTION
  2
HEADER
  9
$ACADVER
  1
AC1009
  9
$INSBASE
 10
3435.382706801256063
 20
143.8925892381419942
 30
0.0
  9
$EXTMIN
 10
3434.1428641064721887
 20
143.8925892381419942
 30
0.0
  9
$EXTMAX
 10
3436.622549145872199
 20
153.1254997595393945
 30
0.0
  9
$LIMMIN
 10
0.0
 20
0.0
  9
$LIMMAX
 10
11.6929133858000007
 20
8.2677165353999982
  9
$ORTHOMODE
 70
     0
  9
$REGENMODE
 70
     1
  9
$FILLMODE
 70
     1
  9
$QTEXTMODE
 70
     0
  9
$MIRRTEXT
 70
     0
  9
$DRAGMODE
 70
     2
  9
$LTSCALE
 40
0.6431102362
  9
$OSMODE
 70
  2039
  9
$ATTMODE
 70
     1
  9
$TEXTSIZE
 40
0.2
  9
$TRACEWID
 40
0.05
  9
$TEXTSTYLE
  7
STANDARD
  9
$CLAYER
  8
0
  9
$CELTYPE
  6
BYLAYER
  9
$CECOLOR
 62
   256
  9
$DIMSCALE
 40
1.0
  9
$DIMASZ
 40
0.1875
  9
$DIMEXO
 40
0.0625
  9
$DIMDLI
 40
0.4443307087
  9
$DIMRND
 40
0.0
  9
$DIMDLE
 40
0.0
  9
$DIMEXE
 40
0.125
  9
$DIMTP
 40
0.01
  9
$DIMTM
 40
0.01
  9
$DIMTXT
 40
2.0
  9
$DIMCEN
 40
0.1052362205
  9
$DIMTSZ
 40
0.0
  9
$DIMTOL
 70
     1
  9
$DIMLIM
 70
     0
  9
$DIMTIH
 70
     1
  9
$DIMTOH
 70
     1
  9
$DIMSE1
 70
     0
  9
$DIMSE2
 70
     0
  9
$DIMTAD
 70
     0
  9
$DIMZIN
 70
     0
  9
$DIMBLK
  1

  9
$DIMASO
 70
     1
  9
$DIMSHO
 70
     1
  9
$DIMPOST
  1
\X
  9
$DIMAPOST
  1

  9
$DIMALT
 70
     1
  9
$DIMALTD
 70
     2
  9
$DIMALTF
 40
25.3999999999999986
  9
$DIMLFAC
 40
1.0
  9
$DIMTOFL
 70
     0
  9
$DIMTVP
 40
0.0
  9
$DIMTIX
 70
     0
  9
$DIMSOXD
 70
     0
  9
$DIMSAH
 70
     0
  9
$DIMBLK1
  1

  9
$DIMBLK2
  1

  9
$DIMSTYLE
  2
STANDARD
  9
$DIMCLRD
 70
     0
  9
$DIMCLRE
 70
     0
  9
$DIMCLRT
 70
     0
  9
$DIMTFAC
 40
1.0
  9
$DIMGAP
 40
0.09
  9
$LUNITS
 70
     2
  9
$LUPREC
 70
     4
  9
$SKETCHINC
 40
0.1
  9
$FILLETRAD
 40
0.0
  9
$AUNITS
 70
     0
  9
$AUPREC
 70
     0
  9
$MENU
  1
.
  9
$ELEVATION
 40
0.0
  9
$PELEVATION
 40
0.0
  9
$THICKNESS
 40
0.0
  9
$LIMCHECK
 70
     0
  9
$BLIPMODE
 70
     0
  9
$CHAMFERA
 40
0.0
  9
$CHAMFERB
 40
0.0
  9
$SKPOLY
 70
     0
  9
$TDCREATE
 40
2458060.468368056230247
  9
$TDUPDATE
 40
2459165.3698148149996996
  9
$TDINDWG
 40
0.5748681713
  9
$TDUSRTIMER
 40
0.5748681713
  9
$USRTIMER
 70
     1
  9
$ANGBASE
 50
0.0
  9
$ANGDIR
 70
     0
  9
$PDMODE
 70
     0
  9
$PDSIZE
 40
0.3125
  9
$PLINEWID
 40
0.0
  9
$COORDS
 70
     1
  9
$SPLFRAME
 70
     0
  9
$SPLINETYPE
 70
     6
  9
$SPLINESEGS
 70
     8
  9
$ATTDIA
 70
     1
  9
$ATTREQ
 70
     1
  9
$HANDLING
 70
     1
  9
$HANDSEED
  5
1732C
  9
$SURFTAB1
 70
     6
  9
$SURFTAB2
 70
     6
  9
$SURFTYPE
 70
     6
  9
$SURFU
 70
     6
  9
$SURFV
 70
     6
  9
$UCSNAME
  2

  9
$UCSORG
 10
0.0
 20
0.0
 30
0.0
  9
$UCSXDIR
 10
1.0
 20
0.0
 30
0.0
  9
$UCSYDIR
 10
0.0
 20
1.0
 30
0.0
  9
$PUCSNAME
  2

  9
$PUCSORG
 10
0.0
 20
0.0
 30
0.0
  9
$PUCSXDIR
 10
1.0
 20
0.0
 30
0.0
  9
$PUCSYDIR
 10
0.0
 20
1.0
 30
0.0
  9
$USERI1
 70
     0
  9
$USERI2
 70
     0
  9
$USERI3
 70
     0
  9
$USERI4
 70
     0
  9
$USERI5
 70
     0
  9
$USERR1
 40
0.0
  9
$USERR2
 40
0.0
  9
$USERR3
 40
0.0
  9
$USERR4
 40
0.0
  9
$USERR5
 40
0.0
  9
$WORLDVIEW
 70
     1
  9
$SHADEDGE
 70
     3
  9
$SHADEDIF
 70
    70
  9
$TILEMODE
 70
     1
  9
$MAXACTVP
 70
    64
  9
$PLIMCHECK
 70
     0
  9
$PEXTMIN
 10
1.0000000000000000E+20
 20
1.0000000000000000E+20
 30
1.0000000000000000E+20
  9
$PEXTMAX
 10
-1.0000000000000000E+20
 20
-1.0000000000000000E+20
 30
-1.0000000000000000E+20
  9
$PLIMMIN
 10
0.0
 20
0.0
  9
$PLIMMAX
 10
12.0
 20
9.0
  9
$UNITMODE
 70
     0
  9
$VISRETAIN
 70
     1
  9
$PLINEGEN
 70
     0
  9
$PSLTSCALE
 70
     1
  0
ENDSEC
  0
SECTION
  2
TABLES
  0
TABLE
  2
VPORT
 70
     1
  0
VPORT
  2
*ACTIVE
 70
     0
 10
0.0
 20
0.0
 11
1.0
 21
1.0
 12
131.6895913917967107
 22
-46.7524670770470081
 13
0.0
 23
0.0
 14
1.0
 24
1.0
 15
0.0
 25
0.0
 16
0.0
 26
0.0
 36
96.5995694866707311
 17
3303.693115234375
 27
195.2615115758877096
 37
0.0
 40
9.3097447282328272
 41
2.6486111111111108
 42
50.0
 43
0.0
 44
0.0
 50
0.0
 51
0.0
 71
     0
 72
   100
 73
     1
 74
     1
 75
     0
 76
     0
 77
     0
 78
     0
  0
ENDTAB
  0
TABLE
  2
LTYPE
 70
     2
  0
LTYPE
  2
CONTINUOUS
 70
     0
  3
Solid line
 72
    65
 73
     0
 40
0.0
  0
LTYPE
  2
PHANTOM2
 70
     0
  3
___ _ _ ___ _ _ ___ _ _ ___ _ _
 72
    65
 73
     6
 40
1.25
 49
0.625
 49
-0.125
 49
0.125
 49
-0.125
 49
0.125
 49
-0.125
  0
ENDTAB
  0
TABLE
  2
LAYER
 70
     2
  0
LAYER
  2
0
 70
     0
 62
   255
  6
CONTINUOUS
  0
LAYER
  2
DEFPOINTS
 70
     0
 62
     7
  6
CONTINUOUS
  0
ENDTAB
  0
TABLE
  2
STYLE
 70
     1
  0
STYLE
  2
STANDARD
 70
     0
 40
0.0
 41
0.8
 50
0.0
 71
     0
 42
0.2
  3
txt
  4

  0
ENDTAB
  0
TABLE
  2
VIEW
 70
     0
  0
ENDTAB
  0
TABLE
  2
UCS
 70
     0
  0
ENDTAB
  0
TABLE
  2
APPID
 70
     9
  0
APPID
  2
ACAD
 70
     0
  0
APPID
  2
ACAD_MLEADERVER
 70
     0
  0
APPID
  2
ACAD_EXEMPT_FROM_CAD_STANDARDS
 70
     0
  0
APPID
  2
ACAD_NAV_VCDISPLAY
 70
     0
  0
APPID
  2
ACAECLAYERSTANDARD
 70
     0
  0
APPID
  2
ACCMTRANSPARENCY
 70
     0
  0
APPID
  2
ACAD_DSTYLE_DIMJAG
 70
     0
  0
APPID
  2
ACAD_DSTYLE_DIMTALN
 70
     0
  0
APPID
  2
ACDBATTR
 70
     0
  0
ENDTAB
  0
TABLE
  2
DIMSTYLE
 70
     1
  0
DIMSTYLE
  2
STANDARD
 70
     0
  3

  4

  5

  6

  7

 40
1.0
 41
0.1875
 42
0.0625
 43
0.38
 44
0.125
 45
0.0
 46
0.0
 47
0.01
 48
0.01
140
0.15625
141
0.09
142
0.0
143
25.3999999999999986
144
1.0
145
0.0
146
1.0
147
0.09
 71
     1
 72
     0
 73
     1
 74
     1
 75
     0
 76
     0
 77
     0
 78
     4
170
     0
171
     2
172
     0
173
     0
174
     0
175
     0
176
     0
177
     0
178
     0
  0
ENDTAB
  0
ENDSEC
  0
SECTION
  2
BLOCKS
  0
BLOCK
  8
0
  2
$MODEL_SPACE
 70
     0
 10
0.0
 20
0.0
 30
0.0
  3
$MODEL_SPACE
  1

  0
ENDBLK
  5
21
  8
0
  0
BLOCK
 67
     1
  8
0
  2
$PAPER_SPACE
 70
     0
 10
0.0
 20
0.0
 30
0.0
  3
$PAPER_SPACE
  1

  0
ENDBLK
  5
1D
 67
     1
  8
0
  0
BLOCK
  8
0
  2
_FILLED
 70
     0
 10
0.0
 20
0.0
 30
0.0
  3
_FILLED
  1

  0
SOLID
  5
9E2C
  8
0
  6
BYBLOCK
 62
     0
 10
0.0
 20
0.0
 30
0.0
 11
-1.0
 21
0.1666666667
 31
0.0
 12
-1.0
 22
-0.1666666667
 32
0.0
 13
-1.0
 23
-0.1666666667
 33
0.0
  0
ENDBLK
  5
9E2D
  8
0
  6
BYBLOCK
 62
     0
  0
BLOCK
  8
0
  2
A$C6B0F1CD5
 70
     2
 10
0.0
 20
0.0
 30
0.0
  3
A$C6B0F1CD5
  1

  0
ATTDEF
  5
B779
  8
DEFPOINTS
 10
0.0005209962714616
 20
0.000347009907216
 30
0.0
 40
0.001
  1
BATH FAUCET
  3

  2
PRODUCT
 70
     0
1001
ACDBATTR
1070
     0
1070
     1
  0
ATTDEF
  5
B77A
  8
DEFPOINTS
 10
0.0005209962714616
 20
0.0020136765738812
 30
0.0
 40
0.001
  1
SINGULIER
  3

  2
TRADENAME
 70
     0
1001
ACDBATTR
1070
     0
1070
     1
  0
ATTDEF
  5
B77B
  8
DEFPOINTS
 10
0.0005209962714616
 20
0.0036803432405463
 30
0.0
 40
0.001
  1
K-10873W
  3

  2
MODELNUMBER
 70
     0
1001
ACDBATTR
1070
     0
1070
     1
  0
ENDBLK
  5
B77F
  8
0
  0
ENDSEC
  0
SECTION
  2
ENTITIES
  0
ATTDEF
  5
1642E
  8
DEFPOINTS
 10
3435.3829843424809951
 20
143.8964070595104943
 30
0.0
 40
0.001
  1
K-15539T
  3

  2
MODELNUMBER
 70
     0
1001
ACDBATTR
1070
     0
1070
     1
  0
ATTDEF
  5
1642F
  8
DEFPOINTS
 10
3435.3829843424809951
 20
143.8947403928438007
 30
0.0
 40
0.001
  1
MARGAUX
  3

  2
TRADENAME
 70
     0
1001
ACDBATTR
1070
     0
1070
     1
  0
ATTDEF
  5
16430
  8
DEFPOINTS
 10
3435.3829843424809951
 20
143.8930737261771924
 30
0.0
 40
0.001
  1
BATHROOM SINK FAUCET
  3

  2
PRODUCT
 70
     0
1001
ACDBATTR
1070
     0
1070
     1
  0
LINE
  5
16EA2
  8
0
 10
3436.622549145872199
 20
143.8925892381419942
 30
0.0
 11
3434.1428641064721887
 21
143.8925892381419942
 31
0.0
  0
LINE
  5
16EA3
  8
0
 10
3434.1428641064721887
 20
143.8925892381419942
 30
0.0
 11
3434.1428642047681024
 21
144.1374896023419865
 31
0.0
  0
ARC
  5
16EA4
  8
0
 10
3434.1724248652208189
 20
144.1374895904772018
 30
0.0
 40
0.0295606604531917
 50
105.7625160398138036
 51
179.9999770030730986
  0
ARC
  5
16EA5
  8
0
 10
3433.8902268021629425
 20
145.2510268353238985
 30
0.0
 40
1.1191891719760509
 50
284.1800670521952838
 51
300.2229583482099997
  0
ARC
  5
16EA6
  8
0
 10
3434.2729119999548857
 20
144.582335037770207
 30
0.0
 40
0.3488101181588189
 50
301.1968819484317237
 51
352.8099604988823899
  0
ARC
  5
16EA7
  8
0
 10
3433.5508451331597826
 20
144.7001915837755064
 30
0.0
 40
1.080276449458986
 50
351.4013745396866852
 51
3.799001792919372
  0
ARC
  5
16EA8
  8
0
 10
-10621.2342603911292827
 20
-553.4708409043356596
 30
0.0
 40
14073.1953601397999591
 50
2.8439018526655451
 51
2.8727983554759899
  0
ARC
  5
16EA9
  8
0
 10
3434.3241781689030176
 20
151.8628542742152945
 30
0.0
 40
0.0494204854232019
 50
90.2531025372276048
 51
182.6151433558669908
  0
LINE
  5
16EAA
  8
0
 10
3434.3239598559721344
 20
151.912274277442009
 30
0.0
 11
3434.6605028253720775
 21
151.9122741647420867
 31
0.0
  0
ARC
  5
16EAB
  8
0
 10
3434.6434536538818065
 20
152.9040443240191109
 30
0.0
 40
0.9919166916030823
 50
270.9848545584729891
 51
272.3627044924447773
  0
ARC
  5
16EAC
  8
0
 10
3434.672455377291044
 20
152.2011488237181993
 30
0.0
 40
0.288423134913421
 50
272.3627044924447773
 51
278.7848298769523012
  0
ARC
  5
16EAD
  8
0
 10
3434.6927407630969356
 20
152.0932521713760934
 30
0.0
 40
0.1787298026300887
 50
277.6406362467566282
 51
281.9456456717171022
  0
LINE
  5
16EAE
  8
0
 10
3434.1643946914718981
 20
144.1659386494420119
 30
0.0
 11
3436.6010185605191509
 21
144.1659386494420119
 31
0.0
  0
LINE
  5
16EAF
  8
0
 10
3434.3161019124718223
 20
143.8925892381419942
 30
0.0
 11
3434.3161019556719111
 21
144.1374896022421126
 31
0.0
  0
ARC
  5
16EB0
  8
0
 10
3434.3452186441800222
 20
144.1374895971059118
 30
0.0
 40
0.0291166885076701
 50
102.2933411098232028
 51
179.9999898931241944
  0
ARC
  5
16EB1
  8
0
 10
3434.2318764749679758
 20
144.6576141389743952
 30
0.0
 40
0.5032140229637024
 50
282.2933411098233023
 51
322.5531575889282863
  0
ARC
  5
16EB2
  8
0
 10
3433.0362850000660728
 20
144.7036204931511065
 30
0.0
 40
1.672421538180269
 50
356.9760187652864829
 51
2.131959537853481
  0
ARC
  5
16EB3
  8
0
 10
3433.9513599594401967
 20
144.6552793802499934
 30
0.0
 40
0.7560705985996496
 50
344.5379921007763073
 51
356.9760187652864829
  0
ARC
  5
16EB4
  8
0
 10
3434.3673917482137767
 20
144.5402005814140978
 30
0.0
 40
0.3244161312162608
 50
324.4644578721296853
 51
344.5379921007763073
  0
ARC
  5
16EB5
  8
0
 10
9101.6805859294036054
 20
330.9734646522417165
 30
0.0
 40
5670.0314527982172876
 50
181.8437558632739979
 51
181.8819701417166073
  0
ARC
  5
16EB6
  8
0
 10
3470.8562283225219289
 20
149.9494232803751004
 30
0.0
 40
36.2987701726784735
 50
180.6425862858041
 51
182.2164958728210138
  0
ARC
  5
16EB7
  8
0
 10
10919996.3637218307703733
 20
351488.7304228487773798
 30
0.0
 40
10922214.0999534390866756
 50
181.8433618635125129
 51
181.8433740347215064
  0
ARC
  5
16EB8
  8
0
 10
3434.5323374214758587
 20
151.8649767235577031
 30
0.0
 40
0.0473723233642893
 50
93.2194144183581841
 51
184.436965859773693
  0
ARC
  5
16EB9
  8
0
 10
3434.4691239536468856
 20
146.3894320612523074
 30
0.0
 40
6.7436338450020772
 50
84.7629666067564784
 51
87.2774505689571782
  0
ARC
  5
16EBA
  8
0
 10
3435.382706626171057
 20
150.4807360513252092
 30
0.0
 40
2.6410509647697711
 50
83.5202279229852564
 51
96.4797720770147436
  0
ARC
  5
16EBB
  8
0
 10
3434.787535161201049
 20
153.0856027680592888
 30
0.0
 40
0.0398969914801326
 50
87.25815116251718
 51
180.0044070977207014
  0
LINE
  5
16EBC
  8
0
 10
3434.7476381698379555
 20
153.0855996992478936
 30
0.0
 11
3434.7476319805509775
 21
152.6983709863067986
 31
0.0
  0
ARC
  5
16EBD
  8
0
 10
3434.7875501250719026
 20
152.6983841770419872
 30
0.0
 40
0.0399181466999998
 50
180.0189330801310064
 51
266.3408700206464914
  0
ARC
  5
16EBE
  8
0
 10
3434.7294831482417976
 20
148.9477503501813089
 30
0.0
 40
3.7112123630041882
 50
88.7361024942540695
 51
89.1428286401476271
  0
ARC
  5
16EBF
  8
0
 10
3434.797820306651829
 20
152.2614125587869012
 30
0.0
 40
0.3968776767220898
 50
76.9690762098040295
 51
88.047431444846751
  0
ARC
  5
16EC0
  8
0
 10
3434.8344092180841471
 20
152.391774504849991
 30
0.0
 40
0.2616975073145006
 50
19.9715960354123006
 51
78.3382501387261811
  0
ARC
  5
16EC1
  8
0
 10
3434.6201004009708413
 20
152.3009782784745028
 30
0.0
 40
0.4942791258201382
 50
5.2055886891349079
 51
21.3787299237688018
  0
ARC
  5
16EC2
  8
0
 10
3435.3900431715378545
 20
144.8150585509222026
 30
0.0
 40
7.535884027707934
 50
90.0557802044972249
 51
92.1118652401881235
  0
ARC
  5
16EC3
  8
0
 10
3435.3785939292502007
 20
145.1255405589176064
 30
0.0
 40
7.2251909919993764
 50
92.1118652401881235
 51
94.8357299130922087
  0
ARC
  5
16EC4
  8
0
 10
3434.7740965085649805
 20
152.2754190507623946
 30
0.0
 40
0.0498054116400408
 50
95.277086420569276
 51
180.3559363873247889
  0
ARC
  5
16EC5
  8
0
 10
3229.6707265795148487
 20
148.967962031594908
 30
0.0
 40
205.0802329352777917
 50
0.8243264814677608
 51
0.9239984351333373
  0
ARC
  5
16EC6
  8
0
 10
3399.3204562373389308
 20
149.8005802988782875
 30
0.0
 40
35.4725548333875977
 50
2.0117138382234621
 51
3.422756670771502
  0
ARC
  5
16EC7
  8
0
 10
3434.8674956431000282
 20
151.0494959802055916
 30
0.0
 40
0.0964181074376471
 50
182.1954487198802042
 51
242.078423312238499
  0
ARC
  5
16EC8
  8
0
 10
3435.0439654301180781
 20
151.4260831583206084
 30
0.0
 40
0.5122077237231605
 50
244.362643923480988
 51
262.5097304102501994
  0
ARC
  5
16EC9
  8
0
 10
3435.0168832451381604
 20
151.0090101882171894
 30
0.0
 40
0.0576211514153033
 50
117.5839620762147035
 51
147.5288705505610949
  0
ARC
  5
16ECA
  8
0
 10
3435.1257140315051402
 20
150.8171020682119945
 30
0.0
 40
0.2782133292118715
 50
104.257478906190201
 51
119.1488371226685956
  0
ARC
  5
16ECB
  8
0
 10
3435.305537055376135
 20
150.1203205987218894
 30
0.0
 40
0.9978234541891483
 50
94.4101838894115417
 51
104.4114269269735047
  0
ARC
  5
16ECC
  8
0
 10
3435.3806052110321616
 20
149.3746339308939923
 30
0.0
 40
1.747162376096361
 50
89.931086973259994
 51
94.9842583224419457
  0
ARC
  5
16ECD
  8
0
 10
3435.0336855691512028
 20
151.065724332262306
 30
0.0
 40
0.0828466018142782
 50
221.0262238515267939
 51
227.0099212943542
  0
ARC
  5
16ECE
  8
0
 10
3434.9909812223781955
 20
151.028567681131392
 30
0.0
 40
0.0262402597973459
 50
181.7296828627237062
 51
221.0262238515267939
  0
ARC
  5
16ECF
  8
0
 10
3434.9898012898352135
 20
151.0271290221988068
 30
0.0
 40
0.0250567158978688
 50
149.2362400679704137
 51
178.521244181583512
  0
ARC
  5
16ED0
  8
0
 10
3435.3961077375229252
 20
130.981382868112803
 30
0.0
 40
20.213974122621881
 50
90.0379844280256947
 51
91.495433607998649
  0
ARC
  5
16ED1
  8
0
 10
3434.8716407321708175
 20
151.0711561007551893
 30
0.0
 40
0.1173561439993002
 50
91.495433607998649
 51
112.3302380129228055
  0
ARC
  5
16ED2
  8
0
 10
3435.0959399230418967
 20
150.9882631750095072
 30
0.0
 40
0.3300806972010314
 50
144.5491058673040072
 51
169.7699072870022974
  0
ARC
  5
16ED3
  8
0
 10
3434.1989931608768529
 20
152.0437164420415002
 30
0.0
 40
0.5741008485165979
 50
17.468765813773139
 51
23.7953345246140202
  0
ARC
  5
16ED4
  8
0
 10
3435.6737166377788526
 20
152.5927407006053045
 30
0.0
 40
1.0007033785869941
 50
202.1122619373676912
 51
207.1742864586603901
  0
ARC
  5
16ED5
  8
0
 10
3418.1779507135429412
 20
150.899712015735588
 30
0.0
 40
16.6514555187176896
 50
0.9634924833224927
 51
4.256881808117436
  0
ARC
  5
16ED6
  8
0
 10
3435.383655778909997
 20
147.6660858800156859
 30
0.0
 40
4.5276767304404721
 50
90.0120127475568097
 51
97.0830240526778141
  0
ARC
  5
16ED7
  8
0
 10
3434.8331968697589218
 20
152.096134991055095
 30
0.0
 40
0.0635597811565552
 50
97.0830240526778141
 51
141.4782729318592942
  0
LINE
  5
16ED8
  8
0
 10
3436.622549145872199
 20
143.8925892381419942
 30
0.0
 11
3436.6225490475758306
 21
144.1374896023419865
 31
0.0
  0
ARC
  5
16ED9
  8
0
 10
3436.5929883871222046
 20
144.1374895904772018
 30
0.0
 40
0.0295606604531917
 50
0.0000229969268355
 51
74.2374839601862107
  0
ARC
  5
16EDA
  8
0
 10
3436.875186450180081
 20
145.2510268353238985
 30
0.0
 40
1.1191891719760509
 50
239.7770416517900003
 51
255.8199329478048014
  0
ARC
  5
16EDB
  8
0
 10
3436.4925012523881378
 20
144.582335037770207
 30
0.0
 40
0.3488101181588189
 50
187.1900395011176101
 51
238.8031180515683047
  0
ARC
  5
16EDC
  8
0
 10
3437.2145681191841504
 20
144.7001915837755064
 30
0.0
 40
1.080276449458986
 50
176.2009982070806018
 51
188.5986254603134
  0
ARC
  5
16EDD
  8
0
 10
17491.9996736434695777
 20
-553.4708409043356596
 30
0.0
 40
14073.1953601397999591
 50
177.127201644524007
 51
177.1560981473344043
  0
ARC
  5
16EDE
  8
0
 10
3436.4412350834409153
 20
151.8628542742152945
 30
0.0
 40
0.0494204854232019
 50
357.3848566441329808
 51
89.746897462772381
  0
LINE
  5
16EDF
  8
0
 10
3436.4414533963717986
 20
151.912274277442009
 30
0.0
 11
3436.1049104269718555
 21
151.9122741647420867
 31
0.0
  0
ARC
  5
16EE0
  8
0
 10
3436.1219595984621265
 20
152.9040443240191109
 30
0.0
 40
0.9919166916030823
 50
267.6372955075552227
 51
269.0151454415270109
  0
ARC
  5
16EE1
  8
0
 10
3436.0929578750519795
 20
152.2011488237181993
 30
0.0
 40
0.288423134913421
 50
261.2151701230476988
 51
267.6372955075552227
  0
ARC
  5
16EE2
  8
0
 10
3436.0726724892479069
 20
152.0932521713760934
 30
0.0
 40
0.1787298026300887
 50
258.0543543282824999
 51
262.3593637532433149
  0
LINE
  5
16EE3
  8
0
 10
3436.4493113398721107
 20
143.8925892381419942
 30
0.0
 11
3436.4493112966720219
 21
144.1374896022421126
 31
0.0
  0
ARC
  5
16EE4
  8
0
 10
3436.4201946081639107
 20
144.1374895971059118
 30
0.0
 40
0.0291166885076701
 50
0.0000101068757859
 51
77.7066588901767403
  0
ARC
  5
16EE5
  8
0
 10
3436.5335367773759572
 20
144.6576141389743952
 30
0.0
 40
0.5032140229637024
 50
217.4468424110717137
 51
257.7066588901766977
  0
ARC
  5
16EE6
  8
0
 10
3437.7291282522778602
 20
144.7036204931511065
 30
0.0
 40
1.672421538180269
 50
177.8680404621464959
 51
183.0239812347118971
  0
ARC
  5
16EE7
  8
0
 10
3436.8140532929028268
 20
144.6552793802499934
 30
0.0
 40
0.7560705985996496
 50
183.0239812347134887
 51
195.4620078992236927
  0
ARC
  5
16EE8
  8
0
 10
3436.3980215041301562
 20
144.5402005814140978
 30
0.0
 40
0.3244161312162608
 50
195.4620078992236927
 51
215.5355421278702863
  0
ARC
  5
16EE9
  8
0
 10
-2230.9151726770601272
 20
330.9734646522417165
 30
0.0
 40
5670.0314527982172876
 50
358.1180298582834212
 51
358.1562441367242968
  0
ARC
  5
16EEA
  8
0
 10
3399.9091849298220041
 20
149.9494232803751004
 30
0.0
 40
36.2987701726784735
 50
357.7835041271789009
 51
359.3574137141959
  0
ARC
  5
16EEB
  8
0
 10
-10913125.5983085799962282
 20
351488.7304228487773798
 30
0.0
 40
10922214.0999534390866756
 50
358.156625965278522
 51
358.1566381364874019
  0
ARC
  5
16EEC
  8
0
 10
3436.2330758308680743
 20
151.8649767235577031
 30
0.0
 40
0.0473723233642893
 50
355.563034140226307
 51
86.7805855816418301
  0
ARC
  5
16EED
  8
0
 10
3436.2962892986970473
 20
146.3894320612523074
 30
0.0
 40
6.7436338450020772
 50
92.7225494310428076
 51
95.2370333932435358
  0
ARC
  5
16EEE
  8
0
 10
3435.9778780911437934
 20
153.0856027680592888
 30
0.0
 40
0.0398969914801326
 50
359.9955929022793271
 51
92.7418488374828058
  0
LINE
  5
16EEF
  8
0
 10
3436.0177750825059775
 20
153.0855996992478936
 30
0.0
 11
3436.0177812717929555
 21
152.6983709863067986
 31
0.0
  0
ARC
  5
16EF0
  8
0
 10
3435.9778631272720304
 20
152.6983841770419872
 30
0.0
 40
0.0399181466999998
 50
273.6591299793535086
 51
359.9810669198689084
  0
ARC
  5
16EF1
  8
0
 10
3436.0359301041021354
 20
148.9477503501813089
 30
0.0
 40
3.7112123630041882
 50
90.8571713598523871
 51
91.2638975057459447
  0
ARC
  5
16EF2
  8
0
 10
3435.967592945692104
 20
152.2614125587869012
 30
0.0
 40
0.3968776767220898
 50
91.9525685551532348
 51
103.0309237901958994
  0
ARC
  5
16EF3
  8
0
 10
3435.9310040342597858
 20
152.391774504849991
 30
0.0
 40
0.2616975073145006
 50
101.6617498612738046
 51
160.0284039645877101
  0
ARC
  5
16EF4
  8
0
 10
3436.1453128513730917
 20
152.3009782784745028
 30
0.0
 40
0.4942791258201382
 50
158.6212700762312124
 51
174.7944113108650868
  0
ARC
  5
16EF5
  8
0
 10
3435.3753700808060785
 20
144.8150585509222026
 30
0.0
 40
7.535884027707934
 50
87.8881347598118623
 51
89.9442197955027893
  0
ARC
  5
16EF6
  8
0
 10
3435.386819323094187
 20
145.1255405589176064
 30
0.0
 40
7.2251909919993764
 50
85.1642700869077913
 51
87.8881347598118623
  0
ARC
  5
16EF7
  8
0
 10
3435.9913167437789525
 20
152.2754190507623946
 30
0.0
 40
0.0498054116400408
 50
359.6440636126752111
 51
84.7229135794307666
  0
ARC
  5
16EF8
  8
0
 10
3641.0946866728290843
 20
148.967962031594908
 30
0.0
 40
205.0802329352777917
 50
179.0760015648666013
 51
179.1756735185321929
  0
ARC
  5
16EF9
  8
0
 10
3471.4449570150050022
 20
149.8005802988782875
 30
0.0
 40
35.4725548333875977
 50
176.5772433292285086
 51
177.9882861617765002
  0
ARC
  5
16EFA
  8
0
 10
3435.8979176092429952
 20
151.0494959802055916
 30
0.0
 40
0.0964181074376471
 50
297.921576687761501
 51
357.8045512801197106
  0
ARC
  5
16EFB
  8
0
 10
3435.7214471921060976
 20
151.4260847912651116
 30
0.0
 40
0.5122094685417115
 50
277.4903528132115866
 51
295.6373405898747251
  0
ARC
  5
16EFC
  8
0
 10
3435.7485300072062273
 20
151.0090101882171894
 30
0.0
 40
0.0576211514153033
 50
32.471129449438898
 51
62.4160379237852396
  0
ARC
  5
16EFD
  8
0
 10
3435.6396992208378833
 20
150.8171020682119945
 30
0.0
 40
0.2782133292118715
 50
60.8511628773314115
 51
75.7425210938097706
  0
ARC
  5
16EFE
  8
0
 10
3435.459876196967798
 20
150.1203205987218894
 30
0.0
 40
0.9978234541891483
 50
75.5885730730264953
 51
85.5898161105884725
  0
ARC
  5
16EFF
  8
0
 10
3435.3848080413122261
 20
149.3746339308939923
 30
0.0
 40
1.747162376096361
 50
85.0157416775580259
 51
90.0689130267400202
  0
ARC
  5
16F00
  8
0
 10
3435.7317276831940944
 20
151.065724332262306
 30
0.0
 40
0.0828466018142782
 50
312.9900787056445779
 51
318.9737761484731777
  0
ARC
  5
16F01
  8
0
 10
3435.7744320299661922
 20
151.028567681131392
 30
0.0
 40
0.0262402597973459
 50
318.9737761484731777
 51
358.2703171372763222
  0
ARC
  5
16F02
  8
0
 10
3435.7756119625091742
 20
151.0271290221988068
 30
0.0
 40
0.0250567158978688
 50
1.4787558184165031
 51
30.7637599320295685
  0
ARC
  5
16F03
  8
0
 10
3435.3693055148210078
 20
130.981382868112803
 30
0.0
 40
20.213974122621881
 50
88.5045663920013652
 51
89.9620155719743195
  0
ARC
  5
16F04
  8
0
 10
3435.8937725201731155
 20
151.0711561007551893
 30
0.0
 40
0.1173561439993002
 50
67.6697619870771661
 51
88.5045663920013652
  0
ARC
  5
16F05
  8
0
 10
3435.6694733293020363
 20
150.9882631750095072
 30
0.0
 40
0.3300806972010314
 50
10.2300927129976404
 51
35.4508941326960283
  0
ARC
  5
16F06
  8
0
 10
3436.5664200914661706
 20
152.0437164420415002
 30
0.0
 40
0.5741008485165979
 50
156.2046654753860082
 51
162.5312341862268966
  0
ARC
  5
16F07
  8
0
 10
3435.0916966145650804
 20
152.5927407006053045
 30
0.0
 40
1.0007033785869941
 50
332.8257135413381889
 51
337.8877380626323088
  0
ARC
  5
16F08
  8
0
 10
3452.5874625388009918
 20
150.899712015735588
 30
0.0
 40
16.6514555187176896
 50
175.7431181918825871
 51
179.0365075166774886
  0
ARC
  5
16F09
  8
0
 10
3435.3817574734348455
 20
147.6660858800156859
 30
0.0
 40
4.5276767304404721
 50
82.9169759473221859
 51
89.9879872524432045
  0
ARC
  5
16F0A
  8
0
 10
3435.9322163825841017
 20
152.096134991055095
 30
0.0
 40
0.0635597811565552
 50
38.5217270681406703
 51
82.9169759473221859
  0
ARC
  5
16F0B
  8
0
 10
3433.4673219824398984
 20
150.8429248578569002
 30
0.0
 40
2.5824027083416321
 50
58.0082199298835022
 51
60.2783713423655527
  0
LINE
  5
16F0C
  8
0
 10
3434.8354727232717778
 20
153.0331228622420099
 30
0.0
 11
3434.8354726250718159
 21
152.6983668406421089
 31
0.0
  0
LINE
  5
16F0D
  8
0
 10
3434.7901548289778475
 20
152.6584667433419895
 30
0.0
 11
3435.975258423365176
 21
152.6584667433419895
 31
0.0
  0
ARC
  5
16F0E
  8
0
 10
3434.8756991457689765
 20
152.6979789378275996
 30
0.0
 40
0.0402270945421265
 50
179.4476367378748876
 51
259.1820182463447964
  0
ARC
  5
16F0F
  8
0
 10
3434.8465493469689136
 20
153.2676524611430864
 30
0.0
 40
0.2347910227269918
 50
267.2959807794462108
 51
277.9435604464655967
  0
ARC
  5
16F10
  8
0
 10
3435.3845640989648018
 20
150.3289177433883879
 30
0.0
 40
2.7530161968670819
 50
90.0386577310147231
 51
100.5819218427369037
  0
ARC
  5
16F11
  8
0
 10
3437.2971238421541784
 20
150.844508252063406
 30
0.0
 40
2.5805472527079698
 50
119.7203038569854954
 51
121.9921881524823988
  0
LINE
  5
16F12
  8
0
 10
3435.9299405290721552
 20
153.0331228622420099
 30
0.0
 11
3435.9299406272721171
 21
152.6983668406421089
 31
0.0
  0
ARC
  5
16F13
  8
0
 10
3435.889714106575866
 20
152.6979789378275996
 30
0.0
 40
0.0402270945421265
 50
280.8179817536552036
 51
0.552363262125049
  0
ARC
  5
16F14
  8
0
 10
3435.9188639053750194
 20
153.2676524611430864
 30
0.0
 40
0.23479102272699
 50
262.0564395535342896
 51
272.7040192205537892
  0
ARC
  5
16F15
  8
0
 10
3435.3808491533791312
 20
150.3289177433883879
 30
0.0
 40
2.753016196867093
 50
79.418078157263011
 51
89.9613422689852626
  0
ARC
  5
16F16
  8
0
 10
3435.3825900327469753
 20
149.3246451758886053
 30
0.0
 40
1.7943510453528611
 50
89.9962714415374592
 51
91.7725856525189556
  0
ARC
  5
16F17
  8
0
 10
3435.3789569714140271
 20
149.4420401715487117
 30
0.0
 40
1.6768998463777851
 50
91.7725856642493483
 51
94.3565976628855907
  0
ARC
  5
16F18
  8
0
 10
3435.3554101398990497
 20
149.7511192069349875
 30
0.0
 40
1.366925164525024
 50
94.3565976628855907
 51
98.2599606621032251
  0
ARC
  5
16F19
  8
0
 10
3435.2794553214439475
 20
150.2743299382591999
 30
0.0
 40
0.8382299746288833
 50
98.2599606621032251
 51
103.6716522929504976
  0
ARC
  5
16F1A
  8
0
 10
3435.1830716394088086
 20
150.6705635705982047
 30
0.0
 40
0.4304421553414615
 50
103.6716522929504976
 51
109.6574119707428991
  0
ARC
  5
16F1B
  8
0
 10
3435.1147103846178652
 20
150.8619372479980996
 30
0.0
 40
0.2272251640289358
 50
109.6574119707428991
 51
119.3882245291608939
  0
ARC
  5
16F1C
  8
0
 10
3435.04093877672085
 20
150.9929236980545966
 30
0.0
 40
0.0768931972678528
 50
119.3882245291608939
 51
133.7441420350864973
  0
ARC
  5
16F1D
  8
0
 10
3435.0151308716021958
 20
151.0198885059714939
 30
0.0
 40
0.0395682882582837
 50
133.7441420350864973
 51
159.5731261055125003
  0
ARC
  5
16F1E
  8
0
 10
3434.998481801347225
 20
151.0277246346288109
 30
0.0
 40
0.0212864869909551
 50
163.7020868140074867
 51
179.862702787616314
  0
LINE
  5
16F1F
  8
0
 10
3434.9771953754720926
 20
151.0277756431420926
 30
0.0
 11
3434.9771948151719698
 21
150.7554123994420934
 31
0.0
  0
ARC
  5
16F20
  8
0
 10
3435.0013876226707907
 20
150.7549247670876014
 30
0.0
 40
0.0241973713519849
 50
143.6004732255101999
 51
178.8452808820840971
  0
ARC
  5
16F21
  8
0
 10
3435.0346334971218312
 20
150.7304142183442934
 30
0.0
 40
0.0655017920315839
 50
114.3012502308917959
 51
143.6004732255101999
  0
ARC
  5
16F22
  8
0
 10
3435.1371423291961946
 20
150.537786162681698
 30
0.0
 40
0.2836011644493517
 50
105.2007274942395014
 51
117.1617453098553057
  0
ARC
  5
16F23
  8
0
 10
3435.2897158414239129
 20
149.9686717818227066
 30
0.0
 40
0.8728112900042411
 50
95.832058699901367
 51
105.0702802448749935
  0
ARC
  5
16F24
  8
0
 10
3435.3774359607627957
 20
149.2246296696187073
 30
0.0
 40
1.6219576710311889
 50
90.568786823027196
 51
96.2440151445565562
  0
ARC
  5
16F25
  8
0
 10
3435.3832050416249331
 20
149.1075710213345928
 30
0.0
 40
1.7390739228082279
 50
90.0164150990882064
 51
90.7205616727601836
  0
ARC
  5
16F27
  8
0
 10
3435.0085951797677808
 20
150.7555451346026985
 30
0.0
 40
0.0314002950466485
 50
180.2422011364353978
 51
204.614210271929295
  0
ARC
  5
16F28
  8
0
 10
3435.0285461826060782
 20
150.7666308416065135
 30
0.0
 40
0.0541845470306051
 50
206.4847598703298956
 51
234.2569567425603054
  0
ARC
  5
16F29
  8
0
 10
3435.1088186856809443
 20
150.8848442035152004
 30
0.0
 40
0.1970617231363922
 50
235.3914515275909025
 51
253.3173711898757006
  0
ARC
  5
16F2A
  8
0
 10
3435.2483895474001656
 20
151.3212503474684922
 30
0.0
 40
0.6552200354522471
 50
252.5813163764779858
 51
261.2951335029804909
  0
ARC
  5
16F2B
  8
0
 10
3435.3688672121670606
 20
152.1081284134544092
 30
0.0
 40
1.4512677466088
 50
261.2951335029804909
 51
266.1779329834668033
  0
ARC
  5
16F2C
  8
0
 10
3435.3819305884080677
 20
152.368458334253603
 30
0.0
 40
1.711894888479168
 50
266.3224799844946915
 51
270.0259792362342068
  0
ARC
  5
16F2D
  8
0
 10
3435.3736968631078526
 20
151.9538319079161965
 30
0.0
 40
1.2859773517094719
 50
261.8814032424833727
 51
270.4014344827995728
  0
ARC
  5
16F2E
  8
0
 10
3435.2827914857430187
 20
151.3165802436155047
 30
0.0
 40
0.6422744145654063
 50
253.0939512999771921
 51
261.8814032424833727
  0
ARC
  5
16F2F
  8
0
 10
3435.1459062312837887
 20
150.8662087616831968
 30
0.0
 40
0.1715600164148096
 50
236.5827599217033139
 51
253.0939512999771921
  0
ARC
  5
16F30
  8
0
 10
3435.0732916277402182
 20
150.7561550055455086
 30
0.0
 40
0.0397089265908513
 50
207.8357560664447874
 51
236.5827599217033139
  0
ARC
  5
16F31
  8
0
 10
3435.0535824690718982
 20
150.7457478210110082
 30
0.0
 40
0.0174208036244726
 50
157.0769684578544059
 51
207.8357560664447874
  0
ARC
  5
16F32
  8
0
 10
3435.0672733282381159
 20
150.7399580891706137
 30
0.0
 40
0.032285547803245
 50
128.917819013081612
 51
157.0769684578544059
  0
ARC
  5
16F33
  8
0
 10
3435.1169124774869488
 20
150.6784787507355929
 30
0.0
 40
0.111302977478944
 50
112.863401220875204
 51
128.917819013081612
  0
ARC
  5
16F34
  8
0
 10
3435.2066227520649591
 20
150.4657257623115072
 30
0.0
 40
0.3421963889228255
 50
101.7668236540656039
 51
112.863401220875204
  0
ARC
  5
16F35
  8
0
 10
3435.3473314099428535
 20
149.7902376865934002
 30
0.0
 40
1.0321841184074509
 50
94.2851501722044247
 51
101.7668236540656039
  0
ARC
  5
16F36
  8
0
 10
3435.3832669790931504
 20
149.3106474787016111
 30
0.0
 40
1.5131187632769569
 50
90.6424730370443257
 51
94.2851501722044247
  0
ARC
  5
16F37
  8
0
 10
3435.3818718891170647
 20
149.435055667507612
 30
0.0
 40
1.388702752578955
 50
89.9655527832656645
 51
90.6424726693836931
  0
ARC
  5
16F38
  8
0
 10
3435.3815213546631639
 20
149.1692644287334133
 30
0.0
 40
1.6655650822245369
 50
89.9592203913043562
 51
95.3513684433656863
  0
ARC
  5
16F39
  8
0
 10
3435.3259484918507951
 20
149.7625381809855867
 30
0.0
 40
1.069694216857946
 50
95.3513684433656863
 51
102.1829681612462934
  0
ARC
  5
16F3A
  8
0
 10
3435.1840183805320521
 20
150.4199369859449007
 30
0.0
 40
0.3971487944063587
 50
102.1829681612462934
 51
113.6210470405768973
  0
ARC
  5
16F3B
  8
0
 10
3435.064864931547163
 20
150.6923955995638948
 30
0.0
 40
0.0997748874469869
 50
113.6210470405768973
 51
134.1816153997206982
  0
ARC
  5
16F3C
  8
0
 10
3435.0151492363920624
 20
150.7435522027716104
 30
0.0
 40
0.0284401245577226
 50
134.1816153997206982
 51
163.044196479327411
  0
ARC
  5
16F3D
  8
0
 10
3435.0077709148599752
 20
150.745801760075409
 30
0.0
 40
0.0207264913861397
 50
163.0441964793259046
 51
186.3122193309899046
  0
ARC
  5
16F3E
  8
0
 10
3435.0080831245109039
 20
150.7458362957391955
 30
0.0
 40
0.0210406053444281
 50
186.3122193309914962
 51
204.5716354635883079
  0
ARC
  5
16F3F
  8
0
 10
3435.0236413128031927
 20
150.7529500759648045
 30
0.0
 40
0.0381480040951964
 50
204.5716354635898142
 51
236.1131109370105037
  0
ARC
  5
16F40
  8
0
 10
3435.1650820897389167
 20
150.9635402362362129
 30
0.0
 40
0.2918283324287517
 50
236.1131109370105037
 51
240.4786536211344981
  0
ARC
  5
16F41
  8
0
 10
3435.1110101531048713
 20
150.8883051172055048
 30
0.0
 40
0.1999661941160591
 50
243.3393722356898934
 51
247.2362644214423995
  0
ARC
  5
16F42
  8
0
 10
3435.3095611544599706
 20
151.3994693336796047
 30
0.0
 40
0.7482850814052626
 50
248.361930324743895
 51
251.0119817371954127
  0
ARC
  5
16F43
  8
0
 10
3435.0896166117499888
 20
150.7803552662716982
 30
0.0
 40
0.0159638527112112
 50
177.5521837179506974
 51
194.0015969483528124
  0
ARC
  5
16F44
  8
0
 10
3435.0927433286587984
 20
150.7811349369202105
 30
0.0
 40
0.0191863121681369
 50
194.0015969483513061
 51
212.8170988201763123
  0
ARC
  5
16F45
  8
0
 10
3435.107382344107009
 20
150.7905753229537993
 30
0.0
 40
0.0366053150600565
 50
212.817098820177705
 51
235.1810930518209091
  0
ARC
  5
16F46
  8
0
 10
3435.1641962427470389
 20
150.8722622779825997
 30
0.0
 40
0.1361069617829108
 50
235.1810930518209091
 51
253.7963402708747935
  0
ARC
  5
16F47
  8
0
 10
3435.2700201252951047
 20
151.1917997915628007
 30
0.0
 40
0.472645601403657
 50
252.2866418635279899
 51
260.5123045179719838
  0
ARC
  5
16F48
  8
0
 10
3435.3603187904332117
 20
151.7220102756405993
 30
0.0
 40
1.010489173844394
 50
260.4178515406073871
 51
267.1550842421800098
  0
ARC
  5
16F49
  8
0
 10
3435.3822995370869648
 20
152.0514995124196105
 30
0.0
 40
1.340674988235949
 50
266.9157504882476246
 51
270.0174050523577876
  0
ARC
  5
16F4A
  8
0
 10
3435.3804536208817808
 20
151.8408726535492974
 30
0.0
 40
1.1225224173549311
 50
263.8789062133660082
 51
270.1150068903825741
  0
ARC
  5
16F4B
  8
0
 10
3435.3302880739752254
 20
151.3730917533773948
 30
0.0
 40
0.6520592916350684
 50
255.3333865840914996
 51
263.8789062133660082
  0
ARC
  5
16F4C
  8
0
 10
3435.2089549019287915
 20
150.9094967980709896
 30
0.0
 40
0.1728495033123112
 50
240.6739793383297865
 51
255.3333865840914996
  0
ARC
  5
16F4D
  8
0
 10
3435.1469906479801466
 20
150.7991952018055031
 30
0.0
 40
0.0463346389441475
 50
218.3624295503057056
 51
240.6739793383297865
  0
ARC
  5
16F4E
  8
0
 10
3435.1233486063702003
 20
150.7804819789847102
 30
0.0
 40
0.0161828423169067
 50
171.8452601144126106
 51
218.362429550307013
  0
ARC
  5
16F4F
  8
0
 10
3435.1212325427318319
 20
150.780785202337114
 30
0.0
 40
0.0140451637347506
 50
145.7323648203380912
 51
171.8452601144093137
  0
ARC
  5
16F50
  8
0
 10
3435.145277520046875
 20
150.7644027259204904
 30
0.0
 40
0.0431406353350039
 50
133.7890143555981126
 51
145.7323648203380912
  0
ARC
  5
16F51
  8
0
 10
3435.1414424172630788
 20
150.8036845049948909
 30
0.0
 40
0.0374805247688098
 50
207.7761998237118917
 51
241.8548388931480133
  0
ARC
  5
16F52
  8
0
 10
3435.2288555334980629
 20
150.9672737340239053
 30
0.0
 40
0.2229596001554126
 50
241.8777635944273072
 51
258.6218550917923267
  0
ARC
  5
16F53
  8
0
 10
3435.3308278934100599
 20
151.401669271553601
 30
0.0
 40
0.6690873716487628
 50
257.3998506847082126
 51
263.9780318308647225
  0
ARC
  5
16F54
  8
0
 10
3435.3741851649529053
 20
151.7725976377853101
 30
0.0
 40
1.042525938177012
 50
263.7469849387471754
 51
267.4182973889255095
  0
ARC
  5
16F55
  8
0
 10
3435.3822292260470022
 20
151.9255710974078966
 30
0.0
 40
1.195707015557677
 50
267.3634138720133819
 51
269.3581730579704185
  0
ARC
  5
16F56
  8
0
 10
3435.3826923362498746
 20
151.9560968856038983
 30
0.0
 40
1.2262360821471141
 50
269.3525128659346137
 51
270.0006758762228856
  0
LINE
  5
16F57
  8
0
 10
3435.7882182270400335
 20
151.0277756431420926
 30
0.0
 11
3435.7882187873401563
 21
150.7554123994420934
 31
0.0
  0
ARC
  5
16F58
  8
0
 10
3435.7640259798399711
 20
150.7549247670876014
 30
0.0
 40
0.0241973713519849
 50
1.15471911791588
 51
36.3995267744898285
  0
ARC
  5
16F59
  8
0
 10
3435.7307801053898402
 20
150.7304142183442934
 30
0.0
 40
0.0655017920315839
 50
36.3995267744898285
 51
65.6987497691081614
  0
ARC
  5
16F5A
  8
0
 10
3435.628271273315022
 20
150.537786162681698
 30
0.0
 40
0.2836011644493517
 50
62.8382546901446588
 51
74.7992725057604986
  0
ARC
  5
16F5B
  8
0
 10
3435.4756977610882132
 20
149.9686717818227066
 30
0.0
 40
0.8728112900042411
 50
74.9297197551249781
 51
84.1679413000986472
  0
ARC
  5
16F5C
  8
0
 10
3435.3879776417479661
 20
149.2246296696187073
 30
0.0
 40
1.6219576710311889
 50
83.7559848554434723
 51
89.431213176972804
  0
ARC
  5
16F5D
  8
0
 10
3435.3822085608858288
 20
149.1075710213345928
 30
0.0
 40
1.7390739228082279
 50
89.2794383272398306
 51
89.9835849009117936
  0
ARC
  5
16F5E
  8
0
 10
3435.7568184227429811
 20
150.7555451346026985
 30
0.0
 40
0.0314002950466485
 50
335.3857897280706766
 51
359.757798863564517
  0
ARC
  5
16F5F
  8
0
 10
3435.7368674199060479
 20
150.7666308416065135
 30
0.0
 40
0.0541845470306051
 50
305.7430432574398083
 51
333.5152401296700759
  0
ARC
  5
16F60
  8
0
 10
3435.6565949168311818
 20
150.8848442035152004
 30
0.0
 40
0.1970617231363922
 50
286.6826288101242994
 51
304.6085484724092112
  0
ARC
  5
16F61
  8
0
 10
3435.5170240551119605
 20
151.3212503474684922
 30
0.0
 40
0.6552200354522471
 50
278.7048664970193954
 51
287.4186836235220994
  0
ARC
  5
16F62
  8
0
 10
3435.3965463903450654
 20
152.1081284134544092
 30
0.0
 40
1.4512677466088
 50
273.8220670165331967
 51
278.7048664970193954
  0
ARC
  5
16F63
  8
0
 10
3435.3834830141031489
 20
152.3684583342536882
 30
0.0
 40
1.711894888479262
 50
269.9740207637657932
 51
273.6775200155053085
  0
ARC
  5
16F64
  8
0
 10
3435.3917167394029093
 20
151.9538319079161965
 30
0.0
 40
1.2859773517094719
 50
269.5985655172003135
 51
278.1185967575166273
  0
ARC
  5
16F65
  8
0
 10
3435.4826221167691074
 20
151.3165802436155047
 30
0.0
 40
0.6422744145654063
 50
278.1185967575166273
 51
286.9060487000227795
  0
ARC
  5
16F66
  8
0
 10
3435.6195073712278827
 20
150.8662087616831968
 30
0.0
 40
0.1715600164148096
 50
286.9060487000227795
 51
303.4172400782967998
  0
ARC
  5
16F67
  8
0
 10
3435.6921219747709983
 20
150.7561550055455086
 30
0.0
 40
0.0397089265908513
 50
303.4172400782967998
 51
332.1642439335552126
  0
ARC
  5
16F68
  8
0
 10
3435.7118311334397731
 20
150.7457478210110082
 30
0.0
 40
0.0174208036244726
 50
332.1642439335552126
 51
22.9230315421455693
  0
ARC
  5
16F69
  8
0
 10
3435.6981402742731007
 20
150.7399580891706137
 30
0.0
 40
0.032285547803245
 50
22.9230315421455693
 51
51.082180986918388
  0
ARC
  5
16F6A
  8
0
 10
3435.6485011250251773
 20
150.6784787507355929
 30
0.0
 40
0.111302977478944
 50
51.082180986918388
 51
67.1365987791248244
  0
ARC
  5
16F6B
  8
0
 10
3435.558790850447167
 20
150.4657257623115072
 30
0.0
 40
0.3421963889228255
 50
67.1365987791248244
 51
78.2331763459343534
  0
ARC
  5
16F6C
  8
0
 10
3435.4180821925688178
 20
149.7902376865934002
 30
0.0
 40
1.0321841184074509
 50
78.2331763459343534
 51
85.7148498277955753
  0
ARC
  5
16F6D
  8
0
 10
3435.3821466234180662
 20
149.3106474787016111
 30
0.0
 40
1.5131187632769569
 50
85.7148498277955753
 51
89.3575269629556885
  0
ARC
  5
16F6E
  8
0
 10
3435.3835417133941519
 20
149.4350556674623078
 30
0.0
 40
1.3887027526242539
 50
89.3575273306163069
 51
90.0344472167082586
  0
ARC
  5
16F6F
  8
0
 10
3435.3838922478480526
 20
149.1692644287336975
 30
0.0
 40
1.665565082224205
 50
84.6486315566343137
 51
90.0407796086956438
  0
ARC
  5
16F70
  8
0
 10
3435.4394651106617857
 20
149.7625381809855867
 30
0.0
 40
1.069694216857946
 50
77.8170318387536639
 51
84.6486315566343137
  0
ARC
  5
16F71
  8
0
 10
3435.5813952219791645
 20
150.4199369859449007
 30
0.0
 40
0.3971487944063587
 50
66.3789529594230601
 51
77.8170318387536639
  0
ARC
  5
16F72
  8
0
 10
3435.7005486709649631
 20
150.6923955995638948
 30
0.0
 40
0.0997748874469869
 50
45.8183846002792734
 51
66.3789529594230601
  0
ARC
  5
16F73
  8
0
 10
3435.7502643661191541
 20
150.7435522027716104
 30
0.0
 40
0.0284401245577226
 50
16.9558035206725606
 51
45.8183846002792734
  0
ARC
  5
16F74
  8
0
 10
3435.7576426876521509
 20
150.745801760075409
 30
0.0
 40
0.0207264913861397
 50
353.6877806690100101
 51
16.9558035206741202
  0
ARC
  5
16F75
  8
0
 10
3435.7573304780012222
 20
150.7458362957391955
 30
0.0
 40
0.0210406053444281
 50
335.4283645364116069
 51
353.6877806690084753
  0
ARC
  5
16F76
  8
0
 10
3435.7417722897080239
 20
150.7529500759648045
 30
0.0
 40
0.0381480040951964
 50
303.8868890629894963
 51
335.4283645364101858
  0
ARC
  5
16F77
  8
0
 10
3435.6003315127718452
 20
150.9635402362362129
 30
0.0
 40
0.2918283324287517
 50
299.5213463788654735
 51
303.8868890629894963
  0
ARC
  5
16F78
  8
0
 10
3435.6544034494068001
 20
150.8883051172055048
 30
0.0
 40
0.1999661941160591
 50
292.7637355785576005
 51
296.6606277643101066
  0
ARC
  5
16F79
  8
0
 10
3435.4558524480521555
 20
151.3994693336796047
 30
0.0
 40
0.7482850814052626
 50
288.988018262804701
 51
291.6380696752560198
  0
ARC
  5
16F7A
  8
0
 10
3435.6757969907621373
 20
150.7803552662716982
 30
0.0
 40
0.0159638527112112
 50
345.9984030516470739
 51
2.447816282049307
  0
ARC
  5
16F7B
  8
0
 10
3435.6726702738528729
 20
150.7811349369202105
 30
0.0
 40
0.0191863121681369
 50
327.1829011798236024
 51
345.9984030516487223
  0
ARC
  5
16F7C
  8
0
 10
3435.6580312584051171
 20
150.7905753229537993
 30
0.0
 40
0.0366053150600565
 50
304.8189069481791194
 51
327.182901179822295
  0
ARC
  5
16F7D
  8
0
 10
3435.6012173597650872
 20
150.8722622779825997
 30
0.0
 40
0.1361069617829108
 50
286.2036597291250928
 51
304.8189069481791194
  0
ARC
  5
16F7E
  8
0
 10
3435.4953934772161119
 20
151.1917997915628007
 30
0.0
 40
0.472645601403657
 50
279.4876954820280162
 51
287.7133581364719817
  0
ARC
  5
16F7F
  8
0
 10
3435.4050948120789144
 20
151.7220102756405993
 30
0.0
 40
1.010489173844394
 50
272.8449157578199902
 51
279.5821484593924993
  0
ARC
  5
16F80
  8
0
 10
3435.383114065423797
 20
152.0514995124196105
 30
0.0
 40
1.340674988235949
 50
269.9825949476422124
 51
273.0842495117523754
  0
ARC
  5
16F81
  8
0
 10
3435.384959981628981
 20
151.8408726535492974
 30
0.0
 40
1.1225224173549311
 50
269.8849931096173123
 51
276.1210937866081281
  0
ARC
  5
16F82
  8
0
 10
3435.4351255285369007
 20
151.3730917533773948
 30
0.0
 40
0.6520592916350684
 50
276.1210937866081281
 51
284.6666134159086141
  0
ARC
  5
16F83
  8
0
 10
3435.5564587005819703
 20
150.9094967980709896
 30
0.0
 40
0.1728495033123112
 50
284.6666134159086141
 51
299.3260206616702135
  0
ARC
  5
16F84
  8
0
 10
3435.6184229545319795
 20
150.7991952018055031
 30
0.0
 40
0.0463346389441475
 50
299.3260206616702135
 51
321.6375704496942944
  0
ARC
  5
16F85
  8
0
 10
3435.6420649961410163
 20
150.7804819789847102
 30
0.0
 40
0.0161828423169067
 50
321.637570449692987
 51
8.1547398855874018
  0
ARC
  5
16F86
  8
0
 10
3435.6441810597789299
 20
150.780785202337114
 30
0.0
 40
0.0140451637347506
 50
8.1547398855906241
 51
34.2676351796619301
  0
ARC
  5
16F87
  8
0
 10
3435.6201360824638869
 20
150.7644027259204904
 30
0.0
 40
0.0431406353350039
 50
34.2676351796619301
 51
46.2109856444019087
  0
ARC
  5
16F88
  8
0
 10
3435.6239711852481378
 20
150.8036845049948909
 30
0.0
 40
0.0374805247688098
 50
298.1451611068520151
 51
332.2238001762880799
  0
ARC
  5
16F89
  8
0
 10
3435.5365580690140632
 20
150.9672737340239053
 30
0.0
 40
0.2229596001554126
 50
281.3781449082076733
 51
298.1222364055727212
  0
ARC
  5
16F8A
  8
0
 10
3435.4345857091011567
 20
151.401669271553601
 30
0.0
 40
0.6690873716487628
 50
276.0219681691352775
 51
282.6001493152916737
  0
ARC
  5
16F8B
  8
0
 10
3435.3912284375601303
 20
151.7725976377853101
 30
0.0
 40
1.042525938177012
 50
272.5817026110746042
 51
276.2530150612528246
  0
ARC
  5
16F8C
  8
0
 10
3435.3831843764651239
 20
151.9255710974078966
 30
0.0
 40
1.195707015557677
 50
270.6418269420295815
 51
272.6365861279866181
  0
ARC
  5
16F8D
  8
0
 10
3435.3827212662608872
 20
151.9560968856038983
 30
0.0
 40
1.2262360821471141
 50
269.9993241237771144
 51
270.6474871340653863
  0
ARC
  5
16F8E
  8
0
 10
3435.3828235697660602
 20
149.3246451758913054
 30
0.0
 40
1.7943510453501681
 50
88.227414347481087
 51
90.0037285584625266
  0
ARC
  5
16F8F
  8
0
 10
3435.386456631098099
 20
149.4420401715487117
 30
0.0
 40
1.6768998463777851
 50
85.6434023371144235
 51
88.2274143357506659
  0
ARC
  5
16F90
  8
0
 10
3435.4100034626121669
 20
149.7511192069349875
 30
0.0
 40
1.366925164525024
 50
81.7400393378967749
 51
85.6434023371144235
  0
ARC
  5
16F91
  8
0
 10
3435.4859582810681786
 20
150.2743299382591999
 30
0.0
 40
0.8382299746288833
 50
76.3283477070495451
 51
81.7400393378967749
  0
ARC
  5
16F92
  8
0
 10
3435.5823419631019533
 20
150.6705635705982047
 30
0.0
 40
0.4304421553414615
 50
70.3425880292570298
 51
76.3283477070495451
  0
ARC
  5
16F93
  8
0
 10
3435.6507032178938061
 20
150.8619372479980996
 30
0.0
 40
0.2272251640289358
 50
60.6117754708390493
 51
70.3425880292570298
  0
ARC
  5
16F94
  8
0
 10
3435.7244748257921856
 20
150.9929236980545966
 30
0.0
 40
0.0768931972678528
 50
46.25585796491346
 51
60.6117754708390493
  0
ARC
  5
16F95
  8
0
 10
3435.7502827309090208
 20
151.0198885059714939
 30
0.0
 40
0.0395682882582837
 50
20.426873894487489
 51
46.25585796491346
  0
ARC
  5
16F96
  8
0
 10
3435.7669318011639916
 20
151.0277246346288109
 30
0.0
 40
0.0212864869909551
 50
0.1372972123836949
 51
16.2979131859925097
  0
ENDSEC
  0
EOF
