  0
SECTION
  2
HEADER
  9
$ACADVER
  1
AC1009
  9
$INSBASE
 10
3446.2224376340150229
 20
143.8983178897883022
 30
0.0
  9
$EXTMIN
 10
3439.2554267069499474
 20
143.8868855587872986
 30
-0.0000000349181948
  9
$EXTMAX
 10
3447.6723346055459842
 20
153.1400612777644881
 30
0.0000000814935746
  9
$LIMMIN
 10
0.0
 20
0.0
  9
$LIMMAX
 10
11.6929133858000007
 20
8.2677165353999982
  9
$ORTHOMODE
 70
     0
  9
$REGENMODE
 70
     1
  9
$FILLMODE
 70
     1
  9
$QTEXTMODE
 70
     0
  9
$MIRRTEXT
 70
     0
  9
$DRAGMODE
 70
     2
  9
$LTSCALE
 40
0.6431102362
  9
$OSMODE
 70
  2039
  9
$ATTMODE
 70
     1
  9
$TEXTSIZE
 40
0.2
  9
$TRACEWID
 40
0.05
  9
$TEXTSTYLE
  7
STANDARD
  9
$CLAYER
  8
0
  9
$CELTYPE
  6
BYLAYER
  9
$CECOLOR
 62
   256
  9
$DIMSCALE
 40
1.0
  9
$DIMASZ
 40
0.1875
  9
$DIMEXO
 40
0.0625
  9
$DIMDLI
 40
0.4443307087
  9
$DIMRND
 40
0.0
  9
$DIMDLE
 40
0.0
  9
$DIMEXE
 40
0.125
  9
$DIMTP
 40
0.01
  9
$DIMTM
 40
0.01
  9
$DIMTXT
 40
2.0
  9
$DIMCEN
 40
0.1052362205
  9
$DIMTSZ
 40
0.0
  9
$DIMTOL
 70
     1
  9
$DIMLIM
 70
     0
  9
$DIMTIH
 70
     1
  9
$DIMTOH
 70
     1
  9
$DIMSE1
 70
     0
  9
$DIMSE2
 70
     0
  9
$DIMTAD
 70
     0
  9
$DIMZIN
 70
     0
  9
$DIMBLK
  1

  9
$DIMASO
 70
     1
  9
$DIMSHO
 70
     1
  9
$DIMPOST
  1
\X
  9
$DIMAPOST
  1

  9
$DIMALT
 70
     1
  9
$DIMALTD
 70
     2
  9
$DIMALTF
 40
25.3999999999999986
  9
$DIMLFAC
 40
1.0
  9
$DIMTOFL
 70
     0
  9
$DIMTVP
 40
0.0
  9
$DIMTIX
 70
     0
  9
$DIMSOXD
 70
     0
  9
$DIMSAH
 70
     0
  9
$DIMBLK1
  1

  9
$DIMBLK2
  1

  9
$DIMSTYLE
  2
STANDARD
  9
$DIMCLRD
 70
     0
  9
$DIMCLRE
 70
     0
  9
$DIMCLRT
 70
     0
  9
$DIMTFAC
 40
1.0
  9
$DIMGAP
 40
0.09
  9
$LUNITS
 70
     2
  9
$LUPREC
 70
     4
  9
$SKETCHINC
 40
0.1
  9
$FILLETRAD
 40
0.0
  9
$AUNITS
 70
     0
  9
$AUPREC
 70
     0
  9
$MENU
  1
.
  9
$ELEVATION
 40
0.0
  9
$PELEVATION
 40
0.0
  9
$THICKNESS
 40
0.0
  9
$LIMCHECK
 70
     0
  9
$BLIPMODE
 70
     0
  9
$CHAMFERA
 40
0.0
  9
$CHAMFERB
 40
0.0
  9
$SKPOLY
 70
     0
  9
$TDCREATE
 40
2458060.468368056230247
  9
$TDUPDATE
 40
2459165.3694328712299466
  9
$TDINDWG
 40
0.5721251157
  9
$TDUSRTIMER
 40
0.5721251157
  9
$USRTIMER
 70
     1
  9
$ANGBASE
 50
0.0
  9
$ANGDIR
 70
     0
  9
$PDMODE
 70
     0
  9
$PDSIZE
 40
0.3125
  9
$PLINEWID
 40
0.0
  9
$COORDS
 70
     1
  9
$SPLFRAME
 70
     0
  9
$SPLINETYPE
 70
     6
  9
$SPLINESEGS
 70
     8
  9
$ATTDIA
 70
     1
  9
$ATTREQ
 70
     1
  9
$HANDLING
 70
     1
  9
$HANDSEED
  5
170C1
  9
$SURFTAB1
 70
     6
  9
$SURFTAB2
 70
     6
  9
$SURFTYPE
 70
     6
  9
$SURFU
 70
     6
  9
$SURFV
 70
     6
  9
$UCSNAME
  2

  9
$UCSORG
 10
0.0
 20
0.0
 30
0.0
  9
$UCSXDIR
 10
1.0
 20
0.0
 30
0.0
  9
$UCSYDIR
 10
0.0
 20
1.0
 30
0.0
  9
$PUCSNAME
  2

  9
$PUCSORG
 10
0.0
 20
0.0
 30
0.0
  9
$PUCSXDIR
 10
1.0
 20
0.0
 30
0.0
  9
$PUCSYDIR
 10
0.0
 20
1.0
 30
0.0
  9
$USERI1
 70
     0
  9
$USERI2
 70
     0
  9
$USERI3
 70
     0
  9
$USERI4
 70
     0
  9
$USERI5
 70
     0
  9
$USERR1
 40
0.0
  9
$USERR2
 40
0.0
  9
$USERR3
 40
0.0
  9
$USERR4
 40
0.0
  9
$USERR5
 40
0.0
  9
$WORLDVIEW
 70
     1
  9
$SHADEDGE
 70
     3
  9
$SHADEDIF
 70
    70
  9
$TILEMODE
 70
     1
  9
$MAXACTVP
 70
    64
  9
$PLIMCHECK
 70
     0
  9
$PEXTMIN
 10
1.0000000000000000E+20
 20
1.0000000000000000E+20
 30
1.0000000000000000E+20
  9
$PEXTMAX
 10
-1.0000000000000000E+20
 20
-1.0000000000000000E+20
 30
-1.0000000000000000E+20
  9
$PLIMMIN
 10
0.0
 20
0.0
  9
$PLIMMAX
 10
12.0
 20
9.0
  9
$UNITMODE
 70
     0
  9
$VISRETAIN
 70
     1
  9
$PLINEGEN
 70
     0
  9
$PSLTSCALE
 70
     1
  0
ENDSEC
  0
SECTION
  2
TABLES
  0
TABLE
  2
VPORT
 70
     1
  0
VPORT
  2
*ACTIVE
 70
     0
 10
0.0
 20
0.0
 11
1.0
 21
1.0
 12
139.770765421872909
 22
-46.7480381576118589
 13
0.0
 23
0.0
 14
1.0
 24
1.0
 15
0.0
 25
0.0
 16
0.0
 26
0.0
 36
96.5995694866707311
 17
3303.693115234375
 27
195.2615115758877096
 37
0.0
 40
9.3301785682336202
 41
2.6486111111111108
 42
50.0
 43
0.0
 44
0.0
 50
0.0
 51
0.0
 71
     0
 72
   100
 73
     1
 74
     1
 75
     0
 76
     0
 77
     0
 78
     0
  0
ENDTAB
  0
TABLE
  2
LTYPE
 70
     2
  0
LTYPE
  2
CONTINUOUS
 70
     0
  3
Solid line
 72
    65
 73
     0
 40
0.0
  0
LTYPE
  2
PHANTOM2
 70
     0
  3
___ _ _ ___ _ _ ___ _ _ ___ _ _
 72
    65
 73
     6
 40
1.25
 49
0.625
 49
-0.125
 49
0.125
 49
-0.125
 49
0.125
 49
-0.125
  0
ENDTAB
  0
TABLE
  2
LAYER
 70
     2
  0
LAYER
  2
0
 70
     0
 62
   255
  6
CONTINUOUS
  0
LAYER
  2
DEFPOINTS
 70
     0
 62
     7
  6
CONTINUOUS
  0
ENDTAB
  0
TABLE
  2
STYLE
 70
     1
  0
STYLE
  2
STANDARD
 70
     0
 40
0.0
 41
0.8
 50
0.0
 71
     0
 42
0.2
  3
txt
  4

  0
ENDTAB
  0
TABLE
  2
VIEW
 70
     0
  0
ENDTAB
  0
TABLE
  2
UCS
 70
     0
  0
ENDTAB
  0
TABLE
  2
APPID
 70
     9
  0
APPID
  2
ACAD
 70
     0
  0
APPID
  2
ACAD_MLEADERVER
 70
     0
  0
APPID
  2
ACAD_EXEMPT_FROM_CAD_STANDARDS
 70
     0
  0
APPID
  2
ACAD_NAV_VCDISPLAY
 70
     0
  0
APPID
  2
ACAECLAYERSTANDARD
 70
     0
  0
APPID
  2
ACCMTRANSPARENCY
 70
     0
  0
APPID
  2
ACAD_DSTYLE_DIMJAG
 70
     0
  0
APPID
  2
ACAD_DSTYLE_DIMTALN
 70
     0
  0
APPID
  2
ACDBATTR
 70
     0
  0
ENDTAB
  0
TABLE
  2
DIMSTYLE
 70
     1
  0
DIMSTYLE
  2
STANDARD
 70
     0
  3

  4

  5

  6

  7

 40
1.0
 41
0.1875
 42
0.0625
 43
0.38
 44
0.125
 45
0.0
 46
0.0
 47
0.01
 48
0.01
140
0.15625
141
0.09
142
0.0
143
25.3999999999999986
144
1.0
145
0.0
146
1.0
147
0.09
 71
     1
 72
     0
 73
     1
 74
     1
 75
     0
 76
     0
 77
     0
 78
     4
170
     0
171
     2
172
     0
173
     0
174
     0
175
     0
176
     0
177
     0
178
     0
  0
ENDTAB
  0
ENDSEC
  0
SECTION
  2
BLOCKS
  0
BLOCK
  8
0
  2
$MODEL_SPACE
 70
     0
 10
0.0
 20
0.0
 30
0.0
  3
$MODEL_SPACE
  1

  0
ENDBLK
  5
21
  8
0
  0
BLOCK
 67
     1
  8
0
  2
$PAPER_SPACE
 70
     0
 10
0.0
 20
0.0
 30
0.0
  3
$PAPER_SPACE
  1

  0
ENDBLK
  5
1D
 67
     1
  8
0
  0
BLOCK
  8
0
  2
_FILLED
 70
     0
 10
0.0
 20
0.0
 30
0.0
  3
_FILLED
  1

  0
SOLID
  5
9E2C
  8
0
  6
BYBLOCK
 62
     0
 10
0.0
 20
0.0
 30
0.0
 11
-1.0
 21
0.1666666667
 31
0.0
 12
-1.0
 22
-0.1666666667
 32
0.0
 13
-1.0
 23
-0.1666666667
 33
0.0
  0
ENDBLK
  5
9E2D
  8
0
  6
BYBLOCK
 62
     0
  0
BLOCK
  8
0
  2
A$C6B0F1CD5
 70
     2
 10
0.0
 20
0.0
 30
0.0
  3
A$C6B0F1CD5
  1

  0
ATTDEF
  5
B779
  8
DEFPOINTS
 10
0.0005209962714616
 20
0.000347009907216
 30
0.0
 40
0.001
  1
BATH FAUCET
  3

  2
PRODUCT
 70
     0
1001
ACDBATTR
1070
     0
1070
     1
  0
ATTDEF
  5
B77A
  8
DEFPOINTS
 10
0.0005209962714616
 20
0.0020136765738812
 30
0.0
 40
0.001
  1
SINGULIER
  3

  2
TRADENAME
 70
     0
1001
ACDBATTR
1070
     0
1070
     1
  0
ATTDEF
  5
B77B
  8
DEFPOINTS
 10
0.0005209962714616
 20
0.0036803432405463
 30
0.0
 40
0.001
  1
K-10873W
  3

  2
MODELNUMBER
 70
     0
1001
ACDBATTR
1070
     0
1070
     1
  0
ENDBLK
  5
B77F
  8
0
  0
ENDSEC
  0
SECTION
  2
ENTITIES
  0
ATTDEF
  5
15B77
  8
DEFPOINTS
 10
3446.2225305319420841
 20
143.9018071356994994
 30
0.0
 40
0.001
  1
K-15539T
  3

  2
MODELNUMBER
 70
     0
1001
ACDBATTR
1070
     0
1070
     1
  0
ATTDEF
  5
15B78
  8
DEFPOINTS
 10
3446.2225305319420841
 20
143.9001404690328059
 30
0.0
 40
0.001
  1
MARGAUX
  3

  2
TRADENAME
 70
     0
1001
ACDBATTR
1070
     0
1070
     1
  0
ATTDEF
  5
15B79
  8
DEFPOINTS
 10
3446.2225305319420841
 20
143.8984738023661976
 30
0.0
 40
0.001
  1
BATHROOM SINK FAUCET
  3

  2
PRODUCT
 70
     0
1001
ACDBATTR
1070
     0
1070
     1
  0
LINE
  5
16D7B
  8
0
 10
3444.9826192219147742
 20
143.8983178897883022
 30
0.0
 11
3447.4622801537148007
 21
143.8983178897883022
 31
0.0
  0
LINE
  5
16D7C
  8
0
 10
3445.0040943620119833
 20
144.1716673010882914
 30
0.0
 11
3447.4407301507690136
 21
144.1716673010882914
 31
0.0
  0
LINE
  5
16D7D
  8
0
 10
3444.9826192219147742
 20
143.8983178897883022
 30
0.0
 11
3444.9825951192228786
 21
144.1432480645403018
 31
0.0
  0
ARC
  5
16D7E
  8
0
 10
3445.0121241890351484
 20
144.1432509703892038
 30
0.0
 40
0.0295290699550036
 50
105.7791192756200047
 51
180.0056382702832991
  0
ARC
  5
16D7F
  8
0
 10
3444.6937610850491183
 20
145.3604736481927944
 30
0.0
 40
1.2286444862965109
 50
284.6303445416929208
 51
297.602395029856325
  0
ARC
  5
16D80
  8
0
 10
3445.1069899198091662
 20
144.585277213551791
 30
0.0
 40
0.3502854610086716
 50
296.4536202959095021
 51
339.5524091116274121
  0
ARC
  5
16D81
  8
0
 10
3444.6381747755099241
 20
144.7045087863845936
 30
0.0
 40
0.8328439709892403
 50
343.1363503071797254
 51
4.4106827805143327
  0
ARC
  5
16D82
  8
0
 10
-22206789.1130430698394775
 20
-789896.1894294406520203
 30
0.0
 40
22224281.4256117083132267
 50
2.0372110515252371
 51
2.0372215320437479
  0
ARC
  5
16D83
  8
0
 10
3443.4980706690212173
 20
148.7757009901210097
 30
0.0
 40
1.8268118304570731
 50
1.74233695419748
 51
9.8700998903003505
  0
ARC
  5
16D84
  8
0
 10
3443.0393581395878755
 20
148.6708730153492866
 30
0.0
 40
2.2968362396911162
 50
10.4849240750824695
 51
50.8338017663629387
  0
ARC
  5
16D85
  8
0
 10
3443.1146833659868207
 20
148.8019872377217894
 30
0.0
 40
2.1477465069109551
 50
50.1826748632906217
 51
75.3891375538973847
  0
ARC
  5
16D86
  8
0
 10
3385.1474452229449525
 20
-137.5698597600575113
 30
0.0
 40
294.3242887094776847
 50
78.533732367703152
 51
78.8730323346639182
  0
ARC
  5
16D87
  8
0
 10
3441.0350607557870717
 20
146.8061635448491131
 30
0.0
 40
4.5087820939623802
 50
78.3274490319212902
 51
87.4163729147294646
  0
ARC
  5
16D88
  8
0
 10
3441.0881269028659517
 20
147.4715405401647104
 30
0.0
 40
3.8417583304959471
 50
87.7596740500579244
 51
91.2823153552087092
  0
ARC
  5
16D89
  8
0
 10
3441.0240931221819665
 20
149.9449093603882091
 30
0.0
 40
1.367603395946259
 50
90.9192160525513344
 51
94.9772851465562127
  0
ARC
  5
16D8A
  8
0
 10
3440.9819904883411255
 20
150.4283520468808035
 30
0.0
 40
0.8823308303715757
 50
94.9772851465562127
 51
105.2444143347828032
  0
ARC
  5
16D8B
  8
0
 10
3440.8624154218691729
 20
150.9253438840511876
 30
0.0
 40
0.3717013733098644
 50
107.6050440476341947
 51
143.4726605596023035
  0
ARC
  5
16D8C
  8
0
 10
3441.5038115725151329
 20
150.4275591174132956
 30
0.0
 40
1.183535201329869
 50
142.5894522502171071
 51
152.1852516334697896
  0
ARC
  5
16D8D
  8
0
 10
3395.9426557965489337
 20
175.3387301631144055
 30
0.0
 40
50.7433298395098831
 50
331.2456419350078249
 51
331.3118715627198867
  0
ARC
  5
16D8E
  8
0
 10
3440.3942360390501563
 20
150.947359467567594
 30
0.0
 40
0.0394645976675391
 50
264.0042182452754105
 51
331.2453121395849962
  0
ARC
  5
16D8F
  8
0
 10
3563.5262415313632118
 20
687.3545980838845253
 30
0.0
 40
550.3974379742412566
 50
256.9570063651611918
 51
257.0722494719124143
  0
ARC
  5
16D90
  8
0
 10
3439.3202243589148566
 20
151.1952299229882897
 30
0.0
 40
0.0393702090000006
 50
171.4524895403004905
 51
257.0034595241618831
  0
ARC
  5
16D91
  8
0
 10
3442.1588624621790586
 20
150.768573528455903
 30
0.0
 40
2.9098931509561239
 50
150.5448425578196066
 51
171.4522485633029021
  0
ARC
  5
16D92
  8
0
 10
3439.6682800778198725
 20
152.1748435150157093
 30
0.0
 40
0.0497195809924702
 50
102.3427182830279065
 51
150.2822884854512893
  0
ARC
  5
16D93
  8
0
 10
3440.9222606302541863
 20
146.3113786724777867
 30
0.0
 40
6.0457749982032141
 50
85.627531105647563
 51
102.0738502458761019
  0
ARC
  5
16D94
  8
0
 10
3440.1528318212940576
 20
136.2485491642300985
 30
0.0
 40
16.1379778501140905
 50
82.6630740103667705
 51
85.627531105647563
  0
ARC
  5
16D95
  8
0
 10
3435.1252673018639143
 20
97.2019502269289859
 30
0.0
 40
55.5069160319786334
 50
81.7148102430414411
 51
82.6630740103667705
  0
ARC
  5
16D96
  8
0
 10
3445.9116677067308956
 20
171.2740715200772001
 30
0.0
 40
19.3464445242513605
 50
261.7148102430414269
 51
263.0955015944539923
  0
ARC
  5
16D97
  8
0
 10
3449.5812967857550575
 20
193.8413527710781921
 30
0.0
 40
42.2014600367726231
 50
261.8326334692762885
 51
263.1219671572313246
  0
ARC
  5
16D98
  8
0
 10
3445.0474320489379352
 20
157.2124052449609906
 30
0.0
 40
5.2944029647018658
 50
264.3632574149618222
 51
269.8024598353767942
  0
ARC
  5
16D99
  8
0
 10
3445.284471233549084
 20
1091.8389186126919412
 30
0.0
 40
939.9209195358247371
 50
269.984437839499094
 51
270.0051873741488748
  0
LINE
  5
16D9A
  8
0
 10
3445.3695686265150471
 20
151.9180029290882885
 30
0.0
 11
3447.4102914990148747
 21
151.9180029290882885
 31
0.0
  0
ARC
  5
16D9B
  8
0
 10
3447.4102913832148261
 20
151.8687903470882929
 30
0.0
 40
0.0492125973000017
 50
0.0000000000016284
 51
89.9998651666088136
  0
ARC
  5
16D9C
  8
0
 10
-106601.2190563532931264
 20
7650.7110234826741362
 30
0.0
 40
110303.8724964502034709
 50
356.0981404867437163
 51
356.1018262604844153
  0
ARC
  5
16D9D
  8
0
 10
3447.8439065505699546
 20
144.6956714108727056
 30
0.0
 40
0.8720843625061068
 50
173.8237331554130947
 51
194.3491145398176059
  0
ARC
  5
16D9E
  8
0
 10
3447.309709989269777
 20
144.5684706110426134
 30
0.0
 40
0.3231584320161929
 50
195.9728809480039899
 51
244.6361584440280126
  0
ARC
  5
16D9F
  8
0
 10
3447.7483194483420448
 20
145.3613194076069988
 30
0.0
 40
1.228775066062503
 50
241.9913251089660946
 51
255.5073467961767051
  0
ARC
  5
16DA0
  8
0
 10
3447.4318392403188227
 20
144.1425479434373074
 30
0.0
 40
0.0304482315264242
 50
1.2574372678345129
 51
72.8625134611381071
  0
LINE
  5
16DA1
  8
0
 10
3447.4622801395148599
 20
144.1432161194883008
 30
0.0
 11
3447.4622801537148007
 21
143.8983178897883022
 31
0.0
  0
ARC
  5
16DA2
  8
0
 10
3441.1751102355660805
 20
151.4056552524569952
 30
0.0
 40
0.1107277983991852
 50
236.619603596265506
 51
255.2986135352111035
  0
LINE
  5
16DA3
  8
0
 10
3441.1470095853151179
 20
151.2985525036883132
 30
0.0
 11
3441.1485096125888958
 21
151.3128243097268069
 31
0.0
  0
LINE
  5
16DA4
  8
0
 10
3441.1880099359950691
 20
151.3120002066144991
 30
0.0
 11
3441.186163990615114
 21
151.2944372098882866
 31
0.0
  0
ARC
  5
16DA5
  8
0
 10
3441.1810505332377943
 20
151.4045014171562116
 30
0.0
 40
0.110182925936115
 50
272.6599837927042813
 51
301.3077889506985798
  0
LINE
  5
16DA6
  8
0
 10
3447.3728930458960349
 20
151.9180029290882885
 30
0.0
 11
3446.8969962311148265
 21
144.7655459744883046
 31
0.0
  0
ARC
  5
16DA7
  8
0
 10
3448.0277920892981456
 20
144.6903071928371105
 30
0.0
 40
1.1332961427399211
 50
176.1933712644299135
 51
190.3425876419005931
  0
ARC
  5
16DA8
  8
0
 10
3447.2256094056710936
 20
144.5439098585135866
 30
0.0
 40
0.3178642097074234
 50
190.3425876419005931
 51
230.5359958548012003
  0
ARC
  5
16DA9
  8
0
 10
3447.4880878461958673
 20
144.8954255870984866
 30
0.0
 40
0.7563578932806144
 50
232.1104296298281895
 51
253.1319411499356988
  0
ARC
  5
16DAA
  8
0
 10
3447.2597081903959406
 20
144.1436570052285902
 30
0.0
 40
0.0293377771883207
 50
359.0415644212343977
 51
72.3234088117863365
  0
LINE
  5
16DAB
  8
0
 10
3447.2890418630149725
 20
144.1431662699883134
 30
0.0
 11
3447.2890418630149725
 21
143.8983178897883022
 31
0.0
  0
ARC
  5
16DAC
  8
0
 10
3446.2211885568708567
 20
150.1910355445203038
 30
0.0
 40
2.940192315289762
 50
89.9756591259524043
 51
96.7860080104878335
  0
ARC
  5
16DAD
  8
0
 10
3445.2037347652008066
 20
145.1592956781580881
 30
0.0
 40
7.9795154392004521
 50
85.1832273644340745
 51
86.9573056845748766
  0
ARC
  5
16DAE
  8
0
 10
3445.6272880576148054
 20
153.0876421030883137
 30
0.0
 40
0.0399199644999975
 50
90.0
 51
179.9714916714034132
  0
LINE
  5
16DAF
  8
0
 10
3445.5873680980571407
 20
153.0876619658326092
 30
0.0
 11
3445.5873630761229833
 21
152.7040998729260082
 31
0.0
  0
ARC
  5
16DB0
  8
0
 10
3445.6274385273281951
 20
152.7041436276008994
 30
0.0
 40
0.0400754750910492
 50
180.0625559321703122
 51
274.5656462009446273
  0
ARC
  5
16DB1
  8
0
 10
3445.633157463140833
 20
152.2301776231743133
 30
0.0
 40
0.4340250648189225
 50
79.0092895571833225
 51
90.3338397990429343
  0
ARC
  5
16DB2
  8
0
 10
3445.6665525246999096
 20
152.3844824523725947
 30
0.0
 40
0.2762042058607918
 50
50.1063346165419432
 51
79.7072057006727732
  0
ARC
  5
16DB3
  8
0
 10
3445.6183597389949682
 20
152.3561141045431953
 30
0.0
 40
0.3294143890406703
 50
8.2648743712141961
 51
46.8379788518521067
  0
ARC
  5
16DB4
  8
0
 10
3445.2307230249762142
 20
152.2724090149991127
 30
0.0
 40
0.7255644789478907
 50
359.4303837290694901
 51
10.4064210318228092
  0
ARC
  5
16DB5
  8
0
 10
3445.7453717610510466
 20
152.254319661088914
 30
0.0
 40
0.2111601694843895
 50
347.6810887949910125
 51
2.9524174538830108
  0
ARC
  5
16DB6
  8
0
 10
3445.848040828530884
 20
152.2318986834494012
 30
0.0
 40
0.1060714562208042
 50
324.5713286196381091
 51
347.6810887949910125
  0
ARC
  5
16DB7
  8
0
 10
3445.836978994600031
 20
152.2448392038511997
 30
0.0
 40
0.1226561526704249
 50
283.1919360646314772
 51
322.6408011291683238
  0
ARC
  5
16DB8
  8
0
 10
3445.8006400248200407
 20
152.3819624646158104
 30
0.0
 40
0.2644855011686655
 50
269.1971416328764235
 51
284.0772548640059085
  0
ARC
  5
16DB9
  8
0
 10
3445.7969732734759418
 20
152.077467292893914
 30
0.0
 40
0.0400356553208521
 50
90.0561517599147834
 51
179.949000364993708
  0
LINE
  5
16DBA
  8
0
 10
3445.7569376340147755
 20
152.0775029290882969
 30
0.0
 11
3445.7569376340147755
 21
151.958002929088309
 31
0.0
  0
ARC
  5
16DBB
  8
0
 10
3445.7969376340138297
 20
151.958002929088309
 30
0.0
 40
0.0399999999999956
 50
179.9999999999917861
 51
270.0
  0
ARC
  5
16DBC
  8
0
 10
3446.2155323707779644
 20
150.537319255444487
 30
0.0
 40
2.55401834739975
 50
89.8450410127633603
 51
101.3702472970528987
  0
ARC
  5
16DBD
  8
0
 10
3445.685693780677866
 20
153.1634816440262057
 30
0.0
 40
0.1250704142858202
 50
265.1890991443585222
 51
282.1474160968559204
  0
ARC
  5
16DBE
  8
0
 10
3445.8510312901048565
 20
153.4586996340844962
 30
0.0
 40
0.4551782399327527
 50
234.6020063171162917
 51
247.2766918110810934
  0
LINE
  5
16DBF
  8
0
 10
3445.6752044464151368
 20
153.0388518626882899
 30
0.0
 11
3445.675205271114919
 21
152.7040954770882877
 31
0.0
  0
ARC
  5
16DC0
  8
0
 10
3445.7152285556380775
 20
152.7040955756889957
 30
0.0
 40
0.0400232845236637
 50
180.0001411528824065
 51
265.5050132372970211
  0
LINE
  5
16DC1
  8
0
 10
3445.6242407228310185
 20
152.6641953949882975
 30
0.0
 11
3446.8142340276408504
 21
152.6641953949882975
 31
0.0
  0
LINE
  5
16DC2
  8
0
 10
3445.7969340372151237
 20
152.1175029289883014
 30
0.0
 11
3445.8043460124240482
 21
152.1175029289883014
 31
0.0
  0
LINE
  5
16DC3
  8
0
 10
3445.7969340372151237
 20
152.1175029289883014
 30
0.0
 11
3445.8043460124240482
 21
152.1175029289883014
 31
0.0
  0
ARC
  5
16DC4
  8
0
 10
3446.2134587690570697
 20
150.017898889287693
 30
0.0
 40
3.1133416527329909
 50
83.4035767237299268
 51
89.8347589704379033
  0
ARC
  5
16DC5
  8
0
 10
3447.2411406491291928
 20
145.1592956781580881
 30
0.0
 40
7.9795154392004521
 50
93.0426943154251234
 51
94.8167726355659255
  0
ARC
  5
16DC6
  8
0
 10
3446.8175873567151939
 20
153.0876421030883137
 30
0.0
 40
0.0399199644999975
 50
0.028508328596594
 51
90.0
  0
LINE
  5
16DC7
  8
0
 10
3446.8575073162728586
 20
153.0876619658326092
 30
0.0
 11
3446.857512338207016
 21
152.7040998729260082
 31
0.0
  0
ARC
  5
16DC8
  8
0
 10
3446.8120645805029199
 20
152.7099684160812103
 30
0.0
 40
0.0458250856969062
 50
272.729529655203919
 51
352.6422682116732972
  0
ARC
  5
16DC9
  8
0
 10
3446.8117179511891663
 20
152.2301776231743133
 30
0.0
 40
0.4340250648189225
 50
89.66616020095708
 51
100.9907104428167059
  0
ARC
  5
16DCA
  8
0
 10
3446.7783228896300898
 20
152.3844824523725947
 30
0.0
 40
0.2762042058607918
 50
100.2927942993271984
 51
129.893665383458
  0
ARC
  5
16DCB
  8
0
 10
3446.8265156753350311
 20
152.3561141045431953
 30
0.0
 40
0.3294143890406703
 50
133.1620211481478862
 51
171.735125628785795
  0
ARC
  5
16DCC
  8
0
 10
3447.2141523893537851
 20
152.2724090149991127
 30
0.0
 40
0.7255644789478907
 50
169.5935789681772121
 51
180.5696162709305099
  0
ARC
  5
16DCD
  8
0
 10
3446.6995036532789527
 20
152.254319661088914
 30
0.0
 40
0.2111601694843895
 50
177.0475825461170132
 51
192.3189112050089875
  0
ARC
  5
16DCE
  8
0
 10
3446.5968345858000248
 20
152.2318986834494012
 30
0.0
 40
0.1060714562208042
 50
192.3189112050089875
 51
215.4286713803604982
  0
ARC
  5
16DCF
  8
0
 10
3446.6078964197299683
 20
152.2448392038511997
 30
0.0
 40
0.1226561526704249
 50
217.3591988708317047
 51
256.8080639353684091
  0
ARC
  5
16DD0
  8
0
 10
3446.6442353895108681
 20
152.3819624646158104
 30
0.0
 40
0.2644855011686655
 50
255.9227451359940915
 51
270.8028583671235197
  0
ARC
  5
16DD1
  8
0
 10
3446.6479021408540575
 20
152.077467292893914
 30
0.0
 40
0.0400356553208521
 50
0.050999635006242
 51
89.943848240085174
  0
LINE
  5
16DD2
  8
0
 10
3446.6879377803152238
 20
152.0775029290882969
 30
0.0
 11
3446.6879377803152238
 21
151.958002929088309
 31
0.0
  0
ARC
  5
16DD3
  8
0
 10
3446.6479377803148054
 20
151.958002929088309
 30
0.0
 40
0.0399999999999956
 50
270.0
 51
0.0000000000081422
  0
ARC
  5
16DD4
  8
0
 10
3446.1598893834261617
 20
149.829953075702889
 30
0.0
 40
3.2619749636263862
 50
79.883369682212475
 51
88.9012498072891617
  0
ARC
  5
16DD5
  8
0
 10
3446.7591816336521333
 20
153.1634816440262057
 30
0.0
 40
0.1250704142857482
 50
257.8525839031436249
 51
274.8109008556414778
  0
ARC
  5
16DD6
  8
0
 10
3446.5938441242251429
 20
153.4586996340844962
 30
0.0
 40
0.4551782399327575
 50
292.7233081889189066
 51
305.3979936828837936
  0
LINE
  5
16DD7
  8
0
 10
3446.7696709679162268
 20
153.0388518626882899
 30
0.0
 11
3446.7696701432150803
 21
152.7040954770882877
 31
0.0
  0
ARC
  5
16DD8
  8
0
 10
3446.7296468586919218
 20
152.7040955756889957
 30
0.0
 40
0.0400232845236637
 50
274.4949867627029789
 51
359.9998588471175935
  0
LINE
  5
16DD9
  8
0
 10
3446.6479413771148756
 20
152.1175029289883014
 30
0.0
 11
3446.6405294019059511
 21
152.1175029289883014
 31
0.0
  0
LINE
  5
16DDA
  8
0
 10
3446.6479413771148756
 20
152.1175029289883014
 30
0.0
 11
3446.6405294019059511
 21
152.1175029289883014
 31
0.0
  0
LINE
  5
16DDB
  8
0
 10
3445.7969340372151237
 20
152.1175029289883014
 30
0.0
 11
3446.6479413771148756
 21
152.1175029289883014
 31
0.0
  0
LINE
  5
16DDD
  8
0
 10
3445.1558329165150099
 20
143.8983178897883022
 30
0.0
 11
3445.1558329206141025
 21
144.143178769188296
 31
0.0
  0
ARC
  5
16DDE
  8
0
 10
3445.1846882993299914
 20
144.1435527650581037
 30
0.0
 40
0.0288578023018397
 50
100.6406802172116954
 51
180.7425716126853104
  0
ARC
  5
16DDF
  8
0
 10
3444.6629069060732036
 20
145.6122537263420043
 30
0.0
 40
1.530131059196854
 50
289.7259697777208203
 51
291.348649644452621
  0
ARC
  5
16DE0
  8
0
 10
3445.0298016313868175
 20
144.7488175379835127
 30
0.0
 40
0.5930095613544255
 50
288.7011195378090065
 51
314.5071364801526101
  0
ARC
  5
16DE1
  8
0
 10
3445.0693808821611128
 20
144.6159167894780921
 30
0.0
 40
0.4749448363659415
 50
322.3655015459527817
 51
358.6682101930222757
  0
ARC
  5
16DE2
  8
0
 10
3443.9634828515659137
 20
144.7125717044723103
 30
0.0
 40
1.584378887427456
 50
356.1024791461072141
 51
2.061993505397071
  0
ARC
  5
16DE3
  8
0
 10
-5135.5192906845841208
 20
-105.7417514201517008
 30
0.0
 40
8584.7219986523323314
 50
1.6721892426784191
 51
1.701592489056575
  0
ARC
  5
16DE4
  8
0
 10
3442.2062989226219543
 20
149.1933391780733018
 30
0.0
 40
3.210911806901831
 50
359.6407566974405086
 51
23.7015223682439498
  0
ARC
  5
16DE5
  8
0
 10
3443.7144191849529307
 20
149.7069384807927861
 30
0.0
 40
1.6292275604226929
 50
28.4878946312568218
 51
69.6415814503123158
  0
ARC
  5
16DE6
  8
0
 10
3438.4719863611048822
 20
131.0965207527900986
 30
0.0
 40
20.9590348081280204
 50
73.9085921547979723
 51
80.1848038513242045
  0
ARC
  5
16DE7
  8
0
 10
3441.1226593268597753
 20
147.3755928738023044
 30
0.0
 40
4.4693633960536232
 50
78.0917462584622086
 51
93.9924237229952553
  0
ARC
  5
16DE8
  8
0
 10
3440.8812687580912097
 20
150.8342109706593988
 30
0.0
 40
1.002331733867966
 50
93.9924237229952553
 51
141.7010666793694895
  0
ARC
  5
16DE9
  8
0
 10
3441.3936080115868208
 20
150.429605296382789
 30
0.0
 40
1.6551695868827661
 50
141.7010666793694895
 51
158.6549639513380043
  0
LINE
  5
16DEA
  8
0
 10
3439.450589626530018
 20
151.124635910005793
 30
0.0
 11
3439.3877299626419699
 21
150.8523616255039883
 31
0.0
  0
ARC
  5
16DEB
  8
0
 10
3439.3973202177148778
 20
150.850147533888304
 30
0.0
 40
0.0098425197000013
 50
166.9999615743525965
 51
256.9999615837983811
  0
LINE
  5
16DEC
  8
0
 10
3439.3951061261009272
 20
150.8405572788151119
 30
0.0
 11
3440.1661615343218728
 21
150.6625445669214969
 31
0.0
  0
ARC
  5
16DED
  8
0
 10
3440.1683758795661561
 20
150.6721359205805015
 30
0.0
 40
0.009843647183352
 50
256.9999615837983811
 51
346.9933989713674123
  0
LINE
  5
16DEE
  8
0
 10
3440.1779669795328118
 20
150.6699204767658102
 30
0.0
 11
3440.2408716489781
 21
150.9423897015880129
 31
0.0
  0
ENDSEC
  0
EOF
