  0
SECTION
  2
HEADER
  9
$ACADVER
  1
AC1009
  9
$INSBASE
 10
3635.6731772303478465
 20
146.4538776082897868
 30
0.0
  9
$EXTMIN
 10
3628.7556659223869246
 20
146.4492658623358921
 30
0.0
  9
$EXTMAX
 10
3636.9032147766579328
 20
155.665705067955713
 30
0.0
  9
$LIMMIN
 10
0.0
 20
0.0
  9
$LIMMAX
 10
11.6929133858000007
 20
8.2677165353999982
  9
$ORTHOMODE
 70
     0
  9
$REGENMODE
 70
     1
  9
$FILLMODE
 70
     1
  9
$QTEXTMODE
 70
     0
  9
$MIRRTEXT
 70
     0
  9
$DRAGMODE
 70
     2
  9
$LTSCALE
 40
0.6431102362
  9
$OSMODE
 70
  3839
  9
$ATTMODE
 70
     1
  9
$TEXTSIZE
 40
0.2
  9
$TRACEWID
 40
0.05
  9
$TEXTSTYLE
  7
STANDARD
  9
$CLAYER
  8
0
  9
$CELTYPE
  6
BYLAYER
  9
$CECOLOR
 62
   256
  9
$DIMSCALE
 40
1.0
  9
$DIMASZ
 40
0.1875
  9
$DIMEXO
 40
0.0625
  9
$DIMDLI
 40
0.4443307087
  9
$DIMRND
 40
0.0
  9
$DIMDLE
 40
0.0
  9
$DIMEXE
 40
0.125
  9
$DIMTP
 40
0.01
  9
$DIMTM
 40
0.01
  9
$DIMTXT
 40
2.0
  9
$DIMCEN
 40
0.1052362205
  9
$DIMTSZ
 40
0.0
  9
$DIMTOL
 70
     1
  9
$DIMLIM
 70
     0
  9
$DIMTIH
 70
     1
  9
$DIMTOH
 70
     1
  9
$DIMSE1
 70
     0
  9
$DIMSE2
 70
     0
  9
$DIMTAD
 70
     0
  9
$DIMZIN
 70
     0
  9
$DIMBLK
  1

  9
$DIMASO
 70
     1
  9
$DIMSHO
 70
     1
  9
$DIMPOST
  1
\X
  9
$DIMAPOST
  1

  9
$DIMALT
 70
     1
  9
$DIMALTD
 70
     2
  9
$DIMALTF
 40
25.3999999999999986
  9
$DIMLFAC
 40
1.0
  9
$DIMTOFL
 70
     0
  9
$DIMTVP
 40
0.0
  9
$DIMTIX
 70
     0
  9
$DIMSOXD
 70
     0
  9
$DIMSAH
 70
     0
  9
$DIMBLK1
  1

  9
$DIMBLK2
  1

  9
$DIMSTYLE
  2
STANDARD
  9
$DIMCLRD
 70
     0
  9
$DIMCLRE
 70
     0
  9
$DIMCLRT
 70
     0
  9
$DIMTFAC
 40
1.0
  9
$DIMGAP
 40
0.09
  9
$LUNITS
 70
     2
  9
$LUPREC
 70
     4
  9
$SKETCHINC
 40
0.1
  9
$FILLETRAD
 40
0.0
  9
$AUNITS
 70
     0
  9
$AUPREC
 70
     0
  9
$MENU
  1
.
  9
$ELEVATION
 40
0.0
  9
$PELEVATION
 40
0.0
  9
$THICKNESS
 40
0.0
  9
$LIMCHECK
 70
     0
  9
$BLIPMODE
 70
     0
  9
$CHAMFERA
 40
0.0
  9
$CHAMFERB
 40
0.0
  9
$SKPOLY
 70
     0
  9
$TDCREATE
 40
2458060.468368056230247
  9
$TDUPDATE
 40
2459138.937650463078171
  9
$TDINDWG
 40
0.7208288194
  9
$TDUSRTIMER
 40
0.7208288194
  9
$USRTIMER
 70
     1
  9
$ANGBASE
 50
0.0
  9
$ANGDIR
 70
     0
  9
$PDMODE
 70
     0
  9
$PDSIZE
 40
0.3125
  9
$PLINEWID
 40
0.0
  9
$COORDS
 70
     1
  9
$SPLFRAME
 70
     0
  9
$SPLINETYPE
 70
     6
  9
$SPLINESEGS
 70
     8
  9
$ATTDIA
 70
     1
  9
$ATTREQ
 70
     1
  9
$HANDLING
 70
     1
  9
$HANDSEED
  5
F62E
  9
$SURFTAB1
 70
     6
  9
$SURFTAB2
 70
     6
  9
$SURFTYPE
 70
     6
  9
$SURFU
 70
     6
  9
$SURFV
 70
     6
  9
$UCSNAME
  2

  9
$UCSORG
 10
0.0
 20
0.0
 30
0.0
  9
$UCSXDIR
 10
1.0
 20
0.0
 30
0.0
  9
$UCSYDIR
 10
0.0
 20
1.0
 30
0.0
  9
$PUCSNAME
  2

  9
$PUCSORG
 10
0.0
 20
0.0
 30
0.0
  9
$PUCSXDIR
 10
1.0
 20
0.0
 30
0.0
  9
$PUCSYDIR
 10
0.0
 20
1.0
 30
0.0
  9
$USERI1
 70
     0
  9
$USERI2
 70
     0
  9
$USERI3
 70
     0
  9
$USERI4
 70
     0
  9
$USERI5
 70
     0
  9
$USERR1
 40
0.0
  9
$USERR2
 40
0.0
  9
$USERR3
 40
0.0
  9
$USERR4
 40
0.0
  9
$USERR5
 40
0.0
  9
$WORLDVIEW
 70
     1
  9
$SHADEDGE
 70
     3
  9
$SHADEDIF
 70
    70
  9
$TILEMODE
 70
     1
  9
$MAXACTVP
 70
    64
  9
$PLIMCHECK
 70
     0
  9
$PEXTMIN
 10
1.0000000000000000E+20
 20
1.0000000000000000E+20
 30
1.0000000000000000E+20
  9
$PEXTMAX
 10
-1.0000000000000000E+20
 20
-1.0000000000000000E+20
 30
-1.0000000000000000E+20
  9
$PLIMMIN
 10
0.0
 20
0.0
  9
$PLIMMAX
 10
12.0
 20
9.0
  9
$UNITMODE
 70
     0
  9
$VISRETAIN
 70
     1
  9
$PLINEGEN
 70
     0
  9
$PSLTSCALE
 70
     1
  0
ENDSEC
  0
SECTION
  2
TABLES
  0
TABLE
  2
VPORT
 70
     1
  0
VPORT
  2
*ACTIVE
 70
     0
 10
0.0
 20
0.0
 11
1.0
 21
1.0
 12
0.0
 22
0.0
 13
0.0
 23
0.0
 14
1.0
 24
1.0
 15
0.0
 25
0.0
 16
0.0
 26
0.0
 36
51.0697695668839273
 17
3632.829345703125
 27
151.0574881557772926
 37
0.0
 40
12.3013808392054198
 41
3.314341846758349
 42
50.0
 43
0.0
 44
0.0
 50
0.0
 51
0.0
 71
     0
 72
   100
 73
     1
 74
     1
 75
     0
 76
     0
 77
     0
 78
     0
  0
ENDTAB
  0
TABLE
  2
LTYPE
 70
     2
  0
LTYPE
  2
CONTINUOUS
 70
     0
  3
Solid line
 72
    65
 73
     0
 40
0.0
  0
LTYPE
  2
PHANTOM2
 70
     0
  3
___ _ _ ___ _ _ ___ _ _ ___ _ _
 72
    65
 73
     6
 40
1.25
 49
0.625
 49
-0.125
 49
0.125
 49
-0.125
 49
0.125
 49
-0.125
  0
ENDTAB
  0
TABLE
  2
LAYER
 70
     2
  0
LAYER
  2
0
 70
     0
 62
   255
  6
CONTINUOUS
  0
LAYER
  2
DEFPOINTS
 70
     0
 62
     7
  6
CONTINUOUS
  0
ENDTAB
  0
TABLE
  2
STYLE
 70
     1
  0
STYLE
  2
STANDARD
 70
     0
 40
0.0
 41
0.8
 50
0.0
 71
     0
 42
0.2
  3
txt
  4

  0
ENDTAB
  0
TABLE
  2
VIEW
 70
     0
  0
ENDTAB
  0
TABLE
  2
UCS
 70
     0
  0
ENDTAB
  0
TABLE
  2
APPID
 70
    10
  0
APPID
  2
ACAD
 70
     0
  0
APPID
  2
ACAD_MLEADERVER
 70
     0
  0
APPID
  2
ACAD_EXEMPT_FROM_CAD_STANDARDS
 70
     0
  0
APPID
  2
ACAD_NAV_VCDISPLAY
 70
     0
  0
APPID
  2
ACAECLAYERSTANDARD
 70
     0
  0
APPID
  2
ACCMTRANSPARENCY
 70
     0
  0
APPID
  2
ACAD_DSTYLE_DIMJAG
 70
     0
  0
APPID
  2
ACAD_DSTYLE_DIMTALN
 70
     0
  0
APPID
  2
ACDBATTR
 70
     0
  0
APPID
  2
ACAD_PSEXT
 70
     0
  0
ENDTAB
  0
TABLE
  2
DIMSTYLE
 70
     1
  0
DIMSTYLE
  2
STANDARD
 70
     0
  3

  4

  5

  6

  7

 40
1.0
 41
0.1875
 42
0.0625
 43
0.38
 44
0.125
 45
0.0
 46
0.0
 47
0.01
 48
0.01
140
0.15625
141
0.09
142
0.0
143
25.3999999999999986
144
1.0
145
0.0
146
1.0
147
0.09
 71
     1
 72
     0
 73
     1
 74
     1
 75
     0
 76
     0
 77
     0
 78
     4
170
     0
171
     2
172
     0
173
     0
174
     0
175
     0
176
     0
177
     0
178
     0
  0
ENDTAB
  0
ENDSEC
  0
SECTION
  2
BLOCKS
  0
BLOCK
  8
0
  2
$MODEL_SPACE
 70
     0
 10
0.0
 20
0.0
 30
0.0
  3
$MODEL_SPACE
  1

  0
ENDBLK
  5
21
  8
0
  0
BLOCK
 67
     1
  8
0
  2
$PAPER_SPACE
 70
     0
 10
0.0
 20
0.0
 30
0.0
  3
$PAPER_SPACE
  1

  0
ENDBLK
  5
1D
 67
     1
  8
0
  0
BLOCK
  8
0
  2
_FILLED
 70
     0
 10
0.0
 20
0.0
 30
0.0
  3
_FILLED
  1

  0
SOLID
  5
B630
  8
0
  6
BYBLOCK
 62
     0
 10
0.0
 20
0.0
 30
0.0
 11
-1.0
 21
0.1666666667
 31
0.0
 12
-1.0
 22
-0.1666666667
 32
0.0
 13
-1.0
 23
-0.1666666667
 33
0.0
  0
ENDBLK
  5
B631
  8
0
  6
BYBLOCK
 62
     0
  0
ENDSEC
  0
SECTION
  2
ENTITIES
  0
ATTDEF
  5
AA11
  8
DEFPOINTS
 10
3635.6619053878262093
 20
146.4525991956691939
 30
0.0
 40
0.001
  1
K-15539X
  3

  2
MODELNUMBER
 70
     0
1001
ACDBATTR
1070
     0
1070
     1
  0
ATTDEF
  5
AA12
  8
DEFPOINTS
 10
3635.6619053878262093
 20
146.450932529002614
 30
0.0
 40
0.001
  1
MARGAUX
  3

  2
TRADENAME
 70
     0
1001
ACDBATTR
1070
     0
1070
     1
  0
ATTDEF
  5
AA13
  8
DEFPOINTS
 10
3635.6619053878262093
 20
146.4492658623358921
 30
0.0
 40
0.001
  1
BATHROOM SINK FAUCET
  3

  2
PRODUCT
 70
     0
1001
ACDBATTR
1070
     0
1070
     1
  0
LINE
  5
F3B1
  8
0
 10
3634.4531772303480466
 20
146.4538776082897868
 30
0.0
 11
3636.8931772303481011
 21
146.4538776082897868
 31
0.0
  0
LINE
  5
F3B2
  8
0
 10
3634.4641299472978062
 20
146.7098070913897914
 30
0.0
 11
3636.8821457708750131
 21
146.7098070913897914
 31
0.0
  0
LINE
  5
F3B3
  8
0
 10
3636.9031772303478647
 20
146.4638776082898062
 30
0.0
 11
3636.9031773901488123
 21
146.681917918889809
 31
0.0
  0
ARC
  5
F3B4
  8
0
 10
3636.8760592877601994
 20
146.6833423837504995
 30
0.0
 40
0.0271554888983207
 50
356.9931198594376269
 51
77.0055543783548586
  0
ARC
  5
F3B5
  8
0
 10
3637.0982332535481873
 20
147.6268369807166039
 30
0.0
 40
0.9421452213360486
 50
233.9683947335331027
 51
256.7420138896125081
  0
ARC
  5
F3B6
  8
0
 10
3636.7624005090137871
 20
147.1215789796086142
 30
0.0
 40
0.336975008752569
 50
197.330513956105591
 51
229.607484423138601
  0
ARC
  5
F3B7
  8
0
 10
3637.2898236828168592
 20
147.24121894240389
 30
0.0
 40
0.8771429453959536
 50
173.8043626105290116
 51
194.5269990118443957
  0
LINE
  5
F3B8
  8
0
 10
3636.4178039676480694
 20
147.3358834183898125
 30
0.0
 11
3636.900992252747983
 21
154.4218366673898117
 31
0.0
  0
LINE
  5
F3B9
  8
0
 10
3636.8102431903657816
 20
154.4218302235985902
 30
0.0
 11
3636.3368210533481033
 21
147.3118726796897988
 31
0.0
  0
ARC
  5
F3BA
  8
0
 10
3637.4382223974489534
 20
147.2298996611162067
 30
0.0
 40
1.1044475979242701
 50
175.7435455674811919
 51
189.1791276313070966
  0
ARC
  5
F3BB
  8
0
 10
3636.7152381406631321
 20
147.1130890168772112
 30
0.0
 40
0.3720877401138734
 50
189.1817093488384955
 51
220.8905918899756955
  0
ARC
  5
F3BC
  8
0
 10
3636.9020248890051334
 20
147.3584572335606993
 30
0.0
 40
0.6768717488111641
 50
226.2494251575610065
 51
253.4122189563304914
  0
ARC
  5
F3BD
  8
0
 10
3636.7006357167601891
 20
146.6826069023454977
 30
0.0
 40
0.0283454982236499
 50
358.405885395418693
 51
73.2836464804659045
  0
LINE
  5
F3BE
  8
0
 10
3636.7289702446478259
 20
146.6818183600898067
 30
0.0
 11
3636.7289702446478259
 21
146.464224987430697
 31
0.0
  0
ARC
  5
F3BF
  8
0
 10
3636.7192117815448
 20
146.463648271862013
 30
0.0
 40
0.0097754899100282
 50
271.8005081605107875
 51
3.382190208721775
  0
ARC
  5
F3C0
  8
0
 10
3636.8931772303481011
 20
146.4638776082898062
 30
0.0
 40
0.0100000000000087
 50
270.0000084184040929
 51
359.9999999999674856
  0
ARC
  5
F3C1
  8
0
 10
3630.3772645930780527
 20
148.7845925914901102
 30
0.0
 40
6.107912379363178
 50
85.6954354928487732
 51
101.0276459572033048
  0
ARC
  5
F3C2
  8
0
 10
3629.2571444229479312
 20
154.5344163069898116
 30
0.0
 40
0.2499999557000085
 50
101.1202813448927031
 51
152.5856802046660903
  0
ARC
  5
F3C3
  8
0
 10
3631.6094198361279268
 20
153.3143547155210911
 30
0.0
 40
2.8998584248293708
 50
152.5854719515400006
 51
169.7158900725750073
  0
ARC
  5
F3C4
  8
0
 10
3628.7856648203792247
 20
153.8267035396937104
 30
0.0
 40
0.0299988979917696
 50
169.7055772165369092
 51
256.9990586448390104
  0
LINE
  5
F3C5
  8
0
 10
3628.7789160564047961
 20
153.7974736223904983
 30
0.0
 11
3629.8816249030478502
 21
153.5428931988898
 31
0.0
  0
ARC
  5
F3C6
  8
0
 10
3629.8883739983539272
 20
153.5721223870042138
 30
0.0
 40
0.0299982620374747
 50
256.9981287139660822
 51
329.940379762807197
  0
ARC
  5
F3C7
  8
0
 10
3630.3941928605590874
 20
153.3431624131416982
 30
0.0
 40
0.5253843518509665
 50
106.2959643898947064
 51
155.9712571103829077
  0
ARC
  5
F3C8
  8
0
 10
3630.5735691492809565
 20
151.6747857069580903
 30
0.0
 40
2.197093940499466
 50
85.5465723587174409
 51
98.5539916447985433
  0
ARC
  5
F3C9
  8
0
 10
3630.4177385945890819
 20
148.9549306341749002
 30
0.0
 40
4.921153955351806
 50
78.8048501851830565
 51
86.1966388866893425
  0
ARC
  5
F3CA
  8
0
 10
3466.299166936788879
 20
-680.8861900219268364
 30
0.0
 40
850.8355651180586392
 50
78.6963611125938343
 51
78.8128694164440731
  0
ARC
  5
F3CB
  8
0
 10
3632.4967459102767862
 20
151.2177758060213932
 30
0.0
 40
2.2998864171443638
 50
10.4158989576207297
 51
75.5639861325355326
  0
ARC
  5
F3CC
  8
0
 10
3632.7128267649991358
 20
151.2975176429436885
 30
0.0
 40
2.0733232723527988
 50
2.2055773187620029
 51
9.3280718111502434
  0
ARC
  5
F3CD
  8
0
 10
3627.8451828168731481
 20
151.2783749247643073
 30
0.0
 40
7.0633087942797594
 50
0.5313326957853072
 51
6.3085974850419317
  0
ARC
  5
F3CE
  8
0
 10
3632.7158944590519241
 20
151.9914787756503927
 30
0.0
 40
2.1507491140924579
 50
1.6795395526510031
 51
36.9418133548288026
  0
ARC
  5
F3CF
  8
0
 10
3632.7798143333470762
 20
151.6840433829491133
 30
0.0
 40
2.3020332820549592
 50
44.0317295919642433
 51
77.6842840628843732
  0
ARC
  5
F3D0
  8
0
 10
3616.9977510894641455
 20
77.6784931621663333
 30
0.0
 40
77.9716508330519673
 50
77.9535198898872892
 51
79.2850423549334806
  0
ARC
  5
F3D1
  8
0
 10
3630.538983246970929
 20
149.820236683911503
 30
0.0
 40
4.5713899186527041
 50
77.9352091551235731
 51
91.4695958332305139
  0
ARC
  5
F3D2
  8
0
 10
3630.4365895220880702
 20
153.2095437728185914
 30
0.0
 40
1.1806725315153299
 50
90.7204818342080728
 51
157.2490383111878884
  0
LINE
  5
F3D3
  8
0
 10
3629.6994938071170509
 20
153.3083888836463018
 30
0.0
 11
3628.8391250399181445
 21
153.5070206646462907
 31
0.0
  0
LINE
  5
F3D4
  8
0
 10
3628.8166424696059948
 20
153.5430002982249107
 30
0.0
 11
3628.8705102818139494
 21
153.7763274270319016
 31
0.0
  0
LINE
  5
F3D5
  8
0
 10
3629.7354734407008436
 20
153.3308714540006861
 30
0.0
 11
3629.7893412533549053
 21
153.5641985604027013
 31
0.0
  0
LINE
  5
F3D6
  8
0
 10
3634.4431772303478283
 20
146.4638776082898062
 30
0.0
 11
3634.4431770802880237
 21
146.6819142713345059
 31
0.0
  0
ARC
  5
F3D7
  8
0
 10
3634.4721853356700194
 20
146.6819397225465025
 30
0.0
 40
0.0290082665472967
 50
106.0624631833401992
 51
180.0502700570629031
  0
ARC
  5
F3D8
  8
0
 10
3634.2673572423282167
 20
147.5719690207108954
 30
0.0
 40
0.884330058976927
 50
282.8584710663919282
 51
307.1070857076065863
  0
ARC
  5
F3D9
  8
0
 10
3634.5736194898640861
 20
147.1232543913760935
 30
0.0
 40
0.3427292760297939
 50
311.5358668462357059
 51
342.931947500041872
  0
ARC
  5
F3DA
  8
0
 10
3634.0240734417329804
 20
147.2537193215256934
 30
0.0
 40
0.9071017274302329
 50
345.2429051821072221
 51
3.8499591215965419
  0
LINE
  5
F3DB
  8
0
 10
3634.9291281139480816
 20
147.3146256775897882
 30
0.0
 11
3634.7846140674478193
 21
151.3773096543897907
 31
0.0
  0
LINE
  5
F3DC
  8
0
 10
3634.9081878984889045
 20
151.3438756151074074
 30
0.0
 11
3635.0099455153199415
 21
147.3174643152428871
 31
0.0
  0
ARC
  5
F3DD
  8
0
 10
3633.6641941295670222
 20
147.2711470012121993
 30
0.0
 40
1.3465482114779961
 50
350.7534859734246879
 51
1.971195815257385
  0
ARC
  5
F3DE
  8
0
 10
3634.6099815948527976
 20
147.1184976642825859
 30
0.0
 40
0.388524286366086
 50
320.5584306649606106
 51
350.5609373976561756
  0
ARC
  5
F3DF
  8
0
 10
3634.4662481151030988
 20
147.3080837943095958
 30
0.0
 40
0.622411783355484
 50
285.9904270892656086
 51
315.4796147670285791
  0
ARC
  5
F3E0
  8
0
 10
3634.6458612135370458
 20
146.6826069023454977
 30
0.0
 40
0.0283454982236499
 50
106.7163535195340955
 51
181.5941146045811934
  0
LINE
  5
F3E1
  8
0
 10
3634.6175266856480448
 20
146.6818183600898067
 30
0.0
 11
3634.6175266856480448
 21
146.464224987430697
 31
0.0
  0
ARC
  5
F3E2
  8
0
 10
3634.6272851487510707
 20
146.463648271862013
 30
0.0
 40
0.0097754899100282
 50
176.617809791278205
 51
268.1994918394892125
  0
ARC
  5
F3E3
  8
0
 10
3634.4531772303480466
 20
146.4638776082898062
 30
0.0
 40
0.0100000000000122
 50
180.0000000000455884
 51
269.9999915815437816
  0
ARC
  5
F3E4
  8
0
 10
3628.5246963044451149
 20
128.4312782174955885
 30
0.0
 40
26.5447884221782608
 50
81.2272918391390419
 51
85.0054465212591737
  0
ARC
  5
F3E5
  8
0
 10
3054.6268336349949095
 20
-4184.7999146371130337
 30
0.0
 40
4377.7828018009977313
 50
82.3952230313734333
 51
82.4137767620826907
  0
ARC
  5
F3E6
  8
0
 10
3634.5124040954228803
 20
160.3466282470629096
 30
0.0
 40
5.8927342378631211
 50
264.8003728678361881
 51
269.6794085986559253
  0
LINE
  5
F3E7
  8
0
 10
3634.4794322066481982
 20
154.4539862544897915
 30
0.0
 11
3636.871458852611795
 21
154.4538749795997887
 31
0.0
  0
ARC
  5
F3E8
  8
0
 10
3636.8710617574738535
 20
154.4238776080237017
 30
0.0
 40
0.0299999997670744
 50
356.0990774450413028
 51
89.2415819987225944
  0
ARC
  5
F3E9
  8
0
 10
3636.7806834661519133
 20
154.4242264683088877
 30
0.0
 40
0.0296566903808913
 50
355.3654795353293139
 51
89.0614386366812312
  0
ARC
  5
F3EB
  8
0
 10
3629.7062423380398286
 20
153.3376199819724945
 30
0.0
 40
0.0299999963159222
 50
256.9999997647129817
 51
270.0000013535105268
  0
ARC
  5
F3EC
  8
0
 10
3629.7062423380398286
 20
153.3376199865668923
 30
0.0
 40
0.0300000009103156
 50
270.0000013535105268
 51
346.9999984863214877
  0
ARC
  5
F3ED
  8
0
 10
3628.8458714549569777
 20
153.5362504439970053
 30
0.0
 40
0.0299982352276234
 50
166.9966292262409979
 51
257.0033707644096808
  0
LINE
  5
F3EE
  8
0
 10
3629.4857789737479834
 20
153.5157796732898134
 30
0.0
 11
3629.4578850430489183
 21
153.3949577851898027
 31
0.0
  0
ARC
  5
F3EF
  8
0
 10
3629.4094970793548782
 20
153.4519683800629934
 30
0.0
 40
0.0747770215916757
 50
260.1436806336525933
 51
310.323061251463173
  0
LINE
  5
F3F0
  8
0
 10
3629.4857789737479834
 20
153.5157796732898134
 30
0.0
 11
3629.1221247980479347
 21
153.5997358549898024
 31
0.0
  0
LINE
  5
F3F1
  8
0
 10
3629.1221247980479347
 20
153.5997358549898024
 30
0.0
 11
3629.0942308673270418
 21
153.4789139669717031
 31
0.0
  0
ARC
  5
F3F2
  8
0
 10
3629.1492585015471377
 20
153.493661828840203
 30
0.0
 40
0.0569696406654466
 50
195.003158899285495
 51
251.9488585450523885
  0
ARC
  5
F3F3
  8
0
 10
3635.0713889967519208
 20
154.6687686732489055
 30
0.0
 40
0.5299734333066412
 50
77.3783631478962235
 51
89.1037926601440944
  0
ARC
  5
F3F4
  8
0
 10
3635.0780666876539726
 20
155.238603439052099
 30
0.0
 40
0.0399586803669411
 50
182.6668847920041969
 51
272.3115944499674015
  0
LINE
  5
F3F5
  8
0
 10
3635.0381512851658954
 20
155.2367441970147866
 30
0.0
 11
3635.0382374638938927
 21
155.623977053125401
 31
0.0
  0
ARC
  5
F3F6
  8
0
 10
3635.0779546626208685
 20
155.6222937380734948
 30
0.0
 40
0.0397528542918781
 50
87.2359678110528023
 51
177.5731127860545939
  0
ARC
  5
F3F7
  8
0
 10
3635.1646695938088669
 20
155.2372008621057944
 30
0.0
 40
0.0386852654164653
 50
180.6763709593363956
 51
264.7597985896397859
  0
LINE
  5
F3F8
  8
0
 10
3635.1259870238668555
 20
155.2367441970147866
 30
0.0
 11
3635.1259847197320596
 21
155.5716393296534079
 31
0.0
  0
ARC
  5
F3F9
  8
0
 10
3635.164576696010954
 20
155.5746880424397887
 30
0.0
 40
0.0387122110296704
 50
97.155112952730363
 51
184.5169066344674036
  0
ARC
  5
F3FA
  8
0
 10
3635.1534089023612069
 20
155.6757286632148976
 30
0.0
 40
0.0629505580960659
 50
275.7857351078670263
 51
286.6887235031691148
  0
ARC
  5
F3FB
  8
0
 10
3635.5649136676261151
 20
153.9991017573917134
 30
0.0
 40
1.6635205860207329
 50
92.2288573746394462
 51
103.6802189722372987
  0
ARC
  5
F3FC
  8
0
 10
3634.7500867258381732
 20
149.2709136318850085
 30
0.0
 40
6.3995896323851174
 50
84.868791908180242
 51
87.0461141078367717
  0
LINE
  5
F3FD
  8
0
 10
3635.1597548599452239
 20
155.6130987854652119
 30
0.0
 11
3635.0798716546919422
 21
155.6620003441454116
 31
0.0
  0
ARC
  5
F3FE
  8
0
 10
3636.0034931515128847
 20
139.0580692796424955
 30
0.0
 40
16.6109203778479504
 50
91.1394322070135132
 51
91.7362061393423431
  0
ARC
  5
F3FF
  8
0
 10
3636.2785456780347886
 20
154.6427599114688007
 30
0.0
 40
0.5560441027269097
 50
91.2230253831803282
 51
102.3984436080719007
  0
ARC
  5
F400
  8
0
 10
3636.268296588289104
 20
155.2385929643934048
 30
0.0
 40
0.039948453916556
 50
267.6770003341130746
 51
357.3459301371822221
  0
LINE
  5
F401
  8
0
 10
3636.3082021901400367
 20
155.2367431235325057
 30
0.0
 11
3636.3081166660140298
 21
155.6239759797880993
 31
0.0
  0
ARC
  5
F402
  8
0
 10
3636.2683994644407903
 20
155.6222927318763993
 30
0.0
 40
0.0397528542918781
 50
2.4267903579693662
 51
92.7639353329651044
  0
ARC
  5
F403
  8
0
 10
3636.1819489155959673
 20
155.2370693357252094
 30
0.0
 40
0.0384189195298773
 50
272.1451516201394725
 51
359.5137213912075822
  0
LINE
  5
F404
  8
0
 10
3636.2203664514399861
 20
155.2367432720149054
 30
0.0
 11
3636.2203693217011278
 21
155.571638404649093
 31
0.0
  0
ARC
  5
F405
  8
0
 10
3636.1817773505749756
 20
155.5746871826735003
 30
0.0
 40
0.0387122110296704
 50
355.4829965095602802
 51
82.8447901912782925
  0
ARC
  5
F406
  8
0
 10
3636.1929453150301015
 20
155.6757277845698013
 30
0.0
 40
0.0629505580960659
 50
253.3111796408807095
 51
264.2141680361635849
  0
ARC
  5
F407
  8
0
 10
3635.7814377155032162
 20
153.9991015743796083
 30
0.0
 40
1.6635205860207329
 50
76.31968417179759
 51
87.7710457693816863
  0
ARC
  5
F408
  8
0
 10
3636.5962566644961953
 20
149.2709120714507947
 30
0.0
 40
6.3995896323851156
 50
92.9537890361975343
 51
95.1311112358528135
  0
LINE
  5
F409
  8
0
 10
3636.1865992515731705
 20
155.6130979175478046
 30
0.0
 11
3636.2664825394917898
 21
155.6619993411889027
 31
0.0
  0
ARC
  5
F40A
  8
0
 10
3635.3428715927129815
 20
139.0594636276366032
 30
0.0
 40
16.6095260580871411
 50
88.2636844803311931
 51
88.86051506902065
  0
ARC
  5
F40B
  8
0
 10
3635.1200912317722214
 20
154.9247550697112104
 30
0.0
 40
0.2696623089514562
 50
15.2811875355665094
 51
75.591026433042515
  0
ARC
  5
F40C
  8
0
 10
3634.6477407524198497
 20
154.7957012844391897
 30
0.0
 40
0.7593253102464769
 50
359.1873928098930833
 51
15.2811875355665094
  0
ARC
  5
F40D
  8
0
 10
3635.2866806235629156
 20
154.7757664059228091
 30
0.0
 40
0.1206577305976258
 50
306.3709787198679919
 51
4.3567728333668292
  0
ARC
  5
F40E
  8
0
 10
3635.2437962798458102
 20
154.9852740112600031
 30
0.0
 40
0.3333120828030819
 50
270.6722998395301261
 51
282.1102233904539958
  0
ARC
  5
F40F
  8
0
 10
3635.277902773365895
 20
154.803386499808596
 30
0.0
 40
0.1483950399694305
 50
283.968187442523174
 51
302.7735527645970137
  0
ARC
  5
F410
  8
0
 10
3635.2476766949480407
 20
154.6119848660250966
 30
0.0
 40
0.040000019544238
 50
89.9562722777674679
 51
179.9999884048143031
  0
LINE
  5
F411
  8
0
 10
3635.2076766754030359
 20
154.611984874120111
 30
0.0
 11
3635.2076766754839809
 21
154.4924848741200947
 31
0.0
  0
ARC
  5
F412
  8
0
 10
3635.2491425092439385
 20
154.4924848741480901
 30
0.0
 40
0.04146583375978
 50
180.000000038769997
 51
248.3241415701330936
  0
ARC
  5
F413
  8
0
 10
3636.2257399713298582
 20
154.9250585198352894
 30
0.0
 40
0.2691431689644469
 50
104.3227953106865016
 51
164.7555813797009137
  0
ARC
  5
F414
  8
0
 10
3636.698545768087115
 20
154.7957012844391897
 30
0.0
 40
0.7593253102464769
 50
164.7188124644335119
 51
180.812607190106803
  0
ARC
  5
F415
  8
0
 10
3636.0596058969440492
 20
154.7757664059228091
 30
0.0
 40
0.1206577305976258
 50
175.6432271666332099
 51
233.6290212801320081
  0
ARC
  5
F416
  8
0
 10
3636.1024741738860939
 20
154.9851753494471893
 30
0.0
 40
0.333212245968197
 50
257.8889186938272928
 51
269.3421651503282988
  0
ARC
  5
F417
  8
0
 10
3636.0683837471410698
 20
154.803386499808596
 30
0.0
 40
0.1483950399694305
 50
237.2264472354029863
 51
256.031812557476826
  0
ARC
  5
F418
  8
0
 10
3636.0986094856962154
 20
154.6119847252583099
 30
0.0
 40
0.0400003594077382
 50
0.000213226865966
 51
89.9440877299086026
  0
LINE
  5
F419
  8
0
 10
3636.1386098451030193
 20
154.611984874120111
 30
0.0
 11
3636.1386098450229838
 21
154.4924848741200947
 31
0.0
  0
ARC
  5
F41A
  8
0
 10
3636.0971440112630262
 20
154.4924848741480901
 30
0.0
 40
0.04146583375978
 50
291.5224528130547128
 51
359.999999961230003
  0
LINE
  5
F41B
  8
0
 10
3635.2477072226679411
 20
154.6519848739200995
 30
0.0
 11
3636.0986485201688083
 21
154.6519850656200958
 31
0.0
  0
LINE
  5
F41C
  8
0
 10
3635.0764533852120621
 20
155.1986773399200956
 30
0.0
 11
3636.2699158144100693
 21
155.1986773399200956
 31
0.0
  0
ENDSEC
  0
EOF
