  0
SECTION
  2
HEADER
  9
$ACADVER
  1
AC1009
  9
$INSBASE
 10
3896.8682573203968786
 20
72.068798295749275
 30
0.0
  9
$EXTMIN
 10
3886.1792017825641778
 20
65.7935025503049644
 30
0.0
  9
$EXTMAX
 10
3900.3357278046892134
 20
75.5988135566289969
 30
0.0
  9
$LIMMIN
 10
0.0
 20
0.0
  9
$LIMMAX
 10
11.6929133858000007
 20
8.2677165353999982
  9
$ORTHOMODE
 70
     0
  9
$REGENMODE
 70
     1
  9
$FILLMODE
 70
     1
  9
$QTEXTMODE
 70
     0
  9
$MIRRTEXT
 70
     0
  9
$DRAGMODE
 70
     2
  9
$LTSCALE
 40
0.6431102362
  9
$OSMODE
 70
  4095
  9
$ATTMODE
 70
     1
  9
$TEXTSIZE
 40
0.2
  9
$TRACEWID
 40
0.05
  9
$TEXTSTYLE
  7
STANDARD
  9
$CLAYER
  8
0
  9
$CELTYPE
  6
BYLAYER
  9
$CECOLOR
 62
   256
  9
$DIMSCALE
 40
1.0
  9
$DIMASZ
 40
0.1875
  9
$DIMEXO
 40
0.0625
  9
$DIMDLI
 40
0.4443307087
  9
$DIMRND
 40
0.0
  9
$DIMDLE
 40
0.0
  9
$DIMEXE
 40
0.125
  9
$DIMTP
 40
0.01
  9
$DIMTM
 40
0.01
  9
$DIMTXT
 40
2.0
  9
$DIMCEN
 40
0.1052362205
  9
$DIMTSZ
 40
0.0
  9
$DIMTOL
 70
     1
  9
$DIMLIM
 70
     0
  9
$DIMTIH
 70
     1
  9
$DIMTOH
 70
     1
  9
$DIMSE1
 70
     0
  9
$DIMSE2
 70
     0
  9
$DIMTAD
 70
     0
  9
$DIMZIN
 70
     0
  9
$DIMBLK
  1

  9
$DIMASO
 70
     1
  9
$DIMSHO
 70
     1
  9
$DIMPOST
  1
\X
  9
$DIMAPOST
  1

  9
$DIMALT
 70
     1
  9
$DIMALTD
 70
     2
  9
$DIMALTF
 40
25.3999999999999986
  9
$DIMLFAC
 40
1.0
  9
$DIMTOFL
 70
     0
  9
$DIMTVP
 40
0.0
  9
$DIMTIX
 70
     0
  9
$DIMSOXD
 70
     0
  9
$DIMSAH
 70
     0
  9
$DIMBLK1
  1

  9
$DIMBLK2
  1

  9
$DIMSTYLE
  2
STANDARD
  9
$DIMCLRD
 70
     0
  9
$DIMCLRE
 70
     0
  9
$DIMCLRT
 70
     0
  9
$DIMTFAC
 40
1.0
  9
$DIMGAP
 40
0.09
  9
$LUNITS
 70
     2
  9
$LUPREC
 70
     4
  9
$SKETCHINC
 40
0.1
  9
$FILLETRAD
 40
0.0
  9
$AUNITS
 70
     0
  9
$AUPREC
 70
     0
  9
$MENU
  1
.
  9
$ELEVATION
 40
0.0
  9
$PELEVATION
 40
0.0
  9
$THICKNESS
 40
0.0
  9
$LIMCHECK
 70
     0
  9
$BLIPMODE
 70
     0
  9
$CHAMFERA
 40
0.0
  9
$CHAMFERB
 40
0.0
  9
$SKPOLY
 70
     0
  9
$TDCREATE
 40
2458060.468368056230247
  9
$TDUPDATE
 40
2459081.5607754630036652
  9
$TDINDWG
 40
0.4158751157
  9
$TDUSRTIMER
 40
0.4158751157
  9
$USRTIMER
 70
     1
  9
$ANGBASE
 50
0.0
  9
$ANGDIR
 70
     0
  9
$PDMODE
 70
     0
  9
$PDSIZE
 40
0.3125
  9
$PLINEWID
 40
0.0
  9
$COORDS
 70
     1
  9
$SPLFRAME
 70
     0
  9
$SPLINETYPE
 70
     6
  9
$SPLINESEGS
 70
     8
  9
$ATTDIA
 70
     1
  9
$ATTREQ
 70
     1
  9
$HANDLING
 70
     1
  9
$HANDSEED
  5
71C7
  9
$SURFTAB1
 70
     6
  9
$SURFTAB2
 70
     6
  9
$SURFTYPE
 70
     6
  9
$SURFU
 70
     6
  9
$SURFV
 70
     6
  9
$UCSNAME
  2

  9
$UCSORG
 10
0.0
 20
0.0
 30
0.0
  9
$UCSXDIR
 10
1.0
 20
0.0
 30
0.0
  9
$UCSYDIR
 10
0.0
 20
1.0
 30
0.0
  9
$PUCSNAME
  2

  9
$PUCSORG
 10
0.0
 20
0.0
 30
0.0
  9
$PUCSXDIR
 10
1.0
 20
0.0
 30
0.0
  9
$PUCSYDIR
 10
0.0
 20
1.0
 30
0.0
  9
$USERI1
 70
     0
  9
$USERI2
 70
     0
  9
$USERI3
 70
     0
  9
$USERI4
 70
     0
  9
$USERI5
 70
     0
  9
$USERR1
 40
0.0
  9
$USERR2
 40
0.0
  9
$USERR3
 40
0.0
  9
$USERR4
 40
0.0
  9
$USERR5
 40
0.0
  9
$WORLDVIEW
 70
     1
  9
$SHADEDGE
 70
     3
  9
$SHADEDIF
 70
    70
  9
$TILEMODE
 70
     1
  9
$MAXACTVP
 70
    64
  9
$PLIMCHECK
 70
     0
  9
$PEXTMIN
 10
1.0000000000000000E+20
 20
1.0000000000000000E+20
 30
1.0000000000000000E+20
  9
$PEXTMAX
 10
-1.0000000000000000E+20
 20
-1.0000000000000000E+20
 30
-1.0000000000000000E+20
  9
$PLIMMIN
 10
0.0
 20
0.0
  9
$PLIMMAX
 10
12.0
 20
9.0
  9
$UNITMODE
 70
     0
  9
$VISRETAIN
 70
     1
  9
$PLINEGEN
 70
     0
  9
$PSLTSCALE
 70
     1
  0
ENDSEC
  0
SECTION
  2
TABLES
  0
TABLE
  2
VPORT
 70
     1
  0
VPORT
  2
*ACTIVE
 70
     0
 10
0.0
 20
0.0
 11
1.0
 21
1.0
 12
121.6642656071437045
 22
-50.8949505430469102
 13
0.0
 23
0.0
 14
1.0
 24
1.0
 15
0.0
 25
0.0
 16
0.0
 26
0.0
 36
5.1040778033513332
 17
3792.35791015625
 27
120.1806564331053977
 37
0.0
 40
52.2828313908849509
 41
2.0031380753138071
 42
50.0
 43
0.0
 44
0.0
 50
0.0
 51
0.0
 71
     0
 72
   100
 73
     1
 74
     1
 75
     0
 76
     0
 77
     0
 78
     0
  0
ENDTAB
  0
TABLE
  2
LTYPE
 70
     2
  0
LTYPE
  2
CONTINUOUS
 70
     0
  3
Solid line
 72
    65
 73
     0
 40
0.0
  0
LTYPE
  2
PHANTOM2
 70
     0
  3
___ _ _ ___ _ _ ___ _ _ ___ _ _
 72
    65
 73
     6
 40
1.25
 49
0.625
 49
-0.125
 49
0.125
 49
-0.125
 49
0.125
 49
-0.125
  0
ENDTAB
  0
TABLE
  2
LAYER
 70
     2
  0
LAYER
  2
0
 70
     0
 62
   255
  6
CONTINUOUS
  0
LAYER
  2
DEFPOINTS
 70
     0
 62
     7
  6
CONTINUOUS
  0
ENDTAB
  0
TABLE
  2
STYLE
 70
     1
  0
STYLE
  2
STANDARD
 70
     0
 40
0.0
 41
0.8
 50
0.0
 71
     0
 42
0.2
  3
txt
  4

  0
ENDTAB
  0
TABLE
  2
VIEW
 70
     0
  0
ENDTAB
  0
TABLE
  2
UCS
 70
     0
  0
ENDTAB
  0
TABLE
  2
APPID
 70
     9
  0
APPID
  2
ACAD
 70
     0
  0
APPID
  2
ACAD_MLEADERVER
 70
     0
  0
APPID
  2
ACAD_EXEMPT_FROM_CAD_STANDARDS
 70
     0
  0
APPID
  2
ACAD_NAV_VCDISPLAY
 70
     0
  0
APPID
  2
ACAECLAYERSTANDARD
 70
     0
  0
APPID
  2
ACCMTRANSPARENCY
 70
     0
  0
APPID
  2
ACAD_DSTYLE_DIMJAG
 70
     0
  0
APPID
  2
ACAD_DSTYLE_DIMTALN
 70
     0
  0
APPID
  2
ACDBATTR
 70
     0
  0
ENDTAB
  0
TABLE
  2
DIMSTYLE
 70
     1
  0
DIMSTYLE
  2
STANDARD
 70
     0
  3

  4

  5

  6

  7

 40
1.0
 41
0.1875
 42
0.0625
 43
0.38
 44
0.125
 45
0.0
 46
0.0
 47
0.01
 48
0.01
140
0.15625
141
0.09
142
0.0
143
25.3999999999999986
144
1.0
145
0.0
146
1.0
147
0.09
 71
     1
 72
     0
 73
     1
 74
     1
 75
     0
 76
     0
 77
     0
 78
     4
170
     0
171
     2
172
     0
173
     0
174
     0
175
     0
176
     0
177
     0
178
     0
  0
ENDTAB
  0
ENDSEC
  0
SECTION
  2
BLOCKS
  0
BLOCK
  8
0
  2
$MODEL_SPACE
 70
     0
 10
0.0
 20
0.0
 30
0.0
  3
$MODEL_SPACE
  1

  0
ENDBLK
  5
21
  8
0
  0
BLOCK
 67
     1
  8
0
  2
$PAPER_SPACE
 70
     0
 10
0.0
 20
0.0
 30
0.0
  3
$PAPER_SPACE
  1

  0
ENDBLK
  5
1D
 67
     1
  8
0
  0
BLOCK
  8
0
  2
_FILLED
 70
     0
 10
0.0
 20
0.0
 30
0.0
  3
_FILLED
  1

  0
SOLID
  5
69B4
  8
0
  6
BYBLOCK
 62
     0
 10
0.0
 20
0.0
 30
0.0
 11
-1.0
 21
0.1666666667
 31
0.0
 12
-1.0
 22
-0.1666666667
 32
0.0
 13
-1.0
 23
-0.1666666667
 33
0.0
  0
ENDBLK
  5
69B5
  8
0
  6
BYBLOCK
 62
     0
  0
BLOCK
  8
0
  2
A$CDFAF6206
 70
     0
 10
0.0
 20
0.0
 30
0.0
  3
A$CDFAF6206
  1

  0
LINE
  5
6A0E
  8
0
 10
7.4646650085734834
 20
10.9287685970688493
 30
0.0
 11
7.4646650085734896
 21
10.8905784766688498
 31
0.0
  0
ARC
  5
6A0F
  8
0
 10
7.7269027075262349
 20
10.8926811525838598
 30
0.0
 40
0.2622461286616791
 50
180.4593995232625048
 51
217.0214027758331099
  0
LINE
  5
6A10
  8
0
 10
9.767814609867095
 20
10.9287685970688493
 30
0.0
 11
9.767814609867095
 21
10.8905433757650094
 31
0.0
  0
ARC
  5
6A11
  8
0
 10
9.5068669568548287
 20
10.8922438613003703
 30
0.0
 40
0.2609531936261092
 50
322.8847083717149076
 51
359.6266329125650145
  0
LINE
  5
6A12
  8
0
 10
7.517522606271406
 20
10.7347792678688396
 30
0.0
 11
9.7149570120691777
 21
10.7347792678688396
 31
0.0
  0
LINE
  5
6A13
  8
0
 10
7.4646650085734834
 20
10.9287685970688493
 30
0.0
 11
9.7678146123202936
 21
10.9287685970688493
 31
0.0
  0
ARC
  5
6A14
  8
0
 10
4.0826771419203629
 20
8.527951346868889
 30
0.0
 40
4.0826771653999172
 50
13.3117747050523896
 51
32.7200330051415591
  0
ARC
  5
6A15
  8
0
 10
4.0826771460567306
 20
8.5279513475907933
 30
0.0
 40
4.0826771612084691
 50
359.6656501984817851
 51
13.3117747085593798
  0
ARC
  5
6A16
  8
0
 10
13.1498041284835097
 20
8.5279508235212234
 30
0.0
 40
4.0826788382043553
 50
147.2799733478981068
 51
166.6882233021349862
  0
ARC
  5
6A17
  8
0
 10
13.1498064934207992
 20
8.5279506557033251
 30
0.0
 40
4.0826811782395342
 50
166.688228652086309
 51
180.3343397625230011
  0
LINE
  5
6A18
  8
0
 10
8.1652847935202928
 20
8.504127000268852
 30
0.0
 11
9.0671948248202892
 21
8.5041270002687881
 31
0.0
  0
LINE
  5
6A19
  8
0
 10
8.1652847935202786
 20
8.5041270002667204
 30
0.0
 11
8.1652847935202928
 21
8.3607006934688481
 31
0.0
  0
ARC
  5
6A1A
  8
0
 10
5.6196779630382627
 20
8.3631022096452732
 30
0.0
 40
2.545607963272567
 50
342.0511668832173768
 51
359.945947387132378
  0
LINE
  5
6A1B
  8
0
 10
9.0671948248202892
 20
8.5041270002687881
 30
0.0
 11
9.0671948248202892
 21
8.2885990108688503
 31
0.0
  0
ARC
  5
6A1C
  8
0
 10
9.4521885297801163
 20
7.9614488056228501
 30
0.0
 40
0.5052201595850959
 50
139.6436242991769916
 51
174.6757930071850069
  0
ARC
  5
6A1D
  8
0
 10
9.9238413395551746
 20
8.1492417579399508
 30
0.0
 40
0.9848265662939324
 50
188.2263441834095943
 51
209.5593615864376034
  0
ARC
  5
6A1E
  8
0
 10
8.0788764238271256
 20
7.5665710856463297
 30
0.0
 40
0.0393715937169877
 50
162.1669117288323037
 51
227.2023190037006088
  0
ARC
  5
6A1F
  8
0
 10
8.7223682141740682
 20
8.2079667397440517
 30
0.0
 40
0.947895137885075
 50
225.0018610752970858
 51
261.4598823366255829
  0
ARC
  5
6A20
  8
0
 10
8.6645157662702701
 20
8.1695128573935332
 30
0.0
 40
0.9027466462812931
 50
264.7303071214498118
 51
281.8608311947915013
  0
ARC
  5
6A21
  8
0
 10
8.6645157662698935
 20
8.1695128573999671
 30
0.0
 40
0.9027466462876658
 50
299.1741886792128753
 51
299.1743179154552195
  0
ARC
  5
6A22
  8
0
 10
9.0843330931590316
 20
7.4150554710086141
 30
0.0
 40
0.0393703053609601
 50
251.9700352025496954
 51
252.4698971938937859
  0
ARC
  5
6A23
  8
0
 10
9.0843330931590316
 20
7.4150554710086141
 30
0.0
 40
0.0393703053609601
 50
297.2453716727138726
 51
6.8376113572703074
  0
LINE
  5
6A24
  8
0
 10
9.0671948248202892
 20
7.663402160468852
 30
0.0
 11
9.1234233799329516
 21
7.419742732911689
 31
0.0
  0
ARC
  5
6A25
  8
0
 10
8.8843741880892395
 20
9.8961379890094676
 30
0.0
 40
2.5255097382132701
 50
263.792800240752797
 51
274.9514951129821156
  0
ARC
  5
6A26
  8
0
 10
8.8258167405968848
 20
9.2763025889666508
 30
0.0
 40
1.9029970832759311
 50
246.0108363320686067
 51
263.5276935074397215
  0
ARC
  5
6A27
  8
0
 10
8.607491361665744
 20
8.3225444804829642
 30
0.0
 40
1.064510137163637
 50
283.1717405874071005
 51
297.7022170607311864
  0
LINE
  5
6A28
  8
0
 10
9.0671948248202892
 20
8.2885990108688503
 30
0.0
 11
26.2014378595979593
 21
8.2885990108689942
 31
0.0
  0
LINE
  5
6A29
  8
0
 10
26.2014378595979913
 20
7.6634021604689053
 30
0.0
 11
9.0671948248202892
 21
7.6634021604688618
 31
0.0
  0
LINE
  5
6A2A
  8
0
 10
27.8039676758446994
 20
10.9287685970690802
 30
0.0
 11
27.8039676758446888
 21
10.8905784766690807
 31
0.0
  0
ARC
  5
6A2B
  8
0
 10
27.5417299768919399
 20
10.8926811525840801
 30
0.0
 40
0.2622461286616791
 50
322.9785972241680838
 51
359.5406004767386889
  0
LINE
  5
6A2C
  8
0
 10
25.5008180745510913
 20
10.9287685970690305
 30
0.0
 11
25.5008180745510913
 21
10.8905433757651799
 31
0.0
  0
ARC
  5
6A2D
  8
0
 10
25.7617657275633505
 20
10.8922438613005497
 30
0.0
 40
0.2609531936261092
 50
180.3733670874362929
 51
217.1152916282862861
  0
LINE
  5
6A2E
  8
0
 10
27.7511100781467803
 20
10.7347792678690706
 30
0.0
 11
25.5536756723490015
 21
10.7347792678690208
 31
0.0
  0
LINE
  5
6A2F
  8
0
 10
27.8039676758446888
 20
10.9287685970686006
 30
0.0
 11
25.5008180745510806
 21
10.9287685970686006
 31
0.0
  0
ARC
  5
6A30
  8
0
 10
31.1859555424978616
 20
8.5279513468691981
 30
0.0
 40
4.0826771653999172
 50
147.2799669948597057
 51
166.6882252949490066
  0
ARC
  5
6A31
  8
0
 10
31.185955538361501
 20
8.5279513475911024
 30
0.0
 40
4.0826771612084691
 50
166.6882252914419098
 51
180.3343498015194086
  0
ARC
  5
6A32
  8
0
 10
22.1188285559344706
 20
8.5279508235212251
 30
0.0
 40
4.0826788382046102
 50
13.3117766978667795
 51
32.7200266521023977
  0
ARC
  5
6A33
  8
0
 10
22.1188261909974315
 20
8.5279506557034264
 30
0.0
 40
4.0826811782395342
 50
359.665660237478221
 51
13.31177134791497
  0
LINE
  5
6A34
  8
0
 10
27.1033478908979397
 20
8.5041270002690652
 30
0.0
 11
26.2014378595979416
 21
8.5041270002689835
 31
0.0
  0
LINE
  5
6A35
  8
0
 10
27.1033478908979504
 20
8.5041270002669354
 30
0.0
 11
27.1033478908979397
 21
8.3607006934690649
 31
0.0
  0
ARC
  5
6A36
  8
0
 10
29.6489547213799689
 20
8.3631022096455467
 30
0.0
 40
2.545607963272567
 50
180.0540526128687873
 51
197.9488331167837032
  0
LINE
  5
6A37
  8
0
 10
26.2014378595979416
 20
8.5041270002689835
 30
0.0
 11
26.2014378595979487
 21
8.2885990108690457
 31
0.0
  0
ARC
  5
6A38
  8
0
 10
25.8164441546381305
 20
7.9614488056230366
 30
0.0
 40
0.5052201595850959
 50
5.324206992816312
 51
40.3563757008241879
  0
ARC
  5
6A39
  8
0
 10
25.3447913448601803
 20
8.149241757940846
 30
0.0
 40
0.9848265662968968
 50
330.4406384136033807
 51
351.7736558165743759
  0
ARC
  5
6A3A
  8
0
 10
27.1897562605911212
 20
7.5665710856465473
 30
0.0
 40
0.0393715937169877
 50
312.7976809963004143
 51
17.8330882711689185
  0
ARC
  5
6A3B
  8
0
 10
26.5462644702441715
 20
8.2079667397442542
 30
0.0
 40
0.947895137885075
 50
278.5401176633754972
 51
314.9981389247041079
  0
ARC
  5
6A3C
  8
0
 10
26.6041169181479695
 20
8.1695128573937392
 30
0.0
 40
0.9027466462812931
 50
258.139168805210204
 51
275.2696928785518935
  0
ARC
  5
6A3D
  8
0
 10
26.6041169181483497
 20
8.1695128574001732
 30
0.0
 40
0.9027466462876658
 50
240.8256820845460027
 51
240.8258113207880058
  0
ARC
  5
6A3E
  8
0
 10
26.1842995912592293
 20
7.4150554710088086
 30
0.0
 40
0.0393703053609601
 50
287.5301028061073794
 51
288.0299647974517825
  0
ARC
  5
6A3F
  8
0
 10
26.1842995912592293
 20
7.4150554710088086
 30
0.0
 40
0.0393703053609601
 50
173.1623886427310026
 51
242.7546283272870085
  0
LINE
  5
6A40
  8
0
 10
26.2014378595981192
 20
7.6634021604690448
 30
0.0
 11
26.1452093044853093
 21
7.4197427329118826
 31
0.0
  0
ARC
  5
6A41
  8
0
 10
26.384258496328961
 20
9.8961379890096666
 30
0.0
 40
2.5255097382132701
 50
265.0485048870193054
 51
276.2071997592482262
  0
ARC
  5
6A42
  8
0
 10
26.4428159438213299
 20
9.2763025889668516
 30
0.0
 40
1.9029970832759311
 50
276.4723064925619838
 51
293.9891636679327007
  0
ARC
  5
6A43
  8
0
 10
26.6611413227524885
 20
8.3225444804831703
 30
0.0
 40
1.064510137163637
 50
242.2977829392704052
 51
256.8282594125943774
  0
LINE
  5
6A44
  8
0
 62
     4
 10
17.9031473532159602
 20
10.9287685970686006
 30
0.0
 11
24.6329820359843588
 21
20.0952817181593808
 31
0.0
  0
LINE
  5
6A45
  8
0
 62
     4
 10
17.9031473532159602
 20
-0.0000000300842942
 30
0.0
 11
22.3963351323106608
 21
4.993614497796286
 31
0.0
  0
ENDBLK
  5
6A49
  8
0
  0
ENDSEC
  0
SECTION
  2
ENTITIES
  0
ATTDEF
  5
3930
  8
DEFPOINTS
 10
3896.8689664274811548
 20
72.0708567858431763
 30
0.0
 40
0.001
  1
K-15578A-4
  3

  2
MODELNUMBER
 70
     0
1001
ACDBATTR
1070
     0
1070
     1
  0
ATTDEF
  5
3931
  8
DEFPOINTS
 10
3896.8689664274811548
 20
72.0691901191765112
 30
0.0
 40
0.001
  1
PURIST
  3

  2
TRADENAME
 70
     0
1001
ACDBATTR
1070
     0
1070
     1
  0
ATTDEF
  5
3932
  8
DEFPOINTS
 10
3896.8689664274811548
 20
72.067523452509846
 30
0.0
 40
0.001
  1
VALVE TRIM
  3

  2
PRODUCT
 70
     0
1001
ACDBATTR
1070
     0
1070
     1
  0
LINE
  5
7148
  8
0
 10
3892.6216431472330441
 20
74.4147353038283654
 30
0.0
 11
3892.6216431472330441
 21
70.4447353038283666
 31
0.0
  0
LINE
  5
7149
  8
0
 10
3893.2216431472338627
 20
74.4147353038283654
 30
0.0
 11
3893.2216466296667932
 21
73.3602325625760727
 31
0.0
  0
LINE
  5
714A
  8
0
 10
3893.2216468054330107
 20
72.7852330739283673
 30
0.0
 11
3893.2216431472338627
 21
70.4447353038283666
 31
0.0
  0
LINE
  5
714B
  8
0
 10
3892.6316458237329243
 20
70.4347353036492763
 30
0.0
 11
3893.2116431472331897
 21
70.4347353036492763
 31
0.0
  0
ARC
  5
714C
  8
0
 10
3892.6316431481491236
 20
70.4447353042081232
 30
0.0
 40
0.01000000091679
 50
180.0000021759240099
 51
270.0153299613403988
  0
ARC
  5
714D
  8
0
 10
3893.2116431469280542
 20
70.4447353039549853
 30
0.0
 40
0.0100000003057166
 50
270.0000017516064759
 51
359.9999992744391193
  0
ARC
  5
714E
  8
0
 10
3892.6316431481491236
 20
74.4147353034486514
 30
0.0
 40
0.010000000916524
 50
89.9846706100741471
 51
179.9999978244395038
  0
ARC
  5
714F
  8
0
 10
3893.2116431463168738
 20
74.4147353034487367
 30
0.0
 40
0.0100000009164543
 50
0.0000021751330022
 51
90.0153293903166656
  0
LINE
  5
7150
  8
0
 10
3892.6316458236328799
 20
74.424735304007271
 30
0.0
 11
3893.2116404708331174
 21
74.424735304007271
 31
0.0
  0
ARC
  5
7151
  8
0
 10
3893.6916492798332001
 20
73.7427353038283542
 30
0.0
 40
0.4000000000000004
 50
270.0
 51
0.0
  0
ARC
  5
7152
  8
0
 10
3893.6916492798332001
 20
72.402735303828365
 30
0.0
 40
0.3999999999999977
 50
359.9999999999996021
 51
90.0
  0
ARC
  5
7153
  8
0
 10
3894.1216493735760196
 20
72.146245180812997
 30
0.0
 40
0.0300000937430266
 50
180.0000677704383918
 51
269.4881095736661223
  0
ARC
  5
7154
  8
0
 10
3819.6491944441409032
 20
-8468.6708303205887205
 30
0.0
 40
8541.1117540121649654
 50
89.4995831761184348
 51
89.500416785100569
  0
ARC
  5
7155
  8
0
 10
3894.4174241065861679
 20
71.1714147621062239
 30
0.0
 40
0.9592535107986379
 50
78.6839712180089208
 51
100.3160459070987969
  0
ARC
  5
7156
  8
0
 10
3895.0535994096007926
 20
72.1511625037568081
 30
0.0
 40
0.0430498702324775
 50
269.4999840510980107
 51
0.0000168647693705
  0
LINE
  5
7157
  8
0
 10
3894.60564927983296
 20
72.1120201959283662
 30
0.0
 11
3895.0532237213960798
 21
72.1081142728360618
 31
0.0
  0
ARC
  5
7158
  8
0
 10
3894.8936326224461482
 20
73.0234779976380679
 30
0.0
 40
0.2030181393791296
 50
0.218924003417541
 51
26.8491075131578114
  0
ARC
  5
7159
  8
0
 10
3894.6626452023010643
 20
73.985738800726466
 30
0.0
 40
0.048207180249373
 50
17.9001717696953584
 51
90.4650075407084984
  0
ARC
  5
715A
  8
0
 10
3900.4293556554612223
 20
75.8485779218304259
 30
0.0
 40
6.011918152464208
 50
197.9021969177813105
 51
207.0433770809412977
  0
ARC
  5
715B
  8
0
 10
3895.2269527613329956
 20
73.0727353043344863
 30
0.0
 40
0.8070866136595748
 50
90.7223628672402214
 51
118.5921226544842995
  0
ARC
  5
715C
  8
0
 10
3895.2157848983329131
 20
73.9584916745283607
 30
0.0
 40
0.0787401574999935
 50
270.7223628866007061
 51
344.9999884862173758
  0
ARC
  5
715D
  8
0
 10
3895.3282502046267837
 20
73.9979321543508206
 30
0.0
 40
0.019685039177545
 50
89.9999994008889388
 51
165.0000243028505906
  0
ARC
  5
715E
  8
0
 10
3895.3643264452321091
 20
74.025491209328365
 30
0.0
 40
0.0118110236000035
 50
90.0000000000260485
 51
180.0000000000084981
  0
ARC
  5
715F
  8
0
 10
3895.2269544936129932
 20
73.0727491130124349
 30
0.0
 40
0.8071005218648027
 50
260.7090144101013038
 51
269.2755276115860852
  0
ARC
  5
7160
  8
0
 10
3895.2157850546659574
 20
72.1869790368922679
 30
0.0
 40
0.0787399796375092
 50
14.9999680244668507
 51
89.2982392029955605
  0
ARC
  5
7161
  8
0
 10
3895.3282502048400602
 20
72.147538453447865
 30
0.0
 40
0.0196850394194985
 50
194.9999759362025884
 51
269.9999996896837047
  0
ARC
  5
7162
  8
0
 10
3895.3643264452321091
 20
72.1199793983283541
 30
0.0
 40
0.0118110236000035
 50
179.9999999999955094
 51
269.9999999999739089
  0
ARC
  5
7163
  8
0
 10
3893.2261034446978556
 20
73.1581069056054503
 30
0.0
 40
0.1596324586567073
 50
167.1476612396371877
 51
180.4917753132816927
  0
ARC
  5
7164
  8
0
 10
3893.147072551373185
 20
73.1778998122195929
 30
0.0
 40
0.0781977050549494
 50
140.0053447833678035
 51
168.4061513974122875
  0
ARC
  5
7165
  8
0
 10
3905.8316674681191216
 20
60.3809513429389995
 30
0.0
 40
18.096217352103249
 50
134.2525939742768912
 51
134.7700613107180914
  0
ARC
  5
7166
  8
0
 10
3893.2261034308307899
 20
72.987363699626826
 30
0.0
 40
0.1596324446209185
 50
179.5082275779774932
 51
192.8523390540156868
  0
ARC
  5
7167
  8
0
 10
3893.147072551373185
 20
72.9675707953371102
 30
0.0
 40
0.0781977050549494
 50
191.5938486025877125
 51
219.9946552166321965
  0
ARC
  5
7168
  8
0
 10
3905.9968592367517886
 20
85.9324508071408957
 30
0.0
 40
18.3317770091366583
 50
225.2330391073097928
 51
225.7439132605207135
  0
LINE
  5
7169
  8
0
 10
3893.0664768660330992
 20
73.1567367813283624
 30
0.0
 11
3893.0664768660330992
 21
72.9887338157283665
 31
0.0
  0
LINE
  5
716A
  8
0
 10
3893.6916492798332001
 20
72.8027353038283707
 30
0.0
 11
3893.2037252367331348
 21
72.8027222962283531
 31
0.0
  0
LINE
  5
716B
  8
0
 10
3893.6916492798332001
 20
73.3427353038283627
 30
0.0
 11
3893.2037128037331968
 21
73.3427353038283627
 31
0.0
  0
LINE
  5
716C
  8
0
 10
3893.2037252367331348
 20
72.8027222962283673
 30
0.0
 11
3893.2216468054330107
 21
72.7852330739283673
 31
0.0
  0
LINE
  5
716D
  8
0
 10
3893.2037128037331968
 20
73.3427353038283627
 30
0.0
 11
3893.2216466296667932
 21
73.3602325625760727
 31
0.0
  0
LINE
  5
716E
  8
0
 10
3894.0916492798328363
 20
73.9992254622283667
 30
0.0
 11
3894.0916492798328363
 21
72.1462451453283649
 31
0.0
  0
ARC
  5
716F
  8
0
 10
3894.1216493729671129
 20
73.9992254269886018
 30
0.0
 40
0.030000093134524
 50
90.5118892773361665
 51
179.9999326972360052
  0
LINE
  5
7170
  8
0
 10
3894.1213813511021726
 20
74.0292243228325759
 30
0.0
 11
3894.6622539613331355
 21
74.033944393328369
 31
0.0
  0
LINE
  5
7171
  8
0
 10
3895.0966492798329455
 20
73.0242537168283405
 30
0.0
 11
3895.0966492798329455
 21
72.1511625164283572
 31
0.0
  0
LINE
  5
7172
  8
0
 10
3894.8407043978209003
 20
73.781396721114902
 30
0.0
 11
3894.8407043980328126
 21
73.6326950289904261
 31
0.0
  0
LINE
  5
7173
  8
0
 10
3895.2918420459332083
 20
73.9381122068690502
 30
0.0
 11
3895.3092359147308343
 21
74.0030270093227927
 31
0.0
  0
LINE
  5
7174
  8
0
 10
3895.2918420459332083
 20
72.2073584007876832
 30
0.0
 11
3895.3092359147331081
 21
72.1424435983283558
 31
0.0
  0
LINE
  5
7175
  8
0
 10
3895.3282502048400602
 20
72.1278534140283654
 30
0.0
 11
3895.352515421633143
 21
72.1278534140283654
 31
0.0
  0
LINE
  5
7176
  8
0
 10
3895.3282502046267837
 20
74.0176171935283662
 30
0.0
 11
3895.352515421633143
 21
74.0176171935283662
 31
0.0
  0
LINE
  5
7177
  8
0
 10
3895.3092359147308343
 20
74.0030270093227927
 30
0.0
 11
3895.3092359147331081
 21
72.1424435983595203
 31
0.0
  0
LINE
  5
7178
  8
0
 10
3895.352515421633143
 20
72.1199793983283541
 30
0.0
 11
3895.352515421633143
 21
74.025491209328365
 31
0.0
  0
LINE
  5
7179
  8
0
 10
3895.3643264452321091
 20
72.1081683747283648
 30
0.0
 11
3896.5926667692961018
 21
72.1081683747283648
 31
0.0
  0
LINE
  5
717A
  8
0
 10
3895.3643264452321091
 20
74.0373022329283685
 30
0.0
 11
3896.5926667692961018
 21
74.0373022329283685
 31
0.0
  0
LINE
  5
717B
  8
0
 10
3896.5926667691960574
 20
75.5136514967283574
 30
0.0
 11
3896.5926667691960574
 21
68.6239450951283629
 31
0.0
  0
LINE
  5
717C
  8
0
 10
3896.6320368478959608
 20
68.584546327249285
 30
0.0
 11
3896.769832123496144
 21
68.584546327249285
 31
0.0
  0
LINE
  5
717D
  8
0
 10
3896.769832123496144
 20
68.584546327249285
 30
0.0
 11
3896.769832123496144
 21
68.5865487712283652
 31
0.0
  0
LINE
  5
717E
  8
0
 10
3896.798801409096086
 20
68.588043691328366
 30
0.0
 11
3896.8682573203968786
 21
68.5881070240283606
 31
0.0
  0
LINE
  5
717F
  8
0
 10
3896.8682573203968786
 20
68.5881070240283606
 30
0.0
 11
3896.8682573203968786
 21
75.5530502642492792
 31
0.0
  0
LINE
  5
7180
  8
0
 10
3896.8682573203968786
 20
75.5530502642492792
 30
0.0
 11
3896.6320368478959608
 21
75.5530502642492792
 31
0.0
  0
ARC
  5
7181
  8
0
 10
3896.6320368549731938
 20
75.5136801680327636
 30
0.0
 40
0.0393700962165198
 50
90.000010298618534
 51
180.0417257014455004
  0
ARC
  5
7182
  8
0
 10
3896.6320368555839195
 20
68.6239164240766826
 30
0.0
 40
0.0393700968273951
 50
179.958274666986398
 51
269.9999888120947276
  0
ARC
  5
7183
  8
0
 10
3896.7981693915871801
 20
68.3188533503701763
 30
0.0
 40
0.2691910828971051
 50
89.8654785711652551
 51
96.0426204951161822
  0
ENDSEC
  0
EOF
