  0
SECTION
  2
HEADER
  9
$ACADVER
  1
AC1009
  9
$INSBASE
 10
3412.5913356632599971
 20
87.650017276794145
 30
0.0
  9
$EXTMIN
 10
3382.4833782521927787
 20
55.5378653865109513
 30
-0.0000000000000058
  9
$EXTMAX
 10
3442.6489555055600249
 20
87.6572618189966875
 30
0.0000000000000104
  9
$LIMMIN
 10
0.0
 20
0.0
  9
$LIMMAX
 10
11.6929133858000007
 20
8.2677165353999982
  9
$ORTHOMODE
 70
     0
  9
$REGENMODE
 70
     1
  9
$FILLMODE
 70
     1
  9
$QTEXTMODE
 70
     0
  9
$MIRRTEXT
 70
     0
  9
$DRAGMODE
 70
     2
  9
$LTSCALE
 40
0.6431102362
  9
$OSMODE
 70
  4095
  9
$ATTMODE
 70
     1
  9
$TEXTSIZE
 40
0.2
  9
$TRACEWID
 40
0.05
  9
$TEXTSTYLE
  7
STANDARD
  9
$CLAYER
  8
0
  9
$CELTYPE
  6
BYLAYER
  9
$CECOLOR
 62
   256
  9
$DIMSCALE
 40
1.0
  9
$DIMASZ
 40
0.1875
  9
$DIMEXO
 40
0.0625
  9
$DIMDLI
 40
0.4443307087
  9
$DIMRND
 40
0.0
  9
$DIMDLE
 40
0.0
  9
$DIMEXE
 40
0.125
  9
$DIMTP
 40
0.01
  9
$DIMTM
 40
0.01
  9
$DIMTXT
 40
2.0
  9
$DIMCEN
 40
0.1052362205
  9
$DIMTSZ
 40
0.0
  9
$DIMTOL
 70
     1
  9
$DIMLIM
 70
     0
  9
$DIMTIH
 70
     1
  9
$DIMTOH
 70
     1
  9
$DIMSE1
 70
     0
  9
$DIMSE2
 70
     0
  9
$DIMTAD
 70
     0
  9
$DIMZIN
 70
     0
  9
$DIMBLK
  1

  9
$DIMASO
 70
     1
  9
$DIMSHO
 70
     1
  9
$DIMPOST
  1
\X
  9
$DIMAPOST
  1

  9
$DIMALT
 70
     1
  9
$DIMALTD
 70
     2
  9
$DIMALTF
 40
25.3999999999999986
  9
$DIMLFAC
 40
1.0
  9
$DIMTOFL
 70
     0
  9
$DIMTVP
 40
0.0
  9
$DIMTIX
 70
     0
  9
$DIMSOXD
 70
     0
  9
$DIMSAH
 70
     0
  9
$DIMBLK1
  1

  9
$DIMBLK2
  1

  9
$DIMSTYLE
  2
STANDARD
  9
$DIMCLRD
 70
     0
  9
$DIMCLRE
 70
     0
  9
$DIMCLRT
 70
     0
  9
$DIMTFAC
 40
1.0
  9
$DIMGAP
 40
0.09
  9
$LUNITS
 70
     2
  9
$LUPREC
 70
     4
  9
$SKETCHINC
 40
0.1
  9
$FILLETRAD
 40
0.0
  9
$AUNITS
 70
     0
  9
$AUPREC
 70
     0
  9
$MENU
  1
.
  9
$ELEVATION
 40
0.0
  9
$PELEVATION
 40
0.0
  9
$THICKNESS
 40
0.0
  9
$LIMCHECK
 70
     0
  9
$BLIPMODE
 70
     0
  9
$CHAMFERA
 40
0.0
  9
$CHAMFERB
 40
0.0
  9
$SKPOLY
 70
     0
  9
$TDCREATE
 40
2458060.468368056230247
  9
$TDUPDATE
 40
2460060.5035300930030644
  9
$TDINDWG
 40
0.2928658565
  9
$TDUSRTIMER
 40
0.2928658565
  9
$USRTIMER
 70
     1
  9
$ANGBASE
 50
0.0
  9
$ANGDIR
 70
     0
  9
$PDMODE
 70
     0
  9
$PDSIZE
 40
0.3125
  9
$PLINEWID
 40
0.0
  9
$COORDS
 70
     1
  9
$SPLFRAME
 70
     0
  9
$SPLINETYPE
 70
     6
  9
$SPLINESEGS
 70
     8
  9
$ATTDIA
 70
     1
  9
$ATTREQ
 70
     1
  9
$HANDLING
 70
     1
  9
$HANDSEED
  5
7A3C
  9
$SURFTAB1
 70
     6
  9
$SURFTAB2
 70
     6
  9
$SURFTYPE
 70
     6
  9
$SURFU
 70
     6
  9
$SURFV
 70
     6
  9
$UCSNAME
  2

  9
$UCSORG
 10
0.0
 20
0.0
 30
0.0
  9
$UCSXDIR
 10
1.0
 20
0.0
 30
0.0
  9
$UCSYDIR
 10
0.0
 20
1.0
 30
0.0
  9
$PUCSNAME
  2

  9
$PUCSORG
 10
0.0
 20
0.0
 30
0.0
  9
$PUCSXDIR
 10
1.0
 20
0.0
 30
0.0
  9
$PUCSYDIR
 10
0.0
 20
1.0
 30
0.0
  9
$USERI1
 70
     0
  9
$USERI2
 70
     0
  9
$USERI3
 70
     0
  9
$USERI4
 70
     0
  9
$USERI5
 70
     0
  9
$USERR1
 40
0.0
  9
$USERR2
 40
0.0
  9
$USERR3
 40
0.0
  9
$USERR4
 40
0.0
  9
$USERR5
 40
0.0
  9
$WORLDVIEW
 70
     1
  9
$SHADEDGE
 70
     3
  9
$SHADEDIF
 70
    70
  9
$TILEMODE
 70
     1
  9
$MAXACTVP
 70
    64
  9
$PLIMCHECK
 70
     0
  9
$PEXTMIN
 10
1.0000000000000000E+20
 20
1.0000000000000000E+20
 30
1.0000000000000000E+20
  9
$PEXTMAX
 10
-1.0000000000000000E+20
 20
-1.0000000000000000E+20
 30
-1.0000000000000000E+20
  9
$PLIMMIN
 10
0.0
 20
0.0
  9
$PLIMMAX
 10
12.0
 20
9.0
  9
$UNITMODE
 70
     0
  9
$VISRETAIN
 70
     1
  9
$PLINEGEN
 70
     0
  9
$PSLTSCALE
 70
     1
  0
ENDSEC
  0
SECTION
  2
TABLES
  0
TABLE
  2
VPORT
 70
     1
  0
VPORT
  2
*ACTIVE
 70
     0
 10
0.0
 20
0.0
 11
1.0
 21
1.0
 12
244.9896287929387029
 22
-0.7602893330371927
 13
0.0
 23
0.0
 14
1.0
 24
1.0
 15
0.0
 25
0.0
 16
0.0
 26
0.0
 36
91.4160890752958437
 17
3167.5765380859370453
 27
72.3578529357910156
 37
0.0
 40
32.4087603643099271
 41
2.8436090225563899
 42
50.0
 43
0.0
 44
0.0
 50
0.0
 51
0.0
 71
     0
 72
   100
 73
     1
 74
     1
 75
     0
 76
     0
 77
     0
 78
     0
  0
ENDTAB
  0
TABLE
  2
LTYPE
 70
     2
  0
LTYPE
  2
CONTINUOUS
 70
     0
  3
Solid line
 72
    65
 73
     0
 40
0.0
  0
LTYPE
  2
PHANTOM2
 70
     0
  3
___ _ _ ___ _ _ ___ _ _ ___ _ _
 72
    65
 73
     6
 40
1.25
 49
0.625
 49
-0.125
 49
0.125
 49
-0.125
 49
0.125
 49
-0.125
  0
ENDTAB
  0
TABLE
  2
LAYER
 70
     2
  0
LAYER
  2
0
 70
     0
 62
   255
  6
CONTINUOUS
  0
LAYER
  2
DEFPOINTS
 70
     0
 62
     7
  6
CONTINUOUS
  0
ENDTAB
  0
TABLE
  2
STYLE
 70
     1
  0
STYLE
  2
STANDARD
 70
     0
 40
0.0
 41
0.8
 50
0.0
 71
     0
 42
0.2
  3
txt
  4

  0
ENDTAB
  0
TABLE
  2
VIEW
 70
     0
  0
ENDTAB
  0
TABLE
  2
UCS
 70
     0
  0
ENDTAB
  0
TABLE
  2
APPID
 70
     9
  0
APPID
  2
ACAD
 70
     0
  0
APPID
  2
ACAD_MLEADERVER
 70
     0
  0
APPID
  2
ACAD_EXEMPT_FROM_CAD_STANDARDS
 70
     0
  0
APPID
  2
ACAD_NAV_VCDISPLAY
 70
     0
  0
APPID
  2
ACAECLAYERSTANDARD
 70
     0
  0
APPID
  2
ACCMTRANSPARENCY
 70
     0
  0
APPID
  2
ACAD_DSTYLE_DIMJAG
 70
     0
  0
APPID
  2
ACAD_DSTYLE_DIMTALN
 70
     0
  0
APPID
  2
ACDBATTR
 70
     0
  0
ENDTAB
  0
TABLE
  2
DIMSTYLE
 70
     1
  0
DIMSTYLE
  2
STANDARD
 70
     0
  3

  4

  5

  6

  7

 40
1.0
 41
0.1875
 42
0.0625
 43
0.38
 44
0.125
 45
0.0
 46
0.0
 47
0.01
 48
0.01
140
0.15625
141
0.09
142
0.0
143
25.3999999999999986
144
1.0
145
0.0
146
1.0
147
0.09
 71
     1
 72
     0
 73
     1
 74
     1
 75
     0
 76
     0
 77
     0
 78
     4
170
     0
171
     2
172
     0
173
     0
174
     0
175
     0
176
     0
177
     0
178
     0
  0
ENDTAB
  0
ENDSEC
  0
SECTION
  2
BLOCKS
  0
BLOCK
  8
0
  2
$MODEL_SPACE
 70
     0
 10
0.0
 20
0.0
 30
0.0
  3
$MODEL_SPACE
  1

  0
ENDBLK
  5
21
  8
0
  0
BLOCK
 67
     1
  8
0
  2
$PAPER_SPACE
 70
     0
 10
0.0
 20
0.0
 30
0.0
  3
$PAPER_SPACE
  1

  0
ENDBLK
  5
1D
 67
     1
  8
0
  0
BLOCK
  8
0
  2
_FILLED
 70
     0
 10
0.0
 20
0.0
 30
0.0
  3
_FILLED
  1

  0
SOLID
  5
66FA
  8
0
  6
BYBLOCK
 62
     0
 10
0.0
 20
0.0
 30
0.0
 11
-1.0
 21
0.1666666667
 31
0.0
 12
-1.0
 22
-0.1666666667
 32
0.0
 13
-1.0
 23
-0.1666666667
 33
0.0
  0
ENDBLK
  5
66FB
  8
0
  6
BYBLOCK
 62
     0
  0
ENDSEC
  0
SECTION
  2
ENTITIES
  0
ATTDEF
  5
3930
  8
DEFPOINTS
 10
3412.5821605266110055
 20
87.6538409764743847
 30
0.0
 40
0.001
  1
K-156T-LCP
  3

  2
MODELNUMBER
 70
     0
1001
ACDBATTR
1070
     0
1070
     1
  0
ATTDEF
  5
3931
  8
DEFPOINTS
 10
3412.5821605266110055
 20
87.6521743098077195
 30
0.0
 40
0.001
  1
BELAY
  3

  2
TRADENAME
 70
     0
1001
ACDBATTR
1070
     0
1070
     1
  0
ATTDEF
  5
3932
  8
DEFPOINTS
 10
3412.5821605266110055
 20
87.6505076431410544
 30
0.0
 40
0.001
  1
BATH
  3

  2
PRODUCT
 70
     0
1001
ACDBATTR
1070
     0
1070
     1
  0
LINE
  5
75B9
  8
0
 10
3382.5913360572258171
 20
55.6500172781941274
 30
0.0
 11
3382.5913360572258171
 21
87.4322172767941481
 31
0.0
  0
LINE
  5
75BA
  8
0
 10
3442.5913352692928129
 20
55.6500172781941274
 30
0.0
 11
3442.5913352692928129
 21
83.4052172765941151
 31
0.0
  0
LINE
  5
75BB
  8
0
 10
3442.5913352692928129
 20
83.8866785454941208
 30
0.0
 11
3442.5913352692928129
 21
87.4322172767941481
 31
0.0
  0
LINE
  5
75BC
  8
0
 10
3382.8091360572261692
 20
87.650017276794145
 30
0.0
 11
3442.373535269293825
 21
87.650017276794145
 31
0.0
  0
LINE
  5
75BD
  8
0
 10
3416.278385884842919
 20
55.5408522767941406
 30
0.0
 11
3399.3929207309238336
 21
55.5408522767941406
 31
0.0
  0
ARC
  5
75BE
  8
0
 10
3382.8091360572261692
 20
87.4322172767941765
 30
0.0
 40
0.2178
 50
90.0
 51
180.0000000000036096
  0
ARC
  5
75BF
  8
0
 10
3442.373535269293825
 20
87.4322172767941765
 30
0.0
 40
0.2178
 50
359.9999999999964189
 51
90.0
  0
LINE
  5
75C0
  8
0
 10
3442.373535269293825
 20
83.668878545494124
 30
0.0
 11
3390.79027884313291
 21
83.668878545494124
 31
0.0
  0
LINE
  5
75C1
  8
0
 10
3442.3465352692937813
 20
83.6500172765941272
 30
0.0
 11
3390.8448662511291332
 21
83.6500172765941272
 31
0.0
  0
ARC
  5
75C2
  8
0
 10
3442.373535269293825
 20
83.8866785454941208
 30
0.0
 40
0.2178
 50
270.0
 51
0.0
  0
ARC
  5
75C3
  8
0
 10
3442.3465352692937813
 20
83.4052172765941435
 30
0.0
 40
0.2448
 50
359.9999999999968168
 51
90.0
  0
LINE
  5
75C4
  8
0
 10
3442.5913352692928129
 20
55.6500172781941274
 30
0.0
 11
3417.018377742147095
 21
55.6500172781941274
 31
0.0
  0
ARC
  5
75C5
  8
0
 10
3442.3465352692937813
 20
55.8948172781941182
 30
0.0
 40
0.2448
 50
270.0
 51
0.0000000000016284
  0
LINE
  5
75C6
  8
0
 10
3416.7687202506081121
 20
55.9130992091923389
 30
0.0
 11
3416.7887838285801081
 21
56.2959954764423216
 31
0.0
  0
ARC
  5
75C7
  8
0
 10
3417.018377742147095
 20
55.9000172781941203
 30
0.0
 40
0.25
 50
177.0004723203817889
 51
270.0
  0
LINE
  5
75C8
  8
0
 10
3416.590695796809996
 20
55.8330792441119286
 30
0.0
 11
3416.6162670971489206
 21
56.5497875485346313
 31
0.0
  0
ARC
  5
75C9
  8
0
 10
3416.278385884842919
 20
55.853852276794143
 30
0.0
 40
0.313
 50
270.0
 51
356.1946243540834871
  0
LINE
  5
75CA
  8
0
 10
3399.0806833932451809
 20
55.8320154968340034
 30
0.0
 11
3399.0363711309191785
 21
56.5514144344875191
 31
0.0
  0
ARC
  5
75CB
  8
0
 10
3399.3929207309238336
 20
55.853852276794143
 30
0.0
 40
0.313
 50
184.000551176963711
 51
270.0
  0
LINE
  5
75CC
  8
0
 10
3398.6642986660290262
 20
55.6500172781941274
 30
0.0
 11
3390.8448662511291332
 21
55.6500172781941274
 31
0.0
  0
LINE
  5
75CD
  8
0
 10
3398.9139560127728146
 20
55.9131019721784099
 30
0.0
 11
3398.8938881856088301
 21
56.2959982394284069
 31
0.0
  0
ARC
  5
75CE
  8
0
 10
3398.6642986660290262
 20
55.9000172781941203
 30
0.0
 40
0.25
 50
270.0
 51
3.000161778300356
  0
LINE
  5
75CF
  8
0
 10
3390.6000662511291921
 20
55.8948172781941182
 30
0.0
 11
3390.6000662511291921
 21
83.4052172765941151
 31
0.0
  0
ARC
  5
75D0
  8
0
 10
3390.8448662511291332
 20
55.8948172781941182
 30
0.0
 40
0.2448
 50
179.9999999999984084
 51
270.0
  0
LINE
  5
75D1
  8
0
 10
3390.5913360558788554
 20
55.8278172795941288
 30
0.0
 11
3390.5913360558788554
 21
57.648017278194132
 31
0.0
  0
LINE
  5
75D2
  8
0
 10
3390.5913360558788554
 20
55.886933288994129
 30
0.0
 11
3390.6001932393069183
 21
55.886933288994129
 31
0.0
  0
LINE
  5
75D3
  8
0
 10
3390.373536055878958
 20
55.6100172795941319
 30
0.0
 11
3382.8091360572261692
 21
55.6100172795941319
 31
0.0
  0
ARC
  5
75D4
  8
0
 10
3390.373536055878958
 20
55.8278172795941074
 30
0.0
 40
0.2178
 50
270.0
 51
0.000000000003664
  0
ARC
  5
75D5
  8
0
 10
3382.8091360572261692
 20
55.8278172795941074
 30
0.0
 40
0.2178
 50
179.9999999999978968
 51
270.0
  0
LINE
  5
75D6
  8
0
 10
3382.5913360572258171
 20
55.6500172781941274
 30
0.0
 11
3382.6833425776571858
 21
55.6500172781941274
 31
0.0
  0
LINE
  5
75D7
  8
0
 10
3390.5724788431330126
 20
83.4510785454941271
 30
0.0
 11
3390.5724788431330126
 21
57.7172484526674623
 31
0.0
  0
ARC
  5
75D8
  8
0
 10
3390.79027884313291
 20
83.4510785454941271
 30
0.0
 40
0.2178
 50
90.0
 51
180.0
  0
LINE
  5
75D9
  8
0
 10
3390.5913360558788554
 20
57.0315592727941265
 30
0.0
 11
3390.6000662511291921
 21
57.0315592727941265
 31
0.0
  0
LINE
  5
75DA
  8
0
 10
3390.5913360558788554
 20
57.1500172781941203
 30
0.0
 11
3390.6000662511291921
 21
57.1500172781941203
 31
0.0
  0
LINE
  5
75DB
  8
0
 10
3390.5913360558788554
 20
57.3750172781941288
 30
0.0
 11
3390.6000662511291921
 21
57.3750172781941217
 31
0.0
  0
LINE
  5
75DC
  8
0
 10
3390.5913360558788554
 20
57.648017278194132
 30
0.0
 11
3390.580048493403865
 21
57.648017278194132
 31
0.0
  0
LINE
  5
75DD
  8
0
 10
3390.580048493403865
 20
57.648017278194132
 30
0.0
 11
3390.5724788431330126
 21
57.7172484526674623
 31
0.0
  0
ARC
  5
75DE
  8
0
 10
3390.8448662511291332
 20
83.4052172765941435
 30
0.0
 40
0.2448
 50
90.0
 51
180.0000000000032117
  0
LINE
  5
75DF
  8
0
 10
3398.6442308388650417
 20
56.5329135454441314
 30
0.0
 11
3397.8815568253498896
 21
56.5329135454441314
 31
0.0
  0
LINE
  5
75E0
  8
0
 10
3417.0384413201181815
 20
56.5329135454441314
 30
0.0
 11
3417.8165818324259817
 21
56.5329135454441314
 31
0.0
  0
ARC
  5
75E1
  8
0
 10
3398.6442308388650417
 20
56.2829135454441314
 30
0.0
 40
0.25
 50
3.0001617783019818
 51
90.0
  0
ARC
  5
75E2
  8
0
 10
3417.0384413201181815
 20
56.2829135454441314
 30
0.0
 40
0.25
 50
90.0
 51
177.0004723203850858
  0
LINE
  5
75E3
  8
0
 10
3397.712772938937178
 20
56.693369559998068
 30
0.0
 11
3397.6611795545059067
 21
57.7125814947939872
 31
0.0
  0
ARC
  5
75E4
  8
0
 10
3397.8815568253498896
 20
56.7019135454441283
 30
0.0
 40
0.169
 50
182.8978880576526933
 51
270.0
  0
LINE
  5
75E5
  8
0
 10
3397.1618189438158879
 20
58.1873034313441266
 30
0.0
 11
3396.3803763349342262
 21
58.1873034313441266
 31
0.0
  0
LINE
  5
75E6
  8
0
 10
3418.5316112815389715
 20
58.1873034313441266
 30
0.0
 11
3435.358092644133194
 21
58.1873034313441266
 31
0.0
  0
LINE
  5
75E7
  8
0
 10
3417.98540335878306
 20
56.6941487377287885
 30
0.0
 11
3418.0321393100721252
 21
57.7102762352356535
 31
0.0
  0
ARC
  5
75E8
  8
0
 10
3417.8165818324259817
 20
56.7019135454441425
 30
0.0
 40
0.169
 50
270.0
 51
357.3665835088854124
  0
ARC
  5
75E9
  8
0
 10
3397.1618189438158879
 20
57.6873034313441266
 30
0.0
 40
0.5
 50
2.8978880576535069
 51
90.0
  0
ARC
  5
75EA
  8
0
 10
3418.5316112815389715
 20
57.6873034313441266
 30
0.0
 40
0.5
 50
90.0
 51
177.3665835088889935
  0
LINE
  5
75EB
  8
0
 10
3395.3803763349342262
 20
59.1873034313441266
 30
0.0
 11
3395.3803763349342262
 21
76.9123949490941214
 31
0.0
  0
ARC
  5
75EC
  8
0
 10
3396.3803763349342262
 20
59.1873034313441266
 30
0.0
 40
1.0
 50
179.9999999999996021
 51
270.0
  0
LINE
  5
75ED
  8
0
 10
3439.358092644133194
 20
62.1873034313441408
 30
0.0
 11
3439.358092644133194
 21
76.9123949490941214
 31
0.0
  0
ARC
  5
75EE
  8
0
 10
3435.358092644133194
 20
62.1873034313441408
 30
0.0
 40
4.0
 50
270.0
 51
0.0
  0
LINE
  5
75EF
  8
0
 10
3416.6792270365981494
 20
56.610541212736571
 30
0.0
 11
3417.4830256292461854
 21
56.610541212736571
 31
0.0
  0
LINE
  5
75F0
  8
0
 10
3398.973490305913856
 20
56.610541212736571
 30
0.0
 11
3398.1881016543811711
 21
56.610541212736571
 31
0.0
  0
ARC
  5
75F1
  8
0
 10
3416.6792270365981494
 20
56.5475412127365828
 30
0.0
 40
0.063
 50
90.0
 51
177.9566214596260068
  0
ARC
  5
75F2
  8
0
 10
3398.973490305913856
 20
56.5475412127365828
 30
0.0
 40
0.063
 50
3.5247507592365759
 51
90.0
  0
LINE
  5
75F3
  8
0
 10
3397.875518498000929
 20
56.9073928274491365
 30
0.0
 11
3397.8192776807459268
 21
57.996042364988341
 31
0.0
  0
ARC
  5
75F4
  8
0
 10
3398.1881016543811711
 20
56.9235412127365805
 30
0.0
 40
0.313
 50
182.9573331455814866
 51
270.0
  0
LINE
  5
75F5
  8
0
 10
3398.1318608371248047
 20
58.3251907502757803
 30
0.0
 11
3417.5393415737039504
 21
58.3251907502757803
 31
0.0
  0
ARC
  5
75F6
  8
0
 10
3398.1318608371248047
 20
58.0121907502757779
 30
0.0
 40
0.313
 50
90.0
 51
182.9573331455802929
  0
LINE
  5
75F7
  8
0
 10
3417.7956076734631097
 20
56.9073713137619706
 30
0.0
 11
3417.8519236179208747
 21
57.9960208513011679
 31
0.0
  0
ARC
  5
75F8
  8
0
 10
3417.4830256292461854
 20
56.9235412127365592
 30
0.0
 40
0.313
 50
270.0
 51
357.0387234376242986
  0
ARC
  5
75F9
  8
0
 10
3417.5393415737039504
 20
58.0121907502757779
 30
0.0
 40
0.313
 50
357.0387234376203196
 51
90.0
  0
LINE
  5
75FA
  8
0
 10
3398.0899963400311208
 20
58.3561834376563482
 30
0.0
 11
3417.5811847797649534
 21
58.3561834376563482
 31
0.0
  0
LINE
  5
75FB
  8
0
 10
3397.8335702558169942
 20
56.95519508612756
 30
0.0
 11
3397.7774250579709587
 21
58.0268068192130215
 31
0.0
  0
ARC
  5
75FC
  8
0
 10
3398.146842258615834
 20
56.976084229384341
 30
0.0
 40
0.3139676799349863
 50
183.8148656432373116
 51
225.0821155641534119
  0
ARC
  5
75FD
  8
0
 10
3398.0899963400311208
 20
58.0431834376563529
 30
0.0
 40
0.313
 50
90.0
 51
182.9991685551788976
  0
LINE
  5
75FE
  8
0
 10
3417.8937550520399782
 20
58.0267875573897669
 30
0.0
 11
3417.8373268025789002
 21
56.9510421255166079
 31
0.0
  0
ARC
  5
75FF
  8
0
 10
3417.5811847797649534
 20
58.0431834376563529
 30
0.0
 40
0.313
 50
356.9973006567300899
 51
90.0
  0
ARC
  5
7600
  8
0
 10
3417.521921405933881
 20
56.9762537196517798
 30
0.0
 40
0.3164114231684755
 50
314.6419278363807734
 51
355.4298399951712781
  0
LINE
  5
7601
  8
0
 10
3397.7130067414818768
 20
56.6895900220721387
 30
0.0
 11
3397.8241786633329866
 21
57.1344471162941403
 31
0.0
  0
LINE
  5
7602
  8
0
 10
3397.8667143409497839
 20
56.5335665803486194
 30
0.0
 11
3397.9224282736481655
 21
56.7565072101072516
 31
0.0
  0
LINE
  5
7603
  8
0
 10
3417.8282401150831902
 20
56.5333161420076991
 30
0.0
 11
3417.7775588134959435
 21
56.7897980826584998
 31
0.0
  0
LINE
  5
7604
  8
0
 10
3417.984184494728197
 20
56.6802260469806072
 30
0.0
 11
3417.8569221019329234
 21
57.324605969294133
 31
0.0
  0
LINE
  5
7605
  8
0
 10
3399.0132201758337942
 20
55.7120172781941321
 30
0.0
 11
3398.8290894424690123
 21
55.7120172781941321
 31
0.0
  0
LINE
  5
7606
  8
0
 10
3416.5574052984538866
 20
55.7120172781941321
 30
0.0
 11
3416.8535869657061994
 21
55.7120172781941321
 31
0.0
  0
ARC
  5
7607
  8
0
 10
3399.0132201758337942
 20
55.9119982223937271
 30
0.0
 40
0.199980944199597
 50
270.0
 51
296.9586034354381923
  0
ARC
  5
7608
  8
0
 10
3416.6694519562329333
 20
55.9119984315942418
 30
0.0
 40
0.1999811534001149
 50
240.0042824600438109
 51
270.0
  0
LINE
  5
7609
  8
0
 10
3399.5803763349331348
 20
81.1123949490941243
 30
0.0
 11
3435.1580926441329211
 21
81.1123949490941243
 31
0.0
  0
ARC
  5
760A
  8
0
 10
3399.5803763349331348
 20
76.912394949094093
 30
0.0
 40
4.2000000000000002
 50
90.0
 51
180.0
  0
ARC
  5
760B
  8
0
 10
3435.1580926441329211
 20
76.9123949490941214
 30
0.0
 40
4.2000000000000002
 50
0.0
 51
90.0
  0
LINE
  5
760C
  8
0
 10
3396.5945348692330299
 20
73.9954377862711539
 30
0.0
 11
3396.5945348692330299
 21
60.3652792143763008
 31
0.0
  0
LINE
  5
760D
  8
0
 10
3421.6323496813188285
 20
79.9054377862711647
 30
0.0
 11
3407.7177375647638655
 21
79.9054377862711647
 31
0.0
  0
LINE
  5
760E
  8
0
 10
3405.9118872934309366
 20
79.9054377862711647
 30
0.0
 11
3402.610539381837043
 21
79.9054377862711647
 31
0.0
  0
LINE
  5
760F
  8
0
 10
3422.1323496813188285
 20
79.4054377862711647
 30
0.0
 11
3422.1323496813188285
 21
59.8502792143763003
 31
0.0
  0
ARC
  5
7610
  8
0
 10
3421.6323496813188285
 20
79.4054377862711647
 30
0.0
 40
0.5
 50
359.9999999999984084
 51
90.0
  0
ARC
  5
7611
  8
0
 10
3402.5045348692328844
 20
73.9954377862711539
 30
0.0
 40
5.9100000000000001
 50
104.7105014377308976
 51
180.0
  0
LINE
  5
7612
  8
0
 10
3434.2837938948341616
 20
80.428946365666917
 30
0.0
 11
3422.8011861910808875
 21
80.428946365666917
 31
0.0
  0
LINE
  5
7613
  8
0
 10
3437.6837938948328883
 20
62.2658651984941187
 30
0.0
 11
3437.6837938948328883
 21
77.0289463656669113
 31
0.0
  0
LINE
  5
7614
  8
0
 10
3434.2837938948341616
 20
58.8658651984941272
 30
0.0
 11
3422.6823673058170243
 21
58.8658651984941272
 31
0.0
  0
ARC
  5
7615
  8
0
 10
3433.5120905290441442
 20
63.0375685642834966
 30
0.0
 40
4.242479823983742
 50
280.4803980179307246
 51
349.5196019820735955
  0
ARC
  5
7616
  8
0
 10
3433.5268718163902122
 20
76.2720242872229619
 30
0.0
 40
4.2252730324903967
 50
10.3197631521870594
 51
79.6802368478171843
  0
LINE
  5
7617
  8
0
 10
3421.6323496813188285
 20
79.9054377862711647
 30
0.0
 11
3422.0686335407149272
 21
80.3568792019069633
 31
0.0
  0
ARC
  5
7618
  8
0
 10
3423.2365456547217946
 20
72.2443969952721261
 30
0.0
 40
8.1961201954956362
 50
93.0448558805646542
 51
98.1922891147618202
  0
LINE
  5
7619
  8
0
 10
3422.5995786578328079
 20
79.9609565728441254
 30
0.0
 11
3422.5995786578328079
 21
59.4335256105472922
 31
0.0
  0
ARC
  5
761A
  8
0
 10
3422.0465119517311905
 20
79.7732447857607809
 30
0.0
 40
0.5840535047489219
 50
18.7473003371580411
 51
87.8293479604408844
  0
ARC
  5
761B
  8
0
 10
3422.0383316397637827
 20
59.505524371787061
 30
0.0
 40
0.5658463014920825
 50
273.326511362593692
 51
352.6898197975827998
  0
LINE
  5
761C
  8
0
 10
3421.6323496813188285
 20
59.3502792143763003
 30
0.0
 11
3420.4439455572951374
 21
59.3502792143763003
 31
0.0
  0
LINE
  5
761D
  8
0
 10
3413.4335487348480456
 20
59.3502792143763003
 30
0.0
 11
3397.6095348692329026
 21
59.3502792143763003
 31
0.0
  0
ARC
  5
761E
  8
0
 10
3421.6323496813188285
 20
59.8502792143763074
 30
0.0
 40
0.5
 50
270.0
 51
359.9999999999992042
  0
LINE
  5
761F
  8
0
 10
3421.6323496813188285
 20
59.3502792143763074
 30
0.0
 11
3422.0711654169340363
 21
58.9406314792941188
 31
0.0
  0
LINE
  5
7620
  8
0
 10
3422.0711654169340363
 20
58.9406314792941188
 30
0.0
 11
3422.6823673058170243
 21
58.8658651984941272
 31
0.0
  0
ARC
  5
7621
  8
0
 10
3397.6095348692329026
 20
60.3652792143763008
 30
0.0
 40
1.014999999999999
 50
180.0
 51
270.0
  0
LINE
  5
7622
  8
0
 10
3397.1618189438158879
 20
58.1873034313441266
 30
0.0
 11
3397.6095348692329026
 21
59.3502792143763003
 31
0.0
  0
ARC
  5
7623
  8
0
 10
3406.0913361392331353
 20
81.217827866617057
 30
0.0
 40
1.0415905259770659
 50
68.5113026997218668
 51
111.4886973002781048
  0
ARC
  5
7624
  8
0
 10
3406.2900359786540321
 20
81.7225487561041746
 30
0.0
 40
0.4991655980189056
 50
35.8931683838018714
 51
68.5113026997218668
  0
ARC
  5
7625
  8
0
 10
3406.5753595290320845
 20
81.9290367188199866
 30
0.0
 40
0.1469628053742433
 50
17.9144912535674194
 51
35.8931683838007132
  0
ARC
  5
7626
  8
0
 10
3406.5077994858920647
 20
81.8914458700944579
 30
0.0
 40
0.2233136260939667
 50
323.807236616331295
 51
21.7626200375631207
  0
ARC
  5
7627
  8
0
 10
3406.1401941629687826
 20
82.2776624033568424
 30
0.0
 40
0.7540064679722756
 50
266.2847454652426791
 51
316.5983645058043976
  0
ARC
  5
7628
  8
0
 10
3406.049536534058916
 20
82.3113752574386979
 30
0.0
 40
0.7872451790517353
 50
226.9773845769890954
 51
273.0436045205811979
  0
ARC
  5
7629
  8
0
 10
3405.6814957472188325
 20
81.8911400078425658
 30
0.0
 40
0.2295878938057882
 50
158.7794427103326029
 51
222.5677771901698065
  0
ARC
  5
762A
  8
0
 10
3405.8564443394261616
 20
81.7756431317488079
 30
0.0
 40
0.436735849617645
 50
109.6219343154359933
 51
152.9522303519694901
  0
ARC
  5
762B
  8
0
 10
3405.8511044904821574
 20
82.1735335650024297
 30
0.0
 40
0.434104529028469
 50
207.6620822773681141
 51
247.7102487205004024
  0
ARC
  5
762C
  8
0
 10
3406.0830894124369479
 20
82.676528813571494
 30
0.0
 40
0.9877928963633291
 50
246.3256175350375941
 51
272.2086445878506993
  0
ARC
  5
762D
  8
0
 10
3406.1075718580827925
 20
82.6340522899786549
 30
0.0
 40
0.9446802491027952
 50
270.824013402379876
 51
296.9151253446923988
  0
ARC
  5
762E
  8
0
 10
3406.3486835646258442
 20
82.1591059410576889
 30
0.0
 40
0.4120369450188783
 50
296.9151253446923988
 51
333.04341833265471
  0
ARC
  5
762F
  8
0
 10
3406.324055618775219
 20
82.2706074875183759
 30
0.0
 40
0.4504036236565162
 50
294.2297131472089973
 51
325.3855452481640782
  0
ARC
  5
7630
  8
0
 10
3406.0947389386710711
 20
82.7801533442817856
 30
0.0
 40
1.0091729140783969
 50
269.8068010830368735
 51
294.2297131472089973
  0
ARC
  5
7631
  8
0
 10
3406.0698101149027934
 20
82.6739763276670203
 30
0.0
 40
0.9032466970561692
 50
238.9748003556888136
 51
271.365587525837725
  0
ARC
  5
7632
  8
0
 10
3405.8305739399547747
 20
82.2462181583635044
 30
0.0
 40
0.4136664570182821
 50
214.4340282076059054
 51
236.8327347677378896
  0
LINE
  5
7633
  8
0
 10
3405.7097831176329237
 20
82.1870172781941193
 30
0.0
 11
3406.4728891608328922
 21
82.1870172781941193
 31
0.0
  0
ARC
  5
7634
  8
0
 10
3412.0913359584669706
 20
81.217827866617057
 30
0.0
 40
1.0415905259770659
 50
68.5113026997218668
 51
111.4886973002781048
  0
ARC
  5
7635
  8
0
 10
3411.8926361190460739
 20
81.7225487561041746
 30
0.0
 40
0.4991655980189056
 50
111.4886973002781048
 51
144.1068316161980931
  0
ARC
  5
7636
  8
0
 10
3411.6073125686680214
 20
81.9290367188199866
 30
0.0
 40
0.1469628053742433
 50
144.1068316161992868
 51
162.0855087464321969
  0
ARC
  5
7637
  8
0
 10
3411.6748726118080413
 20
81.8914458700944579
 30
0.0
 40
0.2233136260939667
 50
158.2373799624367905
 51
216.192763383668705
  0
ARC
  5
7638
  8
0
 10
3412.0424779347299591
 20
82.2776624033568424
 30
0.0
 40
0.7540064679722756
 50
223.4016354941954887
 51
273.7152545347573209
  0
ARC
  5
7639
  8
0
 10
3412.1331355636398257
 20
82.3113752574386979
 30
0.0
 40
0.7872451790517353
 50
266.9563954794188021
 51
313.0226154230107909
  0
ARC
  5
763A
  8
0
 10
3412.5011763504799092
 20
81.8911400078425658
 30
0.0
 40
0.2295878938057882
 50
317.4322228098300229
 51
21.2205572896674184
  0
ARC
  5
763B
  8
0
 10
3412.3262277582739443
 20
81.7756431317488079
 30
0.0
 40
0.436735849617645
 50
27.0477696480304601
 51
70.3780656845639783
  0
ARC
  5
763C
  8
0
 10
3412.3315676072179485
 20
82.1735335650024297
 30
0.0
 40
0.434104529028469
 50
292.289751279499626
 51
332.3379177226318006
  0
ARC
  5
763D
  8
0
 10
3412.0995826852617938
 20
82.676528813571494
 30
0.0
 40
0.9877928963633291
 50
267.7913554121494144
 51
293.6743824649623775
  0
ARC
  5
763E
  8
0
 10
3412.0751002396159492
 20
82.6340522899786549
 30
0.0
 40
0.9446802491027952
 50
243.0848746553076012
 51
269.175986597620124
  0
ARC
  5
763F
  8
0
 10
3411.833988533073807
 20
82.1591059410576889
 30
0.0
 40
0.4120369450188783
 50
206.95658166734529
 51
243.0848746553076012
  0
ARC
  5
7640
  8
0
 10
3411.8586164789257964
 20
82.2706074875183759
 30
0.0
 40
0.4504036236565162
 50
214.6144547518356944
 51
245.7702868527910027
  0
ARC
  5
7641
  8
0
 10
3412.0879331590290349
 20
82.7801533442817856
 30
0.0
 40
1.0091729140783969
 50
245.7702868527910027
 51
270.1931989169631265
  0
ARC
  5
7642
  8
0
 10
3412.1128619827968578
 20
82.6739763276670203
 30
0.0
 40
0.9032466970561692
 50
268.634412474162275
 51
301.0251996443112148
  0
ARC
  5
7643
  8
0
 10
3412.3520981577448765
 20
82.2462181583635044
 30
0.0
 40
0.4136664570182821
 50
303.1672652322621957
 51
325.565971792394123
  0
LINE
  5
7644
  8
0
 10
3412.4728889800671823
 20
82.1870172781941193
 30
0.0
 11
3411.7097829368658495
 21
82.1870172781941193
 31
0.0
  0
ARC
  5
7645
  8
0
 10
3409.0723873643860315
 20
81.099923489598865
 30
0.0
 40
1.2572737703042709
 50
95.9999670598784149
 51
106.8107987925971969
  0
ARC
  5
7646
  8
0
 10
3408.977491877787088
 20
81.4140185435025074
 30
0.0
 40
0.929156632282288
 50
106.8107987925971969
 51
123.701884369048102
  0
ARC
  5
7647
  8
0
 10
3408.7201969663419732
 20
81.7997885020135556
 30
0.0
 40
0.4654550770283574
 50
123.701884369048102
 51
152.4324031415345928
  0
ARC
  5
7648
  8
0
 10
3408.5309432836838823
 20
81.8985916935401974
 30
0.0
 40
0.2519626250416085
 50
152.4324031415351044
 51
179.2993336895160894
  0
ARC
  5
7649
  8
0
 10
3408.5846983516621549
 20
81.8979342935866441
 30
0.0
 40
0.3057217127197569
 50
179.2993336895164873
 51
218.1667924704493089
  0
ARC
  5
764A
  8
0
 10
3408.8921122700289743
 20
82.1794004846032919
 30
0.0
 40
0.722027892890141
 50
220.6533910500045863
 51
255.5718110847010962
  0
ARC
  5
764B
  8
0
 10
3409.091656176646211
 20
82.790120929619178
 30
0.0
 40
1.363825083629264
 50
253.8457587195694884
 51
285.4553148551377717
  0
ARC
  5
764C
  8
0
 10
3409.3310134210310025
 20
82.0998441891252071
 30
0.0
 40
0.6364436858850964
 50
281.242663910447618
 51
328.8088019641916162
  0
ARC
  5
764D
  8
0
 10
3409.6282668018470758
 20
81.8919053161505417
 30
0.0
 40
0.2755110286007381
 50
333.7924022714595935
 51
17.3891678637555991
  0
ARC
  5
764E
  8
0
 10
3409.489206097855913
 20
81.8268895696277241
 30
0.0
 40
0.4281371827876977
 50
20.13158007151576
 51
57.2617857710440319
  0
ARC
  5
764F
  8
0
 10
3409.2154168066831517
 20
81.4381168697227906
 30
0.0
 40
0.9034415848304801
 50
55.9901785960810585
 51
75.3076237639174906
  0
ARC
  5
7650
  8
0
 10
3409.1071862595799757
 20
81.081272923661686
 30
0.0
 40
1.2761465483683909
 50
74.6707166690873265
 51
83.9492084112717265
  0
ARC
  5
7651
  8
0
 10
3409.0561350357579613
 20
82.3210469023527764
 30
0.0
 40
0.1384705639493159
 50
96.9662956360417638
 51
146.2751679571634895
  0
ARC
  5
7652
  8
0
 10
3409.0914218907369104
 20
82.1961338921340996
 30
0.0
 40
0.2674807207892799
 50
81.3494657992487049
 51
101.2278156810836975
  0
ARC
  5
7653
  8
0
 10
3409.1104966973362025
 20
82.2831798279742372
 30
0.0
 40
0.1786490762800677
 50
50.2796837015525995
 51
83.1988688929548914
  0
ARC
  5
7654
  8
0
 10
3409.1744730216109929
 20
82.365111227716568
 30
0.0
 40
0.0748124741260384
 50
26.0158964976544986
 51
47.8675667502336282
  0
ARC
  5
7655
  8
0
 10
3409.1929260003121271
 20
82.3741176852441299
 30
0.0
 40
0.0542788748286099
 50
333.9841035023492282
 51
26.0158964976517595
  0
ARC
  5
7656
  8
0
 10
3408.9884820611418945
 20
82.3741181511941249
 30
0.0
 40
0.0531460061776025
 50
153.3859096117948866
 51
206.6140903882159989
  0
LINE
  5
7657
  8
0
 10
3408.9409671881330723
 20
82.3979264441940842
 30
0.0
 11
3408.9409671881330723
 21
82.3503098581941089
 31
0.0
  0
LINE
  5
7658
  8
0
 10
3409.2417049263331137
 20
82.3503098581941089
 30
0.0
 11
3409.2417049263331137
 21
82.3979255122940373
 31
0.0
  0
ARC
  5
7659
  8
0
 10
3408.6761503536499731
 20
82.1124691807065545
 30
0.0
 40
0.4092853856133404
 50
199.6706858780173093
 51
232.8599303447163038
  0
ARC
  5
765A
  8
0
 10
3408.9720813248441118
 20
82.5031918035014087
 30
0.0
 40
0.8994275156896796
 50
232.8599303447163038
 51
260.6010670199282231
  0
ARC
  5
765B
  8
0
 10
3409.0910814682401906
 20
82.9776440557894972
 30
0.0
 40
1.3875183802013229
 50
258.9523559614194141
 51
282.0750512484204933
  0
ARC
  5
765C
  8
0
 10
3409.2222716431178924
 20
82.4852837926891311
 30
0.0
 40
0.878971716737684
 50
280.4263401898979282
 51
303.5123936550368171
  0
ARC
  5
765D
  8
0
 10
3409.4180238687990823
 20
82.1896733921927876
 30
0.0
 40
0.5244234933031482
 50
303.5123936550368171
 51
334.9577222206825127
  0
ARC
  5
765E
  8
0
 10
3408.847797174058087
 20
82.3557694202606143
 30
0.0
 40
0.6414873306495333
 50
212.38110105163301
 51
254.1978192481298038
  0
ARC
  5
765F
  8
0
 10
3409.0932727794638595
 20
83.0275774284272643
 30
0.0
 40
1.3557995409717569
 50
251.9467447637213979
 51
279.9947984687203189
  0
ARC
  5
7660
  8
0
 10
3409.2119504937732017
 20
82.5500617441866211
 30
0.0
 40
0.865601293394666
 50
277.7437239843251859
 51
315.5878084757923148
  0
ARC
  5
7661
  8
0
 10
3409.5346741760249643
 20
82.1813304211520119
 30
0.0
 40
0.3788931853935184
 50
321.2748898873638836
 51
333.7362249884736798
  0
LINE
  5
7662
  8
0
 10
3408.4619290751329572
 20
82.1870172781941193
 30
0.0
 11
3409.7207433104331358
 21
82.1870172781941193
 31
0.0
  0
CIRCLE
  5
7663
  8
0
 10
3392.7513360572329475
 20
69.6500172781941131
 30
0.0
 40
0.7800000000000012
  0
CIRCLE
  5
7664
  8
0
 10
3392.7513360572329475
 20
65.6500172781941274
 30
0.0
 40
0.7800000000000012
  0
CIRCLE
  5
7665
  8
0
 10
3392.7513360572329475
 20
73.6500172781941274
 30
0.0
 40
0.7800000000000012
  0
CIRCLE
  5
7666
  8
0
 10
3392.7513360572329475
 20
61.050017278194133
 30
0.0
 40
0.625
  0
LINE
  5
7667
  8
0
 10
3392.466336057233093
 20
61.6062546376010687
 30
0.0
 11
3392.466336057233093
 21
60.4937799187871974
 31
0.0
  0
LINE
  5
7668
  8
0
 10
3392.591336057233093
 20
61.6541902666668022
 30
0.0
 11
3392.591336057233093
 21
60.4458442897214709
 31
0.0
  0
ARC
  5
7669
  8
0
 10
3392.091336057233093
 20
60.1245172781941406
 30
0.0
 40
1.339999999999975
 50
26.7995896235060407
 51
68.0909502119578462
  0
ARC
  5
766A
  8
0
 10
3392.091336057233093
 20
60.1245172781940695
 30
0.0
 40
1.400000000000067
 50
28.5395236934248118
 51
69.075167572372095
  0
LINE
  5
766B
  8
0
 10
3397.9925712740659947
 20
58.3406348732247793
 30
0.0
 11
3398.2013666984539668
 21
59.0948526956093119
 31
0.0
  0
ARC
  5
766C
  8
0
 10
3398.5376709986871901
 20
58.8404492694564283
 30
0.0
 40
0.4216890864045838
 50
98.4284139627342824
 51
142.8936623922305955
  0
ARC
  5
766D
  8
0
 10
3426.276016406332019
 20
-289.3013162316869966
 30
0.0
 40
349.6657768470610108
 50
94.3648961253782943
 51
94.5601098021310662
  0
LINE
  5
766E
  8
0
 10
3417.8644645110798592
 20
58.5570163622406099
 30
0.0
 11
3418.0320556764208959
 21
57.7084578823462309
 31
0.0
  0
ARC
  5
766F
  8
0
 10
3415.2780398200511627
 20
58.5892566637091079
 30
0.0
 40
1.99532019636396
 50
121.8626412439545987
 51
167.6460576805488927
  0
ARC
  5
7670
  8
0
 10
3415.2813876860859637
 20
58.5838702666374829
 30
0.0
 40
2.0016622370763701
 50
90.6290308317513364
 51
121.8626412439545987
  0
ARC
  5
7671
  8
0
 10
3415.2813953190770917
 20
58.5831750374550495
 30
0.0
 40
2.0023575081592409
 50
68.8107941145158861
 51
90.6290308317513364
  0
ARC
  5
7672
  8
0
 10
3419.2801177762630687
 20
68.8982604233886207
 30
0.0
 40
9.0606785944983965
 50
248.8107941145158861
 51
261.1037438667917172
  0
ARC
  5
7673
  8
0
 10
3419.2845028361689401
 20
68.926274806443331
 30
0.0
 40
9.0890340949933321
 50
261.1037438667917172
 51
269.9783119763666264
  0
ARC
  5
7674
  8
0
 10
3419.2788840651642204
 20
54.0825133549226109
 30
0.0
 40
5.754728419956848
 50
80.3616573430281136
 51
89.978311976366669
  0
ARC
  5
7675
  8
0
 10
3420.2105699570088291
 20
59.568641312844008
 30
0.0
 40
0.1900506600368013
 50
10.5739263982472096
 51
80.3616573430281136
  0
ARC
  5
7676
  8
0
 10
3374.3955239213619279
 20
51.0161659257719009
 30
0.0
 40
46.7965231557629906
 50
9.4383899233740838
 51
10.5739263982472096
  0
ARC
  5
7677
  8
0
 10
3420.4650551239851666
 20
58.6746448583416367
 30
0.0
 40
0.0947672488370635
 50
278.4433577579949883
 51
9.4383899233740838
  0
ARC
  5
7678
  8
0
 10
3419.0581742354188464
 20
83.410195589036789
 30
0.0
 40
24.8699084102311296
 50
268.4615816262576118
 51
273.2750399773216827
  0
ARC
  5
7679
  8
0
 10
3416.176022481795826
 20
-73.6472267889434846
 30
0.0
 40
132.2150246517529979
 50
89.0403107533552713
 51
89.846341870317346
  0
ARC
  5
767A
  8
0
 10
3416.5585354916947836
 20
69.1848571074973506
 30
0.0
 40
10.6175714530710508
 50
265.7400862391035048
 51
269.849259891782026
  0
ARC
  5
767B
  8
0
 10
3416.5062475756699314
 20
68.3426484546071151
 30
0.0
 40
9.773811080225542
 50
262.4704625587248756
 51
265.6790218805630843
  0
ARC
  5
767C
  8
0
 10
3438.904532338674926
 20
238.6570844509761002
 30
0.0
 40
181.5547459627275941
 50
261.9444731916356091
 51
262.5059304013304882
  0
ARC
  5
767D
  8
0
 10
3413.4248892392511152
 20
58.9977643276970412
 30
0.0
 40
0.0977135347477396
 50
169.1512235050595905
 51
226.7219076888071072
  0
ARC
  5
767E
  8
0
 10
3413.4682928138190618
 20
59.0952961845362097
 30
0.0
 40
0.2015832095084277
 50
236.7964122068686947
 51
268.430120291385208
  0
ARC
  5
767F
  8
0
 10
3417.2809986815332195
 20
59.5532419023942268
 30
0.0
 40
1.039464285700098
 50
251.8512330132537045
 51
287.1981844382701752
  0
LINE
  5
7680
  8
0
 10
3418.3904858426330975
 20
58.549251589594121
 30
0.0
 11
3418.3871742723331408
 21
58.4544642207941365
 31
0.0
  0
LINE
  5
7681
  8
0
 10
3420.1709544404989174
 20
58.5651947931328891
 30
0.0
 11
3420.1748228987330549
 21
58.4544643387941392
 31
0.0
  0
LINE
  5
7682
  8
0
 10
3418.4059985886328832
 20
58.453160914817289
 30
0.0
 11
3418.4059985886328832
 21
58.3944626646941174
 31
0.0
  0
LINE
  5
7683
  8
0
 10
3420.1559990379478222
 20
58.4531611800960889
 30
0.0
 11
3420.1559976251328408
 21
58.3944642691941311
 31
0.0
  0
ARC
  5
7684
  8
0
 10
3419.2809977423062264
 20
71.2289808708803349
 30
0.0
 40
12.8057485544112097
 50
265.9975797779180198
 51
274.0024277861140263
  0
ARC
  5
7685
  8
0
 10
3419.2809866368420444
 20
70.90462946248104
 30
0.0
 40
12.5407287424997005
 50
265.9991250815339754
 51
274.0009799826042922
  0
ARC
  5
7686
  8
0
 10
3417.4474911147849525
 20
58.2283857297141978
 30
0.0
 40
0.2814042086625817
 50
20.7689526867926695
 51
82.3202261076182964
  0
ARC
  5
7687
  8
0
 10
3417.4440221955110246
 20
58.1980638981680087
 30
0.0
 40
0.3119182452237597
 50
82.4330649396315067
 51
89.3834993428161937
  0
ARC
  5
7688
  8
0
 10
3417.4152289501889754
 20
54.4351897670423668
 30
0.0
 40
4.0749011453054118
 50
89.5479535394727151
 51
96.1345446678297151
  0
ARC
  5
7689
  8
0
 10
3417.4045257764119015
 20
54.5347736148395086
 30
0.0
 40
3.9747437657920739
 50
96.1345446678297151
 51
99.8159424483336863
  0
ARC
  5
768A
  8
0
 10
3417.5270324412990703
 20
53.8267103670821712
 30
0.0
 40
4.693326708650063
 50
99.8159424483336863
 51
100.3101837616218006
  0
ARC
  5
768B
  8
0
 10
3416.7122470730209898
 20
58.3056592330413181
 30
0.0
 40
0.1408704331613151
 50
100.3101837616218006
 51
108.3151615976103983
  0
ARC
  5
768C
  8
0
 10
3416.6773657548078518
 20
58.4110370488193666
 30
0.0
 40
0.0298695754240759
 50
108.3151615976100999
 51
127.8970147486275977
  0
ARC
  5
768D
  8
0
 10
3416.6610453497219169
 20
58.4320037858768089
 30
0.0
 40
0.0032996735611615
 50
127.8970147486389948
 51
231.3941380649945074
  0
ARC
  5
768E
  8
0
 10
3416.6817044767080915
 20
58.4578775976009766
 30
0.0
 40
0.0364093951085958
 50
231.3941380649945927
 51
257.3918440479234846
  0
ARC
  5
768F
  8
0
 10
3416.9214807906760143
 20
59.5952271197624768
 30
0.0
 40
1.1987563451301551
 50
258.0738535730361036
 51
266.6683092155336112
  0
ARC
  5
7690
  8
0
 10
3417.3465639476489741
 20
65.190375589304665
 30
0.0
 40
6.8098747604410397
 50
265.8336821513290147
 51
269.143523937476516
  0
ARC
  5
7691
  8
0
 10
3417.443338083378876
 20
69.9377120244508035
 30
0.0
 40
11.5581561589992603
 50
269.0156226810246949
 51
270.2254770379403794
  0
ARC
  5
7692
  8
0
 10
3417.4880590024567937
 20
58.1012121792796705
 30
0.0
 40
0.2784342330973051
 50
65.9771449810644981
 51
89.8427915156776038
  0
ARC
  5
7693
  8
0
 10
3417.0900122382749942
 20
50.1127726188850318
 30
0.0
 40
8.3605965300608123
 50
91.6890230876081773
 51
93.3830155889568942
  0
ARC
  5
7694
  8
0
 10
3416.787780982302138
 20
55.2255031908112812
 30
0.0
 40
3.2389407789197748
 50
93.3830155889568942
 51
95.8216995076103188
  0
ARC
  5
7695
  8
0
 10
3416.5685573773807846
 20
57.3756196196537616
 30
0.0
 40
1.0776773413599989
 50
95.8216995076103188
 51
98.5615577269345238
  0
ARC
  5
7696
  8
0
 10
3416.4627022066620157
 20
58.0787446939975496
 30
0.0
 40
0.3666286880746057
 50
98.5615577269345238
 51
105.7763819990151006
  0
ARC
  5
7697
  8
0
 10
3416.3729186912619298
 20
58.3965328508497024
 30
0.0
 40
0.0364008996116408
 50
105.7763819990154985
 51
133.4424376252455886
  0
ARC
  5
7698
  8
0
 10
3416.3565940519301876
 20
58.4137700807068967
 30
0.0
 40
0.0126603026842676
 50
133.4424376252310935
 51
183.9348343213821124
  0
ARC
  5
7699
  8
0
 10
3416.3587037782599509
 20
58.4139151960917786
 30
0.0
 40
0.0147750139327832
 50
183.9348343213580961
 51
205.5797634814817911
  0
ARC
  5
769A
  8
0
 10
3416.5811206222078908
 20
58.5044063954386218
 30
0.0
 40
0.2548705397482871
 50
202.3384852542316992
 51
206.1216763443908064
  0
ARC
  5
769B
  8
0
 10
3416.3705479940122132
 20
58.4096350120062908
 30
0.0
 40
0.0252563858499603
 50
223.6797343281675126
 51
254.5622816503176011
  0
ARC
  5
769C
  8
0
 10
3416.6947109749739866
 20
60.0414930424063087
 30
0.0
 40
1.688932947461685
 50
258.7018647312337976
 51
266.2462633024745742
  0
ARC
  5
769D
  8
0
 10
3416.4416663108991088
 20
58.6336229263257067
 30
0.0
 40
0.2457377035703132
 50
246.9310852973640067
 51
266.4493718294805262
  0
ARC
  5
769E
  8
0
 10
3416.7687779122020402
 20
61.3788890995775986
 30
0.0
 40
3.0100619085884501
 50
263.4696993823994262
 51
266.9382294606512005
  0
ARC
  5
769F
  8
0
 10
3417.1421984216840428
 20
67.8105636232158417
 30
0.0
 40
9.4525463395847424
 50
266.7602943419188932
 51
268.4439753726476852
  0
ARC
  5
76A0
  8
0
 10
3417.3471467940539696
 20
74.626058261913613
 30
0.0
 40
16.271105073415999
 50
268.3742460584717833
 51
269.295423132802398
  0
LINE
  5
76A1
  8
0
 10
3418.490489189883192
 20
58.3888397878616772
 30
0.0
 11
3418.5302949469369196
 21
58.1873016986043297
 31
0.0
  0
ARC
  5
76A2
  8
0
 10
3413.3306586548978885
 20
62.8971986235917697
 30
0.0
 40
17.8496131513132887
 50
175.9754095015979942
 51
184.0066131971668142
  0
ARC
  5
76A3
  8
0
 10
3377.5578737850300968
 20
62.902810713525561
 30
0.0
 40
18.0104208995357205
 50
356.0113212148677917
 51
3.9707014838973249
  0
ARC
  5
76A4
  8
0
 10
3408.8145602028098438
 20
65.6500172830220095
 30
0.0
 40
12.5369884484418499
 50
175.8535509057435036
 51
184.1464491385009978
  0
ARC
  5
76A5
  8
0
 10
3389.4938987570808422
 20
65.6500172755622771
 30
0.0
 40
6.8765005418322804
 50
352.4248910211686052
 51
7.5751090230757301
  0
ARC
  5
76A6
  8
0
 10
3408.8157394652748735
 20
73.6500172781941274
 30
0.0
 40
12.5369884484418499
 50
175.8535509057435036
 51
184.1464491385009978
  0
ARC
  5
76A7
  8
0
 10
3389.4950780195458719
 20
73.650017270734395
 30
0.0
 40
6.8765005418322804
 50
352.4248910211686052
 51
7.5751090230757301
  0
ARC
  5
76A8
  8
0
 10
3400.1663178309181603
 20
74.1476784922811873
 30
0.0
 40
3.7342266337875571
 50
175.8945987085600962
 51
184.03344964721569
  0
ARC
  5
76A9
  8
0
 10
3392.582329739531815
 20
74.1524404528417733
 30
0.0
 40
3.8682654514261259
 50
356.0358332453151888
 51
3.8922151104621352
  0
ARC
  5
76AA
  8
0
 10
3400.2361601023208095
 20
71.9000172781941274
 30
0.0
 40
3.7342266337875571
 50
175.8945987085600962
 51
184.03344964721569
  0
ARC
  5
76AB
  8
0
 10
3392.6521720109358284
 20
71.9047792387547275
 30
0.0
 40
3.8682654514261259
 50
356.0358332453151888
 51
3.8922151104621352
  0
ARC
  5
76AC
  8
0
 10
3400.166318563321056
 20
69.6500172781941131
 30
0.0
 40
3.7342266337875571
 50
175.8945987085600962
 51
184.03344964721569
  0
ARC
  5
76AD
  8
0
 10
3392.5823304719351654
 20
69.6547792387547133
 30
0.0
 40
3.8682654514261259
 50
356.0358332453151888
 51
3.8922151104621352
  0
ARC
  5
76AE
  8
0
 10
3400.2361601023208095
 20
67.4000172781941274
 30
0.0
 40
3.7342266337875571
 50
175.8945987085600962
 51
184.03344964721569
  0
ARC
  5
76AF
  8
0
 10
3392.6521720109358284
 20
67.4047792387547133
 30
0.0
 40
3.8682654514261259
 50
356.0358332453151888
 51
3.8922151104621352
  0
ARC
  5
76B0
  8
0
 10
3400.166318563321056
 20
65.1500166585996396
 30
0.0
 40
3.7342266337875571
 50
175.8945987085600962
 51
184.03344964721569
  0
ARC
  5
76B1
  8
0
 10
3392.5823304719351654
 20
65.1547786191602256
 30
0.0
 40
3.8682654514261259
 50
356.0358332453155867
 51
3.8922151104621352
  0
ARC
  5
76B2
  8
0
 10
3426.0562906254208428
 20
75.6500172781941274
 30
0.0
 40
3.7342266337875571
 50
175.8945987085600962
 51
184.03344964721569
  0
ARC
  5
76B3
  8
0
 10
3418.4723025340358618
 20
75.6547792387547133
 30
0.0
 40
3.8682654514261259
 50
356.0358332453151888
 51
3.8922151104621352
  0
ARC
  5
76B4
  8
0
 10
3425.9864490864210893
 20
72.6500172781941274
 30
0.0
 40
3.7342266337875571
 50
175.8945987085600962
 51
184.03344964721569
  0
ARC
  5
76B5
  8
0
 10
3418.4024609950361082
 20
72.6547792387547133
 30
0.0
 40
3.8682654514261259
 50
356.0358332453151888
 51
3.8922151104621352
  0
ARC
  5
76B6
  8
0
 10
3426.0562906254208428
 20
69.6500172781941131
 30
0.0
 40
3.7342266337875571
 50
175.8945987085600962
 51
184.03344964721569
  0
ARC
  5
76B7
  8
0
 10
3418.4723025340358618
 20
69.6547792387547133
 30
0.0
 40
3.8682654514261259
 50
356.0358332453151888
 51
3.8922151104621352
  0
ARC
  5
76B8
  8
0
 10
3425.9864490864210893
 20
66.6500172781941131
 30
0.0
 40
3.7342266337875571
 50
175.8945987085600962
 51
184.03344964721569
  0
ARC
  5
76B9
  8
0
 10
3418.4024609950361082
 20
66.6547792387547133
 30
0.0
 40
3.8682654514261259
 50
356.0358332453151888
 51
3.8922151104621352
  0
ARC
  5
76BA
  8
0
 10
3426.0562906254208428
 20
63.6500172781941274
 30
0.0
 40
3.7342266337875571
 50
175.8945987085600962
 51
184.03344964721569
  0
ARC
  5
76BB
  8
0
 10
3418.4723025340358618
 20
63.6547792387547133
 30
0.0
 40
3.8682654514261259
 50
356.0358332453155867
 51
3.8922151104621352
  0
ARC
  5
76BC
  8
0
 10
3425.9864490864210893
 20
60.6500172781941274
 30
0.0
 40
3.7342266337875571
 50
175.8945987085600962
 51
184.03344964721569
  0
ARC
  5
76BD
  8
0
 10
3418.4024609950361082
 20
60.6547792387547275
 30
0.0
 40
3.8682654514261259
 50
356.0358332453155867
 51
3.8922151104621352
  0
ARC
  5
76BE
  8
0
 10
3435.340606962728998
 20
65.6476810737832466
 30
0.0
 40
12.9361689006491094
 50
175.9715542716002972
 51
184.007912916975414
  0
ARC
  5
76BF
  8
0
 10
3409.3983481673149072
 20
65.6523294747473756
 30
0.0
 40
13.0693630977520101
 50
356.0125711046197239
 51
3.9668960839564602
  0
ARC
  5
76C0
  8
0
 10
3435.3406053042240273
 20
73.6569719857106406
 30
0.0
 40
12.9361689006491094
 50
175.9715542716006951
 51
184.007912916975414
  0
ARC
  5
76C1
  8
0
 10
3409.3983465088099365
 20
73.6616203866747696
 30
0.0
 40
13.0693630977520101
 50
356.0125711046197239
 51
3.9668960839564602
  0
ARC
  5
76C2
  8
0
 10
3445.4819261959710275
 20
69.6504880736327152
 30
0.0
 40
23.3229831130901601
 50
176.0059126919358903
 51
183.9964087994752902
  0
ARC
  5
76C3
  8
0
 10
3398.976379054166955
 20
69.6495459254570335
 30
0.0
 40
23.2959874024340792
 50
356.0012754120484146
 51
4.0010460793631726
  0
ARC
  5
76C4
  8
0
 10
3440.3528512604539173
 20
75.1501968940010556
 30
0.0
 40
2.5352217832830299
 50
174.0041465989968117
 51
186.0039941833987029
  0
ARC
  5
76C5
  8
0
 10
3435.3032931424818344
 20
75.1498381646647999
 30
0.0
 40
2.5420744201864851
 50
354.0203796552003723
 51
5.9877611271987261
  0
ARC
  5
76C6
  8
0
 10
3440.2480357018189352
 20
74.6501973847309443
 30
0.0
 40
2.5352217832830299
 50
174.0041465989968117
 51
186.0039941833987029
  0
ARC
  5
76C7
  8
0
 10
3435.1984775838468522
 20
74.6498386553947029
 30
0.0
 40
2.5420744201864851
 50
354.0203796552003723
 51
5.9877611271987261
  0
ARC
  5
76C8
  8
0
 10
3440.3528512604179923
 20
64.1501973847465194
 30
0.0
 40
2.5352217832830299
 50
174.0041465989968117
 51
186.0039941833987029
  0
ARC
  5
76C9
  8
0
 10
3435.3032931424459093
 20
64.1498386554102638
 30
0.0
 40
2.5420744201864851
 50
354.0203796552003723
 51
5.9877611271987261
  0
ARC
  5
76CA
  8
0
 10
3440.7516878748429008
 20
64.6735708421058177
 30
0.0
 40
3.0387403280583598
 50
174.5015874063383876
 51
185.4489181183253095
  0
ARC
  5
76CB
  8
0
 10
3434.7516930977581069
 20
64.6761623646795272
 30
0.0
 40
2.9891981580110421
 50
354.4105843802880145
 51
5.5399211443803527
  0
ARC
  5
76CC
  8
0
 10
3442.4700002772110565
 20
65.6525099063940729
 30
0.0
 40
4.3596708077546751
 50
168.0325022571163913
 51
192.0337340862697886
  0
ARC
  5
76CD
  8
0
 10
3433.8927397779971216
 20
65.6475520679650515
 30
0.0
 40
4.4071011974211984
 50
348.1635466953774767
 51
11.9026896480022302
  0
ARC
  5
76CE
  8
0
 10
3442.4700002614858931
 20
73.6525372599365227
 30
0.0
 40
4.3596708077546751
 50
168.0325022571105933
 51
192.0337340862693907
  0
ARC
  5
76CF
  8
0
 10
3433.8927397622719582
 20
73.647579421507487
 30
0.0
 40
4.4071011974211984
 50
348.1635466953774767
 51
11.9026896480020206
  0
ARC
  5
76D0
  8
0
 10
3446.594873624651882
 20
72.8300437837671097
 30
0.0
 40
8.6928508340075652
 50
174.0144271352899921
 51
185.9859241630437054
  0
ARC
  5
76D1
  8
0
 10
3429.3095315402888446
 20
72.8299907928502108
 30
0.0
 40
8.6873108411192632
 50
354.0105959966991804
 51
5.9897553016292511
  0
ARC
  5
76D2
  8
0
 10
3446.4244990222991873
 20
72.0300439274868154
 30
0.0
 40
8.6928508340075652
 50
174.0144271352899921
 51
185.9859241630437054
  0
ARC
  5
76D3
  8
0
 10
3429.1391569379379689
 20
72.0299909365699165
 30
0.0
 40
8.6873108411192632
 50
354.0105959966991804
 51
5.9897553016292511
  0
ARC
  5
76D4
  8
0
 10
3446.4244990222991873
 20
67.2700439274868245
 30
0.0
 40
8.6928508340075652
 50
174.0144271352899921
 51
185.9859241630437054
  0
ARC
  5
76D5
  8
0
 10
3429.1391569379379689
 20
67.2699909365699256
 30
0.0
 40
8.6873108411192632
 50
354.0105959966991804
 51
5.9897553016296561
  0
ARC
  5
76D6
  8
0
 10
3446.5948243055217972
 20
66.470178565589265
 30
0.0
 40
8.6928508340075652
 50
174.0144271352899921
 51
185.9859241630437054
  0
ARC
  5
76D7
  8
0
 10
3429.3094822211592145
 20
66.470125574672366
 30
0.0
 40
8.6873108411192632
 50
354.0105959966991804
 51
5.9897553016296561
  0
ARC
  5
76D8
  8
0
 10
3440.2480356520968598
 20
69.6494838302120911
 30
0.0
 40
2.5352217832830299
 50
174.0041465989968117
 51
186.0039941833987029
  0
ARC
  5
76D9
  8
0
 10
3435.1984775341238674
 20
69.6491251008758354
 30
0.0
 40
2.5420744201864851
 50
354.0203796552003723
 51
5.9877611271987261
  0
CIRCLE
  5
76DA
  8
0
 10
3400.591336057233093
 20
69.6500172781941131
 30
0.0
 40
1.125
  0
CIRCLE
  5
76DB
  8
0
 10
3400.591336057233093
 20
69.6500172781941131
 30
0.0
 40
1.7866468249000029
  0
LINE
  5
76DC
  8
0
 10
3403.8944426657549229
 20
83.0020275018941334
 30
0.0
 11
3414.2882294487108084
 21
83.0020275018941334
 31
0.0
  0
ARC
  5
76DD
  8
0
 10
3404.1645300810027948
 20
77.6149147184250978
 30
0.0
 40
5.3938790636878648
 50
92.870168724069913
 51
125.1805275100387007
  0
ARC
  5
76DE
  8
0
 10
3402.3946433581618294
 20
80.9869078796875783
 30
0.0
 40
1.692452894917823
 50
142.2287978796368009
 51
166.3032429454129044
  0
ARC
  5
76DF
  8
0
 10
3401.0939395953200801
 20
81.3039072847194006
 30
0.0
 40
0.3536777452142907
 50
166.3032429454133023
 51
197.6654674155489033
  0
ARC
  5
76E0
  8
0
 10
3400.8931154017541303
 20
81.2518037826562534
 30
0.0
 40
0.1469469998729392
 50
202.0739557038741907
 51
251.5683424320691017
  0
ARC
  5
76E1
  8
0
 10
3414.018142033463846
 20
77.6149147184250978
 30
0.0
 40
5.3938790636878648
 50
54.8194724899612424
 51
87.1298312759301155
  0
ARC
  5
76E2
  8
0
 10
3415.7880287563039019
 20
80.9869078796875783
 30
0.0
 40
1.692452894917823
 50
13.6967570545870494
 51
37.7712021203631707
  0
ARC
  5
76E3
  8
0
 10
3417.0887325191470154
 20
81.3039072847194006
 30
0.0
 40
0.3536777452142907
 50
342.3345325844510967
 51
13.6967570545866497
  0
ARC
  5
76E4
  8
0
 10
3417.2895567127129652
 20
81.2518037826562534
 30
0.0
 40
0.1469469998729392
 50
288.4316575675724721
 51
337.9260442961257809
  0
ARC
  5
76E5
  8
0
 10
3404.2529621105691149
 20
83.5445110051744138
 30
0.0
 40
5.0246913179344004
 50
209.3134070685171082
 51
329.0160240254670043
  0
ARC
  5
76E6
  8
0
 10
3404.2612133376351267
 20
83.4932926100852484
 30
0.0
 40
3.9493577636259132
 50
217.6873834686365967
 51
320.1970285375618914
  0
ARC
  5
76E7
  8
0
 10
3400.4558911803160299
 20
70.3681597651689543
 30
0.0
 40
10.7322439667577303
 50
86.3674631349188786
 51
93.1205597658976103
  0
ARC
  5
76E8
  8
0
 10
3407.8628411064692045
 20
69.6745560498703185
 30
0.0
 40
11.3048118158885202
 50
86.4608831287701065
 51
92.877613993626909
  0
POINT
  5
76EA
  8
DEFPOINTS
 10
3392.7513360572329475
 20
69.6500172781941131
 30
0.0
  0
ARC
  5
76EB
  8
0
 10
3425.9864490864210893
 20
78.6500172781941416
 30
0.0
 40
3.7342266337875571
 50
175.8945987085604941
 51
184.03344964721569
  0
ARC
  5
76EC
  8
0
 10
3418.4024609950361082
 20
78.6547792387547418
 30
0.0
 40
3.8682654514261259
 50
356.0358332453155867
 51
3.8922151104621352
  0
ENDSEC
  0
EOF
