  0
SECTION
  2
HEADER
  9
$ACADVER
  1
AC1009
  9
$INSBASE
 10
4006.1744160892508262
 20
70.4673090499589421
 30
0.0
  9
$EXTMIN
 10
4001.7733497301878742
 20
66.2584028731889703
 30
-0.000000000000013
  9
$EXTMAX
 10
4010.6270960918241144
 20
74.6791165909829431
 30
0.0000000000000023
  9
$LIMMIN
 10
0.0
 20
0.0
  9
$LIMMAX
 10
11.6929133858000007
 20
8.2677165353999982
  9
$ORTHOMODE
 70
     0
  9
$REGENMODE
 70
     1
  9
$FILLMODE
 70
     1
  9
$QTEXTMODE
 70
     0
  9
$MIRRTEXT
 70
     0
  9
$DRAGMODE
 70
     2
  9
$LTSCALE
 40
0.6431102362
  9
$OSMODE
 70
  4095
  9
$ATTMODE
 70
     1
  9
$TEXTSIZE
 40
0.2
  9
$TRACEWID
 40
0.05
  9
$TEXTSTYLE
  7
STANDARD
  9
$CLAYER
  8
0
  9
$CELTYPE
  6
BYLAYER
  9
$CECOLOR
 62
   256
  9
$DIMSCALE
 40
1.0
  9
$DIMASZ
 40
0.1875
  9
$DIMEXO
 40
0.0625
  9
$DIMDLI
 40
0.4443307087
  9
$DIMRND
 40
0.0
  9
$DIMDLE
 40
0.0
  9
$DIMEXE
 40
0.125
  9
$DIMTP
 40
0.01
  9
$DIMTM
 40
0.01
  9
$DIMTXT
 40
2.0
  9
$DIMCEN
 40
0.1052362205
  9
$DIMTSZ
 40
0.0
  9
$DIMTOL
 70
     1
  9
$DIMLIM
 70
     0
  9
$DIMTIH
 70
     1
  9
$DIMTOH
 70
     1
  9
$DIMSE1
 70
     0
  9
$DIMSE2
 70
     0
  9
$DIMTAD
 70
     0
  9
$DIMZIN
 70
     0
  9
$DIMBLK
  1

  9
$DIMASO
 70
     1
  9
$DIMSHO
 70
     1
  9
$DIMPOST
  1
\X
  9
$DIMAPOST
  1

  9
$DIMALT
 70
     1
  9
$DIMALTD
 70
     2
  9
$DIMALTF
 40
25.3999999999999986
  9
$DIMLFAC
 40
1.0
  9
$DIMTOFL
 70
     0
  9
$DIMTVP
 40
0.0
  9
$DIMTIX
 70
     0
  9
$DIMSOXD
 70
     0
  9
$DIMSAH
 70
     0
  9
$DIMBLK1
  1

  9
$DIMBLK2
  1

  9
$DIMSTYLE
  2
STANDARD
  9
$DIMCLRD
 70
     0
  9
$DIMCLRE
 70
     0
  9
$DIMCLRT
 70
     0
  9
$DIMTFAC
 40
1.0
  9
$DIMGAP
 40
0.09
  9
$LUNITS
 70
     2
  9
$LUPREC
 70
     4
  9
$SKETCHINC
 40
0.1
  9
$FILLETRAD
 40
0.0
  9
$AUNITS
 70
     0
  9
$AUPREC
 70
     0
  9
$MENU
  1
.
  9
$ELEVATION
 40
0.0
  9
$PELEVATION
 40
0.0
  9
$THICKNESS
 40
0.0
  9
$LIMCHECK
 70
     0
  9
$BLIPMODE
 70
     0
  9
$CHAMFERA
 40
0.0
  9
$CHAMFERB
 40
0.0
  9
$SKPOLY
 70
     0
  9
$TDCREATE
 40
2458060.468368056230247
  9
$TDUPDATE
 40
2459072.4859259258955717
  9
$TDINDWG
 40
0.4283056713
  9
$TDUSRTIMER
 40
0.4283056713
  9
$USRTIMER
 70
     1
  9
$ANGBASE
 50
0.0
  9
$ANGDIR
 70
     0
  9
$PDMODE
 70
     0
  9
$PDSIZE
 40
0.3125
  9
$PLINEWID
 40
0.0
  9
$COORDS
 70
     1
  9
$SPLFRAME
 70
     0
  9
$SPLINETYPE
 70
     6
  9
$SPLINESEGS
 70
     8
  9
$ATTDIA
 70
     1
  9
$ATTREQ
 70
     1
  9
$HANDLING
 70
     1
  9
$HANDSEED
  5
7F73
  9
$SURFTAB1
 70
     6
  9
$SURFTAB2
 70
     6
  9
$SURFTYPE
 70
     6
  9
$SURFU
 70
     6
  9
$SURFV
 70
     6
  9
$UCSNAME
  2

  9
$UCSORG
 10
0.0
 20
0.0
 30
0.0
  9
$UCSXDIR
 10
1.0
 20
0.0
 30
0.0
  9
$UCSYDIR
 10
0.0
 20
1.0
 30
0.0
  9
$PUCSNAME
  2

  9
$PUCSORG
 10
0.0
 20
0.0
 30
0.0
  9
$PUCSXDIR
 10
1.0
 20
0.0
 30
0.0
  9
$PUCSYDIR
 10
0.0
 20
1.0
 30
0.0
  9
$USERI1
 70
     0
  9
$USERI2
 70
     0
  9
$USERI3
 70
     0
  9
$USERI4
 70
     0
  9
$USERI5
 70
     0
  9
$USERR1
 40
0.0
  9
$USERR2
 40
0.0
  9
$USERR3
 40
0.0
  9
$USERR4
 40
0.0
  9
$USERR5
 40
0.0
  9
$WORLDVIEW
 70
     1
  9
$SHADEDGE
 70
     3
  9
$SHADEDIF
 70
    70
  9
$TILEMODE
 70
     1
  9
$MAXACTVP
 70
    64
  9
$PLIMCHECK
 70
     0
  9
$PEXTMIN
 10
1.0000000000000000E+20
 20
1.0000000000000000E+20
 30
1.0000000000000000E+20
  9
$PEXTMAX
 10
-1.0000000000000000E+20
 20
-1.0000000000000000E+20
 30
-1.0000000000000000E+20
  9
$PLIMMIN
 10
0.0
 20
0.0
  9
$PLIMMAX
 10
12.0
 20
9.0
  9
$UNITMODE
 70
     0
  9
$VISRETAIN
 70
     1
  9
$PLINEGEN
 70
     0
  9
$PSLTSCALE
 70
     1
  0
ENDSEC
  0
SECTION
  2
TABLES
  0
TABLE
  2
VPORT
 70
     1
  0
VPORT
  2
*ACTIVE
 70
     0
 10
0.0
 20
0.0
 11
1.0
 21
1.0
 12
213.8423127547567049
 22
-49.7118967010195121
 13
0.0
 23
0.0
 14
1.0
 24
1.0
 15
0.0
 25
0.0
 16
0.0
 26
0.0
 36
5.1040778033513332
 17
3792.35791015625
 27
120.1806564331053977
 37
0.0
 40
8.4734530521434124
 41
2.005224660397074
 42
50.0
 43
0.0
 44
0.0
 50
0.0
 51
0.0
 71
     0
 72
   100
 73
     1
 74
     1
 75
     0
 76
     0
 77
     0
 78
     0
  0
ENDTAB
  0
TABLE
  2
LTYPE
 70
     2
  0
LTYPE
  2
CONTINUOUS
 70
     0
  3
Solid line
 72
    65
 73
     0
 40
0.0
  0
LTYPE
  2
PHANTOM2
 70
     0
  3
___ _ _ ___ _ _ ___ _ _ ___ _ _
 72
    65
 73
     6
 40
1.25
 49
0.625
 49
-0.125
 49
0.125
 49
-0.125
 49
0.125
 49
-0.125
  0
ENDTAB
  0
TABLE
  2
LAYER
 70
     2
  0
LAYER
  2
0
 70
     0
 62
   255
  6
CONTINUOUS
  0
LAYER
  2
DEFPOINTS
 70
     0
 62
     7
  6
CONTINUOUS
  0
ENDTAB
  0
TABLE
  2
STYLE
 70
     1
  0
STYLE
  2
STANDARD
 70
     0
 40
0.0
 41
0.8
 50
0.0
 71
     0
 42
0.2
  3
txt
  4

  0
ENDTAB
  0
TABLE
  2
VIEW
 70
     0
  0
ENDTAB
  0
TABLE
  2
UCS
 70
     0
  0
ENDTAB
  0
TABLE
  2
APPID
 70
     9
  0
APPID
  2
ACAD
 70
     0
  0
APPID
  2
ACAD_MLEADERVER
 70
     0
  0
APPID
  2
ACAD_EXEMPT_FROM_CAD_STANDARDS
 70
     0
  0
APPID
  2
ACAD_NAV_VCDISPLAY
 70
     0
  0
APPID
  2
ACAECLAYERSTANDARD
 70
     0
  0
APPID
  2
ACCMTRANSPARENCY
 70
     0
  0
APPID
  2
ACAD_DSTYLE_DIMJAG
 70
     0
  0
APPID
  2
ACAD_DSTYLE_DIMTALN
 70
     0
  0
APPID
  2
ACDBATTR
 70
     0
  0
ENDTAB
  0
TABLE
  2
DIMSTYLE
 70
     1
  0
DIMSTYLE
  2
STANDARD
 70
     0
  3

  4

  5

  6

  7

 40
1.0
 41
0.1875
 42
0.0625
 43
0.38
 44
0.125
 45
0.0
 46
0.0
 47
0.01
 48
0.01
140
0.15625
141
0.09
142
0.0
143
25.3999999999999986
144
1.0
145
0.0
146
1.0
147
0.09
 71
     1
 72
     0
 73
     1
 74
     1
 75
     0
 76
     0
 77
     0
 78
     4
170
     0
171
     2
172
     0
173
     0
174
     0
175
     0
176
     0
177
     0
178
     0
  0
ENDTAB
  0
ENDSEC
  0
SECTION
  2
BLOCKS
  0
BLOCK
  8
0
  2
$MODEL_SPACE
 70
     0
 10
0.0
 20
0.0
 30
0.0
  3
$MODEL_SPACE
  1

  0
ENDBLK
  5
21
  8
0
  0
BLOCK
 67
     1
  8
0
  2
$PAPER_SPACE
 70
     0
 10
0.0
 20
0.0
 30
0.0
  3
$PAPER_SPACE
  1

  0
ENDBLK
  5
1D
 67
     1
  8
0
  0
ENDSEC
  0
SECTION
  2
ENTITIES
  0
ATTDEF
  5
3930
  8
DEFPOINTS
 10
4006.1711453683460604
 20
70.4725947996534359
 30
0.0
 40
0.001
  1
K-15990T-CL
  3

  2
MODELNUMBER
 70
     0
1001
ACDBATTR
1070
     0
1070
     1
  0
ATTDEF
  5
3931
  8
DEFPOINTS
 10
4006.1711453683460604
 20
70.4709281329867707
 30
0.0
 40
0.001
  1
KATALYST
  3

  2
TRADENAME
 70
     0
1001
ACDBATTR
1070
     0
1070
     1
  0
ATTDEF
  5
3932
  8
DEFPOINTS
 10
4006.1711453683460604
 20
70.4692614663201056
 30
0.0
 40
0.001
  1
SHOWERHEAD
  3

  2
PRODUCT
 70
     0
1001
ACDBATTR
1070
     0
1070
     1
  0
LINE
  5
7D39
  8
0
 10
4005.3174592641507843
 20
70.7423090499589335
 30
0.0
 11
4005.3174592641507843
 21
70.1923090499589364
 31
0.0
  0
LINE
  5
7D3A
  8
0
 10
4005.5077806906519982
 20
71.0719554303589405
 30
0.0
 11
4005.9840946627518861
 21
71.3469554303589319
 31
0.0
  0
LINE
  5
7D3B
  8
0
 10
4005.9840946627518861
 20
69.587662669558938
 30
0.0
 11
4005.5077806906519982
 21
69.8626626695589437
 31
0.0
  0
LINE
  5
7D3C
  8
0
 10
4007.0313729142508237
 20
70.1923090499589364
 30
0.0
 11
4007.0313729142508237
 21
70.7423090499589335
 31
0.0
  0
LINE
  5
7D3D
  8
0
 10
4006.841051487851928
 20
69.8626626695589437
 30
0.0
 11
4006.3647375157520401
 21
69.587662669558938
 31
0.0
  0
LINE
  5
7D3E
  8
0
 10
4006.3647375157520401
 20
71.3469554303589319
 30
0.0
 11
4006.841051487851928
 21
71.0719554303589405
 31
0.0
  0
CIRCLE
  5
7D3F
  8
0
 10
4006.014188352551173
 20
70.3367371048589405
 30
0.0
 40
0.0196850394
  0
CIRCLE
  5
7D40
  8
0
 10
4005.9816815061521993
 20
70.3926408443589366
 30
0.0
 40
0.0196850394
  0
CIRCLE
  5
7D41
  8
0
 10
4005.9680408636518223
 20
70.4558536279589305
 30
0.0
 40
0.0196850394
  0
CIRCLE
  5
7D42
  8
0
 10
4005.9746016660519672
 20
70.5201877481589321
 30
0.0
 40
0.0196850394
  0
CIRCLE
  5
7D43
  8
0
 10
4006.0007216964518193
 20
70.5793457329589415
 30
0.0
 40
0.0196850394
  0
CIRCLE
  5
7D44
  8
0
 10
4006.0132468654519471
 20
70.4583629108589378
 30
0.0
 40
0.0196850394
  0
CIRCLE
  5
7D45
  8
0
 10
4006.1858715112512073
 20
70.2609338243589434
 30
0.0
 40
0.0196850394
  0
CIRCLE
  5
7D46
  8
0
 10
4006.1215373910508788
 20
70.267494626758932
 30
0.0
 40
0.0196850394
  0
CIRCLE
  5
7D47
  8
0
 10
4006.0623794062507841
 20
70.2936146571589404
 30
0.0
 40
0.0196850394
  0
CIRCLE
  5
7D48
  8
0
 10
4006.1833622283511431
 20
70.3061398261589403
 30
0.0
 40
0.0196850394
  0
CIRCLE
  5
7D49
  8
0
 10
4006.1015790610508702
 20
70.3232593382589357
 30
0.0
 40
0.0196850394
  0
CIRCLE
  5
7D4A
  8
0
 10
4006.0393125166519894
 20
70.3789768543589247
 30
0.0
 40
0.0196850394
  0
CIRCLE
  5
7D4B
  8
0
 10
4006.0303663775521272
 20
70.5401460781589407
 30
0.0
 40
0.0196850394
  0
CIRCLE
  5
7D4C
  8
0
 10
4006.0438441441510804
 20
70.6275367866589363
 30
0.0
 40
0.0196850394
  0
CIRCLE
  5
7D4D
  8
0
 10
4006.0997478836511618
 20
70.6600436330589332
 30
0.0
 40
0.0196850394
  0
CIRCLE
  5
7D4E
  8
0
 10
4006.0860838936509936
 20
70.6024126225589157
 30
0.0
 40
0.0196850394
  0
CIRCLE
  5
7D4F
  8
0
 10
4006.1763530971520595
 20
70.4673090499589421
 30
0.0
 40
0.9109999999999999
  0
ARC
  5
7D50
  8
0
 10
4006.1744160892508262
 20
70.4673090499589421
 30
0.0
 40
0.9
 50
197.7915905730029067
 51
222.2084094270068988
  0
ARC
  5
7D51
  8
0
 10
4006.1744160892508262
 20
70.4673090499589421
 30
0.0
 40
0.9
 50
137.7915905729931012
 51
162.2084094269970933
  0
ARC
  5
7D52
  8
0
 10
4006.1744160892508262
 20
70.4673090499589421
 30
0.0
 40
0.9
 50
77.791590572998885
 51
102.2084094270011008
  0
ARC
  5
7D53
  8
0
 10
4006.1744160892508262
 20
70.4673090499589421
 30
0.0
 40
0.9
 50
17.7915905730028996
 51
42.2084094270068775
  0
ARC
  5
7D54
  8
0
 10
4006.1744160892508262
 20
70.4673090499589421
 30
0.0
 40
0.9
 50
317.7915905729930728
 51
342.2084094269970933
  0
ARC
  5
7D55
  8
0
 10
4006.1744160892508262
 20
70.4673090499589421
 30
0.0
 40
0.9
 50
257.7915905729989277
 51
282.2084094270010723
  0
CIRCLE
  5
7D56
  8
0
 10
4006.1744160892508262
 20
70.4673090499589421
 30
0.0
 40
0.4960629921
  0
CIRCLE
  5
7D57
  8
0
 10
4006.1744160892508262
 20
70.4673090499589421
 30
0.0
 40
0.4351000237
  0
CIRCLE
  5
7D58
  8
0
 10
4006.1744160892508262
 20
70.4673090499589421
 30
0.0
 40
0.3800000826
  0
CIRCLE
  5
7D59
  8
0
 10
4006.1744160892508262
 20
70.4673090499589421
 30
0.0
 40
0.3661415
  0
CIRCLE
  5
7D5A
  8
0
 10
4006.1744160892508262
 20
70.4673090499589421
 30
0.0
 40
0.2933070866
  0
CIRCLE
  5
7D5B
  8
0
 10
4006.1744160892508262
 20
70.4673090499589421
 30
0.0
 40
0.2795275591
  0
CIRCLE
  5
7D5C
  8
0
 10
4006.1744160892508262
 20
70.4673090499589421
 30
0.0
 40
0.2440944882
  0
CIRCLE
  5
7D5D
  8
0
 10
4006.1629606672518094
 20
70.6736842755589407
 30
0.0
 40
0.0196850394
  0
CIRCLE
  5
7D5E
  8
0
 10
4006.165469950150964
 20
70.6284782737589438
 30
0.0
 40
0.0196850394
  0
CIRCLE
  5
7D5F
  8
0
 10
4006.3742305124510494
 20
70.4144303517589378
 30
0.0
 40
0.0196850394
  0
CIRCLE
  5
7D60
  8
0
 10
4006.3481104820511973
 20
70.3552723669589426
 30
0.0
 40
0.0196850394
  0
CIRCLE
  5
7D61
  8
0
 10
4006.3049880343519362
 20
70.3070813132589336
 30
0.0
 40
0.0196850394
  0
CIRCLE
  5
7D62
  8
0
 10
4006.2490842948518548
 20
70.2745744668589367
 30
0.0
 40
0.0196850394
  0
CIRCLE
  5
7D63
  8
0
 10
4006.3184658009508894
 20
70.3944720217589435
 30
0.0
 40
0.0196850394
  0
CIRCLE
  5
7D64
  8
0
 10
4006.2627482848520231
 20
70.33220547735894
 30
0.0
 40
0.0196850394
  0
CIRCLE
  5
7D65
  8
0
 10
4006.3807913148511943
 20
70.4787644719589395
 30
0.0
 40
0.0196850394
  0
CIRCLE
  5
7D66
  8
0
 10
4006.2272947874521378
 20
70.6671234731589379
 30
0.0
 40
0.0196850394
  0
CIRCLE
  5
7D67
  8
0
 10
4006.2864527722508683
 20
70.6410034427589153
 30
0.0
 40
0.0196850394
  0
CIRCLE
  5
7D68
  8
0
 10
4006.3346438259518436
 20
70.5978809950589294
 30
0.0
 40
0.0196850394
  0
CIRCLE
  5
7D69
  8
0
 10
4006.3671506723508173
 20
70.5419772555589333
 30
0.0
 40
0.0196850394
  0
CIRCLE
  5
7D6A
  8
0
 10
4006.335585313051979
 20
70.4762551890589322
 30
0.0
 40
0.0196850394
  0
CIRCLE
  5
7D6B
  8
0
 10
4006.2472531174521464
 20
70.6113587616589342
 30
0.0
 40
0.0196850394
  0
CIRCLE
  5
7D6C
  8
0
 10
4006.3095196618519367
 20
70.555641245558931
 30
0.0
 40
0.0196850394
  0
CIRCLE
  5
7D6E
  8
0
 10
4006.1744160892508262
 20
70.4673090499589421
 30
0.0
 40
4.208895149217442
  0
CIRCLE
  5
7D6F
  8
0
 10
4006.1744160892508262
 20
70.4673090499589421
 30
0.0
 40
4.119995885217441
  0
CIRCLE
  5
7D70
  8
0
 10
4006.1744160892508262
 20
70.4673090499589421
 30
0.0
 40
4.0519328831174439
  0
ENDSEC
  0
EOF
