  0
SECTION
  2
HEADER
  9
$ACADVER
  1
AC1009
  9
$INSBASE
 10
3996.7674160430051415
 20
68.3435176544288936
 30
0.0
  9
$EXTMIN
 10
3991.3022059679101403
 20
63.1250974647705121
 30
-0.0000000000000053
  9
$EXTMAX
 10
4002.2609614346711169
 20
73.5576410769861013
 30
0.0000000000000099
  9
$LIMMIN
 10
0.0
 20
0.0
  9
$LIMMAX
 10
11.6929133858000007
 20
8.2677165353999982
  9
$ORTHOMODE
 70
     0
  9
$REGENMODE
 70
     1
  9
$FILLMODE
 70
     1
  9
$QTEXTMODE
 70
     0
  9
$MIRRTEXT
 70
     0
  9
$DRAGMODE
 70
     2
  9
$LTSCALE
 40
0.6431102362
  9
$OSMODE
 70
  4095
  9
$ATTMODE
 70
     1
  9
$TEXTSIZE
 40
0.2
  9
$TRACEWID
 40
0.05
  9
$TEXTSTYLE
  7
STANDARD
  9
$CLAYER
  8
0
  9
$CELTYPE
  6
BYLAYER
  9
$CECOLOR
 62
   256
  9
$DIMSCALE
 40
1.0
  9
$DIMASZ
 40
0.1875
  9
$DIMEXO
 40
0.0625
  9
$DIMDLI
 40
0.4443307087
  9
$DIMRND
 40
0.0
  9
$DIMDLE
 40
0.0
  9
$DIMEXE
 40
0.125
  9
$DIMTP
 40
0.01
  9
$DIMTM
 40
0.01
  9
$DIMTXT
 40
2.0
  9
$DIMCEN
 40
0.1052362205
  9
$DIMTSZ
 40
0.0
  9
$DIMTOL
 70
     1
  9
$DIMLIM
 70
     0
  9
$DIMTIH
 70
     1
  9
$DIMTOH
 70
     1
  9
$DIMSE1
 70
     0
  9
$DIMSE2
 70
     0
  9
$DIMTAD
 70
     0
  9
$DIMZIN
 70
     0
  9
$DIMBLK
  1

  9
$DIMASO
 70
     1
  9
$DIMSHO
 70
     1
  9
$DIMPOST
  1
\X
  9
$DIMAPOST
  1

  9
$DIMALT
 70
     1
  9
$DIMALTD
 70
     2
  9
$DIMALTF
 40
25.3999999999999986
  9
$DIMLFAC
 40
1.0
  9
$DIMTOFL
 70
     0
  9
$DIMTVP
 40
0.0
  9
$DIMTIX
 70
     0
  9
$DIMSOXD
 70
     0
  9
$DIMSAH
 70
     0
  9
$DIMBLK1
  1

  9
$DIMBLK2
  1

  9
$DIMSTYLE
  2
STANDARD
  9
$DIMCLRD
 70
     0
  9
$DIMCLRE
 70
     0
  9
$DIMCLRT
 70
     0
  9
$DIMTFAC
 40
1.0
  9
$DIMGAP
 40
0.09
  9
$LUNITS
 70
     2
  9
$LUPREC
 70
     4
  9
$SKETCHINC
 40
0.1
  9
$FILLETRAD
 40
0.0
  9
$AUNITS
 70
     0
  9
$AUPREC
 70
     0
  9
$MENU
  1
.
  9
$ELEVATION
 40
0.0
  9
$PELEVATION
 40
0.0
  9
$THICKNESS
 40
0.0
  9
$LIMCHECK
 70
     0
  9
$BLIPMODE
 70
     0
  9
$CHAMFERA
 40
0.0
  9
$CHAMFERB
 40
0.0
  9
$SKPOLY
 70
     0
  9
$TDCREATE
 40
2458060.468368056230247
  9
$TDUPDATE
 40
2459072.4438657411374152
  9
$TDINDWG
 40
0.4215579861
  9
$TDUSRTIMER
 40
0.4215579861
  9
$USRTIMER
 70
     1
  9
$ANGBASE
 50
0.0
  9
$ANGDIR
 70
     0
  9
$PDMODE
 70
     0
  9
$PDSIZE
 40
0.3125
  9
$PLINEWID
 40
0.0
  9
$COORDS
 70
     1
  9
$SPLFRAME
 70
     0
  9
$SPLINETYPE
 70
     6
  9
$SPLINESEGS
 70
     8
  9
$ATTDIA
 70
     1
  9
$ATTREQ
 70
     1
  9
$HANDLING
 70
     1
  9
$HANDSEED
  5
7D68
  9
$SURFTAB1
 70
     6
  9
$SURFTAB2
 70
     6
  9
$SURFTYPE
 70
     6
  9
$SURFU
 70
     6
  9
$SURFV
 70
     6
  9
$UCSNAME
  2

  9
$UCSORG
 10
0.0
 20
0.0
 30
0.0
  9
$UCSXDIR
 10
1.0
 20
0.0
 30
0.0
  9
$UCSYDIR
 10
0.0
 20
1.0
 30
0.0
  9
$PUCSNAME
  2

  9
$PUCSORG
 10
0.0
 20
0.0
 30
0.0
  9
$PUCSXDIR
 10
1.0
 20
0.0
 30
0.0
  9
$PUCSYDIR
 10
0.0
 20
1.0
 30
0.0
  9
$USERI1
 70
     0
  9
$USERI2
 70
     0
  9
$USERI3
 70
     0
  9
$USERI4
 70
     0
  9
$USERI5
 70
     0
  9
$USERR1
 40
0.0
  9
$USERR2
 40
0.0
  9
$USERR3
 40
0.0
  9
$USERR4
 40
0.0
  9
$USERR5
 40
0.0
  9
$WORLDVIEW
 70
     1
  9
$SHADEDGE
 70
     3
  9
$SHADEDIF
 70
    70
  9
$TILEMODE
 70
     1
  9
$MAXACTVP
 70
    64
  9
$PLIMCHECK
 70
     0
  9
$PEXTMIN
 10
1.0000000000000000E+20
 20
1.0000000000000000E+20
 30
1.0000000000000000E+20
  9
$PEXTMAX
 10
-1.0000000000000000E+20
 20
-1.0000000000000000E+20
 30
-1.0000000000000000E+20
  9
$PLIMMIN
 10
0.0
 20
0.0
  9
$PLIMMAX
 10
12.0
 20
9.0
  9
$UNITMODE
 70
     0
  9
$VISRETAIN
 70
     1
  9
$PLINEGEN
 70
     0
  9
$PSLTSCALE
 70
     1
  0
ENDSEC
  0
SECTION
  2
TABLES
  0
TABLE
  2
VPORT
 70
     1
  0
VPORT
  2
*ACTIVE
 70
     0
 10
0.0
 20
0.0
 11
1.0
 21
1.0
 12
204.4236735450404012
 22
-51.8392871622271585
 13
0.0
 23
0.0
 14
1.0
 24
1.0
 15
0.0
 25
0.0
 16
0.0
 26
0.0
 36
5.1040778033513332
 17
3792.35791015625
 27
120.1806564331053977
 37
0.0
 40
10.4978831337952396
 41
2.005224660397074
 42
50.0
 43
0.0
 44
0.0
 50
0.0
 51
0.0
 71
     0
 72
   100
 73
     1
 74
     1
 75
     0
 76
     0
 77
     0
 78
     0
  0
ENDTAB
  0
TABLE
  2
LTYPE
 70
     2
  0
LTYPE
  2
CONTINUOUS
 70
     0
  3
Solid line
 72
    65
 73
     0
 40
0.0
  0
LTYPE
  2
PHANTOM2
 70
     0
  3
___ _ _ ___ _ _ ___ _ _ ___ _ _
 72
    65
 73
     6
 40
1.25
 49
0.625
 49
-0.125
 49
0.125
 49
-0.125
 49
0.125
 49
-0.125
  0
ENDTAB
  0
TABLE
  2
LAYER
 70
     2
  0
LAYER
  2
0
 70
     0
 62
   255
  6
CONTINUOUS
  0
LAYER
  2
DEFPOINTS
 70
     0
 62
     7
  6
CONTINUOUS
  0
ENDTAB
  0
TABLE
  2
STYLE
 70
     1
  0
STYLE
  2
STANDARD
 70
     0
 40
0.0
 41
0.8
 50
0.0
 71
     0
 42
0.2
  3
txt
  4

  0
ENDTAB
  0
TABLE
  2
VIEW
 70
     0
  0
ENDTAB
  0
TABLE
  2
UCS
 70
     0
  0
ENDTAB
  0
TABLE
  2
APPID
 70
     9
  0
APPID
  2
ACAD
 70
     0
  0
APPID
  2
ACAD_MLEADERVER
 70
     0
  0
APPID
  2
ACAD_EXEMPT_FROM_CAD_STANDARDS
 70
     0
  0
APPID
  2
ACAD_NAV_VCDISPLAY
 70
     0
  0
APPID
  2
ACAECLAYERSTANDARD
 70
     0
  0
APPID
  2
ACCMTRANSPARENCY
 70
     0
  0
APPID
  2
ACAD_DSTYLE_DIMJAG
 70
     0
  0
APPID
  2
ACAD_DSTYLE_DIMTALN
 70
     0
  0
APPID
  2
ACDBATTR
 70
     0
  0
ENDTAB
  0
TABLE
  2
DIMSTYLE
 70
     1
  0
DIMSTYLE
  2
STANDARD
 70
     0
  3

  4

  5

  6

  7

 40
1.0
 41
0.1875
 42
0.0625
 43
0.38
 44
0.125
 45
0.0
 46
0.0
 47
0.01
 48
0.01
140
0.15625
141
0.09
142
0.0
143
25.3999999999999986
144
1.0
145
0.0
146
1.0
147
0.09
 71
     1
 72
     0
 73
     1
 74
     1
 75
     0
 76
     0
 77
     0
 78
     4
170
     0
171
     2
172
     0
173
     0
174
     0
175
     0
176
     0
177
     0
178
     0
  0
ENDTAB
  0
ENDSEC
  0
SECTION
  2
BLOCKS
  0
BLOCK
  8
0
  2
$MODEL_SPACE
 70
     0
 10
0.0
 20
0.0
 30
0.0
  3
$MODEL_SPACE
  1

  0
ENDBLK
  5
21
  8
0
  0
BLOCK
 67
     1
  8
0
  2
$PAPER_SPACE
 70
     0
 10
0.0
 20
0.0
 30
0.0
  3
$PAPER_SPACE
  1

  0
ENDBLK
  5
1D
 67
     1
  8
0
  0
ENDSEC
  0
SECTION
  2
ENTITIES
  0
ATTDEF
  5
3930
  8
DEFPOINTS
 10
3996.7631864831428175
 20
68.3408209664182209
 30
0.0
 40
0.001
  1
K-15991T-CL
  3

  2
MODELNUMBER
 70
     0
1001
ACDBATTR
1070
     0
1070
     1
  0
ATTDEF
  5
3931
  8
DEFPOINTS
 10
3996.7631864831428175
 20
68.3391542997515558
 30
0.0
 40
0.001
  1
KATALYST
  3

  2
TRADENAME
 70
     0
1001
ACDBATTR
1070
     0
1070
     1
  0
ATTDEF
  5
3932
  8
DEFPOINTS
 10
3996.7631864831428175
 20
68.3374876330848906
 30
0.0
 40
0.001
  1
SHOWERHEAD
  3

  2
PRODUCT
 70
     0
1001
ACDBATTR
1070
     0
1070
     1
  0
LINE
  5
7CAE
  8
0
 10
3995.9104592179050996
 20
68.6185176544288851
 30
0.0
 11
3995.9104592179050996
 21
68.0685176544288879
 31
0.0
  0
LINE
  5
7CAF
  8
0
 10
3996.1007806444049493
 20
68.948164034828892
 30
0.0
 11
3996.5770946165048372
 21
69.2231640348288835
 31
0.0
  0
LINE
  5
7CB0
  8
0
 10
3996.5770946165048372
 20
67.4638712740288895
 30
0.0
 11
3996.1007806444049493
 21
67.7388712740288952
 31
0.0
  0
LINE
  5
7CB1
  8
0
 10
3997.624372868005139
 20
68.0685176544288879
 30
0.0
 11
3997.624372868005139
 21
68.6185176544288851
 31
0.0
  0
LINE
  5
7CB2
  8
0
 10
3997.4340514416048791
 20
67.7388712740288952
 30
0.0
 11
3996.9577374695049912
 21
67.4638712740288895
 31
0.0
  0
LINE
  5
7CB3
  8
0
 10
3996.9577374695049912
 20
69.2231640348288835
 30
0.0
 11
3997.4340514416048791
 21
68.948164034828892
 31
0.0
  0
CIRCLE
  5
7CB4
  8
0
 10
3996.6071883063050336
 20
68.212945709328892
 30
0.0
 40
0.0196850394
  0
CIRCLE
  5
7CB5
  8
0
 10
3996.5746814599051504
 20
68.268849448828874
 30
0.0
 40
0.0196850394
  0
CIRCLE
  5
7CB6
  8
0
 10
3996.5610408174047734
 20
68.332062232428882
 30
0.0
 40
0.0196850394
  0
CIRCLE
  5
7CB7
  8
0
 10
3996.5676016198049183
 20
68.3963963526288836
 30
0.0
 40
0.0196850394
  0
CIRCLE
  5
7CB8
  8
0
 10
3996.5937216502052252
 20
68.4555543374288646
 30
0.0
 40
0.0196850394
  0
CIRCLE
  5
7CB9
  8
0
 10
3996.6062468192048982
 20
68.3345715153288893
 30
0.0
 40
0.0196850394
  0
CIRCLE
  5
7CBA
  8
0
 10
3996.7788714650050679
 20
68.1371424288288949
 30
0.0
 40
0.0196850394
  0
CIRCLE
  5
7CBB
  8
0
 10
3996.7145373448051942
 20
68.1437032312288835
 30
0.0
 40
0.0196850394
  0
CIRCLE
  5
7CBC
  8
0
 10
3996.6553793600050994
 20
68.1698232616288919
 30
0.0
 40
0.0196850394
  0
CIRCLE
  5
7CBD
  8
0
 10
3996.7763621821050037
 20
68.1823484306288776
 30
0.0
 40
0.0196850394
  0
CIRCLE
  5
7CBE
  8
0
 10
3996.6945790148051856
 20
68.1994679427288872
 30
0.0
 40
0.0196850394
  0
CIRCLE
  5
7CBF
  8
0
 10
3996.6323124704049405
 20
68.2551854588288904
 30
0.0
 40
0.0196850394
  0
CIRCLE
  5
7CC0
  8
0
 10
3996.6233663313059878
 20
68.416354682628878
 30
0.0
 40
0.0196850394
  0
CIRCLE
  5
7CC1
  8
0
 10
3996.636844097904941
 20
68.5037453911288736
 30
0.0
 40
0.0196850394
  0
CIRCLE
  5
7CC2
  8
0
 10
3996.6927478374059319
 20
68.5362522375288847
 30
0.0
 40
0.0196850394
  0
CIRCLE
  5
7CC3
  8
0
 10
3996.6790838474048542
 20
68.4786212270288814
 30
0.0
 40
0.0196850394
  0
CIRCLE
  5
7CC4
  8
0
 10
3996.7674160430051415
 20
68.3435176544288936
 30
0.0
 40
5.2128362725999988
  0
CIRCLE
  5
7CC5
  8
0
 10
3996.7674160430051415
 20
68.3435176544288936
 30
0.0
 40
5.1239370099999988
  0
CIRCLE
  5
7CC6
  8
0
 10
3996.7693530509050106
 20
68.3435176544288936
 30
0.0
 40
5.0539370000000003
  0
CIRCLE
  5
7CC7
  8
0
 10
3996.7693530509050106
 20
68.3435176544288936
 30
0.0
 40
0.9109999999999999
  0
ARC
  5
7CC8
  8
0
 10
3996.7674160430051415
 20
68.3435176544288936
 30
0.0
 40
0.9
 50
197.7915905730029067
 51
222.2084094270068988
  0
ARC
  5
7CC9
  8
0
 10
3996.7674160430051415
 20
68.3435176544288936
 30
0.0
 40
0.9
 50
137.7915905729931012
 51
162.2084094269970933
  0
ARC
  5
7CCA
  8
0
 10
3996.7674160430051415
 20
68.3435176544288936
 30
0.0
 40
0.9
 50
77.791590572998885
 51
102.2084094270011008
  0
ARC
  5
7CCB
  8
0
 10
3996.7674160430051415
 20
68.3435176544288936
 30
0.0
 40
0.9
 50
17.7915905730028996
 51
42.2084094270068775
  0
ARC
  5
7CCC
  8
0
 10
3996.7674160430051415
 20
68.3435176544288936
 30
0.0
 40
0.9
 50
317.7915905729927886
 51
342.2084094269970933
  0
ARC
  5
7CCD
  8
0
 10
3996.7674160430051415
 20
68.3435176544288936
 30
0.0
 40
0.9
 50
257.7915905729989845
 51
282.2084094270010155
  0
CIRCLE
  5
7CCE
  8
0
 10
3996.7674160430051415
 20
68.3435176544288936
 30
0.0
 40
0.4960629921
  0
CIRCLE
  5
7CCF
  8
0
 10
3996.7674160430051415
 20
68.3435176544288936
 30
0.0
 40
0.4351000237
  0
CIRCLE
  5
7CD0
  8
0
 10
3996.7674160430051415
 20
68.3435176544288936
 30
0.0
 40
0.3800000826
  0
CIRCLE
  5
7CD1
  8
0
 10
3996.7674160430051415
 20
68.3435176544288936
 30
0.0
 40
0.3661415
  0
CIRCLE
  5
7CD2
  8
0
 10
3996.7674160430051415
 20
68.3435176544288936
 30
0.0
 40
0.2933070866
  0
CIRCLE
  5
7CD3
  8
0
 10
3996.7674160430051415
 20
68.3435176544288936
 30
0.0
 40
0.2795275591
  0
CIRCLE
  5
7CD4
  8
0
 10
3996.7674160430051415
 20
68.3435176544288936
 30
0.0
 40
0.2440944882
  0
CIRCLE
  5
7CD5
  8
0
 10
3996.7559606210052152
 20
68.5498928800288923
 30
0.0
 40
0.0196850394
  0
CIRCLE
  5
7CD6
  8
0
 10
3996.7584699039048246
 20
68.5046868782288811
 30
0.0
 40
0.0196850394
  0
CIRCLE
  5
7CD7
  8
0
 10
3996.96723046620491
 20
68.2906389562288894
 30
0.0
 40
0.0196850394
  0
CIRCLE
  5
7CD8
  8
0
 10
3996.9411104358050579
 20
68.2314809714288799
 30
0.0
 40
0.0196850394
  0
CIRCLE
  5
7CD9
  8
0
 10
3996.8979879881048873
 20
68.1832899177288851
 30
0.0
 40
0.0196850394
  0
CIRCLE
  5
7CDA
  8
0
 10
3996.8420842486048059
 20
68.1507830713288882
 30
0.0
 40
0.0196850394
  0
CIRCLE
  5
7CDB
  8
0
 10
3996.9114657547052047
 20
68.2706806262288808
 30
0.0
 40
0.0196850394
  0
CIRCLE
  5
7CDC
  8
0
 10
3996.8557482386049742
 20
68.2084140818288915
 30
0.0
 40
0.0196850394
  0
CIRCLE
  5
7CDD
  8
0
 10
3996.9737912686050549
 20
68.354973076428891
 30
0.0
 40
0.0196850394
  0
CIRCLE
  5
7CDE
  8
0
 10
3996.8202947412050889
 20
68.5433320776288895
 30
0.0
 40
0.0196850394
  0
CIRCLE
  5
7CDF
  8
0
 10
3996.8794527260051836
 20
68.517212047228881
 30
0.0
 40
0.0196850394
  0
CIRCLE
  5
7CE0
  8
0
 10
3996.9276437797047947
 20
68.474089599528881
 30
0.0
 40
0.0196850394
  0
CIRCLE
  5
7CE1
  8
0
 10
3996.9601506261051327
 20
68.4181858600288848
 30
0.0
 40
0.0196850394
  0
CIRCLE
  5
7CE2
  8
0
 10
3996.9285852668049301
 20
68.3524637935288837
 30
0.0
 40
0.0196850394
  0
CIRCLE
  5
7CE3
  8
0
 10
3996.8402530712050975
 20
68.4875673661288857
 30
0.0
 40
0.0196850394
  0
CIRCLE
  5
7CE4
  8
0
 10
3996.9025196156048878
 20
68.4318498500288825
 30
0.0
 40
0.0196850394
  0
ENDSEC
  0
EOF
