  0
SECTION
  2
HEADER
  9
$ACADVER
  1
AC1009
  9
$INSBASE
 10
4017.2789630360612136
 20
70.9697056427306165
 30
0.0
  9
$EXTMIN
 10
4011.0554912893508117
 20
64.7505410520115134
 30
-0.0000000000000053
  9
$EXTMAX
 10
4023.6009357728321447
 20
77.194021710357049
 30
0.0000000000000099
  9
$LIMMIN
 10
0.0
 20
0.0
  9
$LIMMAX
 10
11.6929133858000007
 20
8.2677165353999982
  9
$ORTHOMODE
 70
     0
  9
$REGENMODE
 70
     1
  9
$FILLMODE
 70
     1
  9
$QTEXTMODE
 70
     0
  9
$MIRRTEXT
 70
     0
  9
$DRAGMODE
 70
     2
  9
$LTSCALE
 40
0.6431102362
  9
$OSMODE
 70
  4095
  9
$ATTMODE
 70
     1
  9
$TEXTSIZE
 40
0.2
  9
$TRACEWID
 40
0.05
  9
$TEXTSTYLE
  7
STANDARD
  9
$CLAYER
  8
0
  9
$CELTYPE
  6
BYLAYER
  9
$CECOLOR
 62
   256
  9
$DIMSCALE
 40
1.0
  9
$DIMASZ
 40
0.1875
  9
$DIMEXO
 40
0.0625
  9
$DIMDLI
 40
0.4443307087
  9
$DIMRND
 40
0.0
  9
$DIMDLE
 40
0.0
  9
$DIMEXE
 40
0.125
  9
$DIMTP
 40
0.01
  9
$DIMTM
 40
0.01
  9
$DIMTXT
 40
2.0
  9
$DIMCEN
 40
0.1052362205
  9
$DIMTSZ
 40
0.0
  9
$DIMTOL
 70
     1
  9
$DIMLIM
 70
     0
  9
$DIMTIH
 70
     1
  9
$DIMTOH
 70
     1
  9
$DIMSE1
 70
     0
  9
$DIMSE2
 70
     0
  9
$DIMTAD
 70
     0
  9
$DIMZIN
 70
     0
  9
$DIMBLK
  1

  9
$DIMASO
 70
     1
  9
$DIMSHO
 70
     1
  9
$DIMPOST
  1
\X
  9
$DIMAPOST
  1

  9
$DIMALT
 70
     1
  9
$DIMALTD
 70
     2
  9
$DIMALTF
 40
25.3999999999999986
  9
$DIMLFAC
 40
1.0
  9
$DIMTOFL
 70
     0
  9
$DIMTVP
 40
0.0
  9
$DIMTIX
 70
     0
  9
$DIMSOXD
 70
     0
  9
$DIMSAH
 70
     0
  9
$DIMBLK1
  1

  9
$DIMBLK2
  1

  9
$DIMSTYLE
  2
STANDARD
  9
$DIMCLRD
 70
     0
  9
$DIMCLRE
 70
     0
  9
$DIMCLRT
 70
     0
  9
$DIMTFAC
 40
1.0
  9
$DIMGAP
 40
0.09
  9
$LUNITS
 70
     2
  9
$LUPREC
 70
     4
  9
$SKETCHINC
 40
0.1
  9
$FILLETRAD
 40
0.0
  9
$AUNITS
 70
     0
  9
$AUPREC
 70
     0
  9
$MENU
  1
.
  9
$ELEVATION
 40
0.0
  9
$PELEVATION
 40
0.0
  9
$THICKNESS
 40
0.0
  9
$LIMCHECK
 70
     0
  9
$BLIPMODE
 70
     0
  9
$CHAMFERA
 40
0.0
  9
$CHAMFERB
 40
0.0
  9
$SKPOLY
 70
     0
  9
$TDCREATE
 40
2458060.468368056230247
  9
$TDUPDATE
 40
2459072.4898379631340504
  9
$TDINDWG
 40
0.4281783565
  9
$TDUSRTIMER
 40
0.4281783565
  9
$USRTIMER
 70
     1
  9
$ANGBASE
 50
0.0
  9
$ANGDIR
 70
     0
  9
$PDMODE
 70
     0
  9
$PDSIZE
 40
0.3125
  9
$PLINEWID
 40
0.0
  9
$COORDS
 70
     1
  9
$SPLFRAME
 70
     0
  9
$SPLINETYPE
 70
     6
  9
$SPLINESEGS
 70
     8
  9
$ATTDIA
 70
     1
  9
$ATTREQ
 70
     1
  9
$HANDLING
 70
     1
  9
$HANDSEED
  5
806E
  9
$SURFTAB1
 70
     6
  9
$SURFTAB2
 70
     6
  9
$SURFTYPE
 70
     6
  9
$SURFU
 70
     6
  9
$SURFV
 70
     6
  9
$UCSNAME
  2

  9
$UCSORG
 10
0.0
 20
0.0
 30
0.0
  9
$UCSXDIR
 10
1.0
 20
0.0
 30
0.0
  9
$UCSYDIR
 10
0.0
 20
1.0
 30
0.0
  9
$PUCSNAME
  2

  9
$PUCSORG
 10
0.0
 20
0.0
 30
0.0
  9
$PUCSXDIR
 10
1.0
 20
0.0
 30
0.0
  9
$PUCSYDIR
 10
0.0
 20
1.0
 30
0.0
  9
$USERI1
 70
     0
  9
$USERI2
 70
     0
  9
$USERI3
 70
     0
  9
$USERI4
 70
     0
  9
$USERI5
 70
     0
  9
$USERR1
 40
0.0
  9
$USERR2
 40
0.0
  9
$USERR3
 40
0.0
  9
$USERR4
 40
0.0
  9
$USERR5
 40
0.0
  9
$WORLDVIEW
 70
     1
  9
$SHADEDGE
 70
     3
  9
$SHADEDIF
 70
    70
  9
$TILEMODE
 70
     1
  9
$MAXACTVP
 70
    64
  9
$PLIMCHECK
 70
     0
  9
$PEXTMIN
 10
1.0000000000000000E+20
 20
1.0000000000000000E+20
 30
1.0000000000000000E+20
  9
$PEXTMAX
 10
-1.0000000000000000E+20
 20
-1.0000000000000000E+20
 30
-1.0000000000000000E+20
  9
$PLIMMIN
 10
0.0
 20
0.0
  9
$PLIMMAX
 10
12.0
 20
9.0
  9
$UNITMODE
 70
     0
  9
$VISRETAIN
 70
     1
  9
$PLINEGEN
 70
     0
  9
$PSLTSCALE
 70
     1
  0
ENDSEC
  0
SECTION
  2
TABLES
  0
TABLE
  2
VPORT
 70
     1
  0
VPORT
  2
*ACTIVE
 70
     0
 10
0.0
 20
0.0
 11
1.0
 21
1.0
 12
224.9703033748419045
 22
-49.2083750519211804
 13
0.0
 23
0.0
 14
1.0
 24
1.0
 15
0.0
 25
0.0
 16
0.0
 26
0.0
 36
5.1040778033513332
 17
3792.35791015625
 27
120.1806564331053977
 37
0.0
 40
12.52141477520364
 41
2.005224660397074
 42
50.0
 43
0.0
 44
0.0
 50
0.0
 51
0.0
 71
     0
 72
   100
 73
     1
 74
     1
 75
     0
 76
     0
 77
     0
 78
     0
  0
ENDTAB
  0
TABLE
  2
LTYPE
 70
     2
  0
LTYPE
  2
CONTINUOUS
 70
     0
  3
Solid line
 72
    65
 73
     0
 40
0.0
  0
LTYPE
  2
PHANTOM2
 70
     0
  3
___ _ _ ___ _ _ ___ _ _ ___ _ _
 72
    65
 73
     6
 40
1.25
 49
0.625
 49
-0.125
 49
0.125
 49
-0.125
 49
0.125
 49
-0.125
  0
ENDTAB
  0
TABLE
  2
LAYER
 70
     2
  0
LAYER
  2
0
 70
     0
 62
   255
  6
CONTINUOUS
  0
LAYER
  2
DEFPOINTS
 70
     0
 62
     7
  6
CONTINUOUS
  0
ENDTAB
  0
TABLE
  2
STYLE
 70
     1
  0
STYLE
  2
STANDARD
 70
     0
 40
0.0
 41
0.8
 50
0.0
 71
     0
 42
0.2
  3
txt
  4

  0
ENDTAB
  0
TABLE
  2
VIEW
 70
     0
  0
ENDTAB
  0
TABLE
  2
UCS
 70
     0
  0
ENDTAB
  0
TABLE
  2
APPID
 70
     9
  0
APPID
  2
ACAD
 70
     0
  0
APPID
  2
ACAD_MLEADERVER
 70
     0
  0
APPID
  2
ACAD_EXEMPT_FROM_CAD_STANDARDS
 70
     0
  0
APPID
  2
ACAD_NAV_VCDISPLAY
 70
     0
  0
APPID
  2
ACAECLAYERSTANDARD
 70
     0
  0
APPID
  2
ACCMTRANSPARENCY
 70
     0
  0
APPID
  2
ACAD_DSTYLE_DIMJAG
 70
     0
  0
APPID
  2
ACAD_DSTYLE_DIMTALN
 70
     0
  0
APPID
  2
ACDBATTR
 70
     0
  0
ENDTAB
  0
TABLE
  2
DIMSTYLE
 70
     1
  0
DIMSTYLE
  2
STANDARD
 70
     0
  3

  4

  5

  6

  7

 40
1.0
 41
0.1875
 42
0.0625
 43
0.38
 44
0.125
 45
0.0
 46
0.0
 47
0.01
 48
0.01
140
0.15625
141
0.09
142
0.0
143
25.3999999999999986
144
1.0
145
0.0
146
1.0
147
0.09
 71
     1
 72
     0
 73
     1
 74
     1
 75
     0
 76
     0
 77
     0
 78
     4
170
     0
171
     2
172
     0
173
     0
174
     0
175
     0
176
     0
177
     0
178
     0
  0
ENDTAB
  0
ENDSEC
  0
SECTION
  2
BLOCKS
  0
BLOCK
  8
0
  2
$MODEL_SPACE
 70
     0
 10
0.0
 20
0.0
 30
0.0
  3
$MODEL_SPACE
  1

  0
ENDBLK
  5
21
  8
0
  0
BLOCK
 67
     1
  8
0
  2
$PAPER_SPACE
 70
     0
 10
0.0
 20
0.0
 30
0.0
  3
$PAPER_SPACE
  1

  0
ENDBLK
  5
1D
 67
     1
  8
0
  0
ENDSEC
  0
SECTION
  2
ENTITIES
  0
ATTDEF
  5
3930
  8
DEFPOINTS
 10
4017.275118314887095
 20
70.9751204620353064
 30
0.0
 40
0.001
  1
K-15993T-CL
  3

  2
MODELNUMBER
 70
     0
1001
ACDBATTR
1070
     0
1070
     1
  0
ATTDEF
  5
3931
  8
DEFPOINTS
 10
4017.275118314887095
 20
70.9734537953686413
 30
0.0
 40
0.001
  1
KATALYST
  3

  2
TRADENAME
 70
     0
1001
ACDBATTR
1070
     0
1070
     1
  0
ATTDEF
  5
3932
  8
DEFPOINTS
 10
4017.275118314887095
 20
70.9717871287019761
 30
0.0
 40
0.001
  1
SHOWERHEAD
  3

  2
PRODUCT
 70
     0
1001
ACDBATTR
1070
     0
1070
     1
  0
LINE
  5
7F74
  8
0
 10
4016.4220062109611717
 20
71.2447056427306222
 30
0.0
 11
4016.4220062109611717
 21
70.6947056427306109
 31
0.0
  0
LINE
  5
7F75
  8
0
 10
4016.6123276374628404
 20
71.574352023130615
 30
0.0
 11
4017.088641609563183
 21
71.8493520231306206
 31
0.0
  0
LINE
  5
7F76
  8
0
 10
4017.088641609563183
 20
70.0900592623306125
 30
0.0
 11
4016.6123276374628404
 21
70.3650592623306039
 31
0.0
  0
LINE
  5
7F77
  8
0
 10
4018.1359198610612111
 20
70.6947056427306109
 30
0.0
 11
4018.1359198610612111
 21
71.2447056427306222
 31
0.0
  0
LINE
  5
7F78
  8
0
 10
4017.9455984346618607
 20
70.3650592623306039
 30
0.0
 11
4017.4692844625628823
 21
70.0900592623306125
 31
0.0
  0
LINE
  5
7F79
  8
0
 10
4017.4692844625628823
 20
71.8493520231306206
 30
0.0
 11
4017.9455984346618607
 21
71.574352023130615
 31
0.0
  0
CIRCLE
  5
7F7A
  8
0
 10
4017.1187352993620152
 20
70.839133697630615
 30
0.0
 40
0.0196850394
  0
CIRCLE
  5
7F7B
  8
0
 10
4017.086228452962132
 20
70.8950374371306111
 30
0.0
 40
0.0196850394
  0
CIRCLE
  5
7F7C
  8
0
 10
4017.0725878104631192
 20
70.9582502207306192
 30
0.0
 40
0.0196850394
  0
CIRCLE
  5
7F7D
  8
0
 10
4017.0791486128618999
 20
71.0225843409306208
 30
0.0
 40
0.0196850394
  0
CIRCLE
  5
7F7E
  8
0
 10
4017.1052686432622068
 20
71.081742325730616
 30
0.0
 40
0.0196850394
  0
CIRCLE
  5
7F7F
  8
0
 10
4017.1177938122618798
 20
70.9607595036306122
 30
0.0
 40
0.0196850394
  0
CIRCLE
  5
7F80
  8
0
 10
4017.2904184580620495
 20
70.7633304171306179
 30
0.0
 40
0.0196850394
  0
CIRCLE
  5
7F81
  8
0
 10
4017.2260843378621757
 20
70.7698912195306207
 30
0.0
 40
0.0196850394
  0
CIRCLE
  5
7F82
  8
0
 10
4017.166926353062081
 20
70.7960112499306149
 30
0.0
 40
0.0196850394
  0
CIRCLE
  5
7F83
  8
0
 10
4017.2879091751619853
 20
70.8085364189306148
 30
0.0
 40
0.0196850394
  0
CIRCLE
  5
7F84
  8
0
 10
4017.2061260078621672
 20
70.8256559310306102
 30
0.0
 40
0.0196850394
  0
CIRCLE
  5
7F85
  8
0
 10
4017.1438594634619221
 20
70.8813734471306134
 30
0.0
 40
0.0196850394
  0
CIRCLE
  5
7F86
  8
0
 10
4017.1349133243620599
 20
71.0425426709306151
 30
0.0
 40
0.0196850394
  0
CIRCLE
  5
7F87
  8
0
 10
4017.1483910909619226
 20
71.1299333794306108
 30
0.0
 40
0.0196850394
  0
CIRCLE
  5
7F88
  8
0
 10
4017.204294830462004
 20
71.1624402258305935
 30
0.0
 40
0.0196850394
  0
CIRCLE
  5
7F89
  8
0
 10
4017.1906308404618358
 20
71.1048092153306186
 30
0.0
 40
0.0196850394
  0
CIRCLE
  5
7F8A
  8
0
 10
4017.2809000439629017
 20
70.9697056427306165
 30
0.0
 40
0.9109999999999999
  0
ARC
  5
7F8B
  8
0
 10
4017.2789630360612136
 20
70.9697056427306165
 30
0.0
 40
0.9
 50
197.7915905730029067
 51
222.2084094270068988
  0
ARC
  5
7F8C
  8
0
 10
4017.2789630360612136
 20
70.9697056427306165
 30
0.0
 40
0.9
 50
137.7915905729931012
 51
162.2084094269970933
  0
ARC
  5
7F8D
  8
0
 10
4017.2789630360612136
 20
70.9697056427306165
 30
0.0
 40
0.9
 50
77.791590572998885
 51
102.2084094270011008
  0
ARC
  5
7F8E
  8
0
 10
4017.2789630360612136
 20
70.9697056427306165
 30
0.0
 40
0.9
 50
17.7915905730028996
 51
42.2084094270068775
  0
ARC
  5
7F8F
  8
0
 10
4017.2789630360612136
 20
70.9697056427306165
 30
0.0
 40
0.9
 50
317.7915905729930728
 51
342.2084094269970933
  0
ARC
  5
7F90
  8
0
 10
4017.2789630360612136
 20
70.9697056427306165
 30
0.0
 40
0.9
 50
257.7915905729989845
 51
282.2084094270010155
  0
CIRCLE
  5
7F91
  8
0
 10
4017.2789630360612136
 20
70.9697056427306165
 30
0.0
 40
0.4960629921
  0
CIRCLE
  5
7F92
  8
0
 10
4017.2789630360612136
 20
70.9697056427306165
 30
0.0
 40
0.4351000237
  0
CIRCLE
  5
7F93
  8
0
 10
4017.2789630360612136
 20
70.9697056427306165
 30
0.0
 40
0.3800000826
  0
CIRCLE
  5
7F94
  8
0
 10
4017.2789630360612136
 20
70.9697056427306165
 30
0.0
 40
0.3661415
  0
CIRCLE
  5
7F95
  8
0
 10
4017.2789630360612136
 20
70.9697056427306165
 30
0.0
 40
0.2933070866
  0
CIRCLE
  5
7F96
  8
0
 10
4017.2789630360612136
 20
70.9697056427306165
 30
0.0
 40
0.2795275591
  0
CIRCLE
  5
7F97
  8
0
 10
4017.2789630360612136
 20
70.9697056427306165
 30
0.0
 40
0.2440944882
  0
CIRCLE
  5
7F98
  8
0
 10
4017.2675076140621968
 20
71.1760808683306152
 30
0.0
 40
0.0196850394
  0
CIRCLE
  5
7F99
  8
0
 10
4017.2700168969618062
 20
71.1308748665306183
 30
0.0
 40
0.0196850394
  0
CIRCLE
  5
7F9A
  8
0
 10
4017.4787774592618916
 20
70.9168269445306123
 30
0.0
 40
0.0196850394
  0
CIRCLE
  5
7F9B
  8
0
 10
4017.4526574288620395
 20
70.8576689597306171
 30
0.0
 40
0.0196850394
  0
CIRCLE
  5
7F9C
  8
0
 10
4017.4095349811618689
 20
70.8094779060306223
 30
0.0
 40
0.0196850394
  0
CIRCLE
  5
7F9D
  8
0
 10
4017.3536312416617875
 20
70.7769710596306254
 30
0.0
 40
0.0196850394
  0
CIRCLE
  5
7F9E
  8
0
 10
4017.4230127477608221
 20
70.8968686145306179
 30
0.0
 40
0.0196850394
  0
CIRCLE
  5
7F9F
  8
0
 10
4017.3672952316619558
 20
70.8346020701306145
 30
0.0
 40
0.0196850394
  0
CIRCLE
  5
7FA0
  8
0
 10
4017.4853382616620365
 20
70.9811610647306139
 30
0.0
 40
0.0196850394
  0
CIRCLE
  5
7FA1
  8
0
 10
4017.3318417342620705
 20
71.1695200659306124
 30
0.0
 40
0.0196850394
  0
CIRCLE
  5
7FA2
  8
0
 10
4017.390999719060801
 20
71.1434000355306182
 30
0.0
 40
0.0196850394
  0
CIRCLE
  5
7FA3
  8
0
 10
4017.4391907727617763
 20
71.1002775878306039
 30
0.0
 40
0.0196850394
  0
CIRCLE
  5
7FA4
  8
0
 10
4017.4716976191621143
 20
71.044373848330622
 30
0.0
 40
0.0196850394
  0
CIRCLE
  5
7FA5
  8
0
 10
4017.4401322598628212
 20
70.9786517818306208
 30
0.0
 40
0.0196850394
  0
CIRCLE
  5
7FA6
  8
0
 10
4017.3518000642620791
 20
71.1137553544306229
 30
0.0
 40
0.0196850394
  0
CIRCLE
  5
7FA7
  8
0
 10
4017.4140666086618694
 20
71.0580378383306197
 30
0.0
 40
0.0196850394
  0
CIRCLE
  5
7FA9
  8
0
 10
4017.2789630360612136
 20
70.9697056427306165
 30
0.0
 40
6.2187102724500027
  0
CIRCLE
  5
7FAA
  8
0
 10
4017.2789630360612136
 20
70.9697056427306165
 30
0.0
 40
6.1298110098505934
  0
CIRCLE
  5
7FAB
  8
0
 10
4017.2789630360612136
 20
70.9697056427306165
 30
0.0
 40
6.0617480077500021
  0
ENDSEC
  0
EOF
