  0
SECTION
  2
HEADER
  9
$ACADVER
  1
AC1009
  9
$INSBASE
 10
4092.025025774596088
 20
127.2472121911277014
 30
0.0
  9
$EXTMIN
 10
4084.9920199425569081
 20
124.7429608282959066
 30
-0.0000000349181948
  9
$EXTMAX
 10
4099.0656845882276684
 20
127.2478004150082
 30
0.0000000814935746
  9
$LIMMIN
 10
0.0
 20
0.0
  9
$LIMMAX
 10
11.6929133858000007
 20
8.2677165353999982
  9
$ORTHOMODE
 70
     0
  9
$REGENMODE
 70
     1
  9
$FILLMODE
 70
     1
  9
$QTEXTMODE
 70
     0
  9
$MIRRTEXT
 70
     0
  9
$DRAGMODE
 70
     2
  9
$LTSCALE
 40
0.6431102362
  9
$OSMODE
 70
  4095
  9
$ATTMODE
 70
     1
  9
$TEXTSIZE
 40
0.2
  9
$TRACEWID
 40
0.05
  9
$TEXTSTYLE
  7
STANDARD
  9
$CLAYER
  8
0
  9
$CELTYPE
  6
BYLAYER
  9
$CECOLOR
 62
   256
  9
$DIMSCALE
 40
1.0
  9
$DIMASZ
 40
0.1875
  9
$DIMEXO
 40
0.0625
  9
$DIMDLI
 40
0.4443307087
  9
$DIMRND
 40
0.0
  9
$DIMDLE
 40
0.0
  9
$DIMEXE
 40
0.125
  9
$DIMTP
 40
0.01
  9
$DIMTM
 40
0.01
  9
$DIMTXT
 40
2.0
  9
$DIMCEN
 40
0.1052362205
  9
$DIMTSZ
 40
0.0
  9
$DIMTOL
 70
     1
  9
$DIMLIM
 70
     0
  9
$DIMTIH
 70
     1
  9
$DIMTOH
 70
     1
  9
$DIMSE1
 70
     0
  9
$DIMSE2
 70
     0
  9
$DIMTAD
 70
     0
  9
$DIMZIN
 70
     0
  9
$DIMBLK
  1

  9
$DIMASO
 70
     1
  9
$DIMSHO
 70
     1
  9
$DIMPOST
  1
\X
  9
$DIMAPOST
  1

  9
$DIMALT
 70
     1
  9
$DIMALTD
 70
     2
  9
$DIMALTF
 40
25.3999999999999986
  9
$DIMLFAC
 40
1.0
  9
$DIMTOFL
 70
     0
  9
$DIMTVP
 40
0.0
  9
$DIMTIX
 70
     0
  9
$DIMSOXD
 70
     0
  9
$DIMSAH
 70
     0
  9
$DIMBLK1
  1

  9
$DIMBLK2
  1

  9
$DIMSTYLE
  2
STANDARD
  9
$DIMCLRD
 70
     0
  9
$DIMCLRE
 70
     0
  9
$DIMCLRT
 70
     0
  9
$DIMTFAC
 40
1.0
  9
$DIMGAP
 40
0.09
  9
$LUNITS
 70
     2
  9
$LUPREC
 70
     4
  9
$SKETCHINC
 40
0.1
  9
$FILLETRAD
 40
0.0
  9
$AUNITS
 70
     0
  9
$AUPREC
 70
     0
  9
$MENU
  1
.
  9
$ELEVATION
 40
0.0
  9
$PELEVATION
 40
0.0
  9
$THICKNESS
 40
0.0
  9
$LIMCHECK
 70
     0
  9
$BLIPMODE
 70
     0
  9
$CHAMFERA
 40
0.0
  9
$CHAMFERB
 40
0.0
  9
$SKPOLY
 70
     0
  9
$TDCREATE
 40
2458060.468368056230247
  9
$TDUPDATE
 40
2459066.6521875001490116
  9
$TDINDWG
 40
0.3039885417
  9
$TDUSRTIMER
 40
0.3039885417
  9
$USRTIMER
 70
     1
  9
$ANGBASE
 50
0.0
  9
$ANGDIR
 70
     0
  9
$PDMODE
 70
     0
  9
$PDSIZE
 40
0.3125
  9
$PLINEWID
 40
0.0
  9
$COORDS
 70
     1
  9
$SPLFRAME
 70
     0
  9
$SPLINETYPE
 70
     6
  9
$SPLINESEGS
 70
     8
  9
$ATTDIA
 70
     1
  9
$ATTREQ
 70
     1
  9
$HANDLING
 70
     1
  9
$HANDSEED
  5
6E67
  9
$SURFTAB1
 70
     6
  9
$SURFTAB2
 70
     6
  9
$SURFTYPE
 70
     6
  9
$SURFU
 70
     6
  9
$SURFV
 70
     6
  9
$UCSNAME
  2

  9
$UCSORG
 10
0.0
 20
0.0
 30
0.0
  9
$UCSXDIR
 10
1.0
 20
0.0
 30
0.0
  9
$UCSYDIR
 10
0.0
 20
1.0
 30
0.0
  9
$PUCSNAME
  2

  9
$PUCSORG
 10
0.0
 20
0.0
 30
0.0
  9
$PUCSXDIR
 10
1.0
 20
0.0
 30
0.0
  9
$PUCSYDIR
 10
0.0
 20
1.0
 30
0.0
  9
$USERI1
 70
     0
  9
$USERI2
 70
     0
  9
$USERI3
 70
     0
  9
$USERI4
 70
     0
  9
$USERI5
 70
     0
  9
$USERR1
 40
0.0
  9
$USERR2
 40
0.0
  9
$USERR3
 40
0.0
  9
$USERR4
 40
0.0
  9
$USERR5
 40
0.0
  9
$WORLDVIEW
 70
     1
  9
$SHADEDGE
 70
     3
  9
$SHADEDIF
 70
    70
  9
$TILEMODE
 70
     1
  9
$MAXACTVP
 70
    64
  9
$PLIMCHECK
 70
     0
  9
$PEXTMIN
 10
1.0000000000000000E+20
 20
1.0000000000000000E+20
 30
1.0000000000000000E+20
  9
$PEXTMAX
 10
-1.0000000000000000E+20
 20
-1.0000000000000000E+20
 30
-1.0000000000000000E+20
  9
$PLIMMIN
 10
0.0
 20
0.0
  9
$PLIMMAX
 10
12.0
 20
9.0
  9
$UNITMODE
 70
     0
  9
$VISRETAIN
 70
     1
  9
$PLINEGEN
 70
     0
  9
$PSLTSCALE
 70
     1
  0
ENDSEC
  0
SECTION
  2
TABLES
  0
TABLE
  2
VPORT
 70
     1
  0
VPORT
  2
*ACTIVE
 70
     0
 10
0.0
 20
0.0
 11
1.0
 21
1.0
 12
16.4183786325802394
 22
0.0296976382536229
 13
0.0
 23
0.0
 14
1.0
 24
1.0
 15
0.0
 25
0.0
 16
0.0
 26
0.0
 36
53.3788880271138382
 17
4075.6104736328129547
 27
125.9656829833983949
 37
0.0
 40
7.0404190176416099
 41
2.005224660397074
 42
50.0
 43
0.0
 44
0.0
 50
0.0
 51
0.0
 71
     0
 72
   100
 73
     1
 74
     1
 75
     0
 76
     0
 77
     0
 78
     0
  0
ENDTAB
  0
TABLE
  2
LTYPE
 70
     2
  0
LTYPE
  2
CONTINUOUS
 70
     0
  3
Solid line
 72
    65
 73
     0
 40
0.0
  0
LTYPE
  2
PHANTOM2
 70
     0
  3
___ _ _ ___ _ _ ___ _ _ ___ _ _
 72
    65
 73
     6
 40
1.25
 49
0.625
 49
-0.125
 49
0.125
 49
-0.125
 49
0.125
 49
-0.125
  0
ENDTAB
  0
TABLE
  2
LAYER
 70
     2
  0
LAYER
  2
0
 70
     0
 62
   255
  6
CONTINUOUS
  0
LAYER
  2
DEFPOINTS
 70
     0
 62
     7
  6
CONTINUOUS
  0
ENDTAB
  0
TABLE
  2
STYLE
 70
     1
  0
STYLE
  2
STANDARD
 70
     0
 40
0.0
 41
0.8
 50
0.0
 71
     0
 42
0.2
  3
txt
  4

  0
ENDTAB
  0
TABLE
  2
VIEW
 70
     0
  0
ENDTAB
  0
TABLE
  2
UCS
 70
     0
  0
ENDTAB
  0
TABLE
  2
APPID
 70
     9
  0
APPID
  2
ACAD
 70
     0
  0
APPID
  2
ACAD_MLEADERVER
 70
     0
  0
APPID
  2
ACAD_EXEMPT_FROM_CAD_STANDARDS
 70
     0
  0
APPID
  2
ACAD_NAV_VCDISPLAY
 70
     0
  0
APPID
  2
ACAECLAYERSTANDARD
 70
     0
  0
APPID
  2
ACCMTRANSPARENCY
 70
     0
  0
APPID
  2
ACAD_DSTYLE_DIMJAG
 70
     0
  0
APPID
  2
ACAD_DSTYLE_DIMTALN
 70
     0
  0
APPID
  2
ACDBATTR
 70
     0
  0
ENDTAB
  0
TABLE
  2
DIMSTYLE
 70
     1
  0
DIMSTYLE
  2
STANDARD
 70
     0
  3

  4

  5

  6

  7

 40
1.0
 41
0.1875
 42
0.0625
 43
0.38
 44
0.125
 45
0.0
 46
0.0
 47
0.01
 48
0.01
140
0.15625
141
0.09
142
0.0
143
25.3999999999999986
144
1.0
145
0.0
146
1.0
147
0.09
 71
     1
 72
     0
 73
     1
 74
     1
 75
     0
 76
     0
 77
     0
 78
     4
170
     0
171
     2
172
     0
173
     0
174
     0
175
     0
176
     0
177
     0
178
     0
  0
ENDTAB
  0
ENDSEC
  0
SECTION
  2
BLOCKS
  0
BLOCK
  8
0
  2
$MODEL_SPACE
 70
     0
 10
0.0
 20
0.0
 30
0.0
  3
$MODEL_SPACE
  1

  0
ENDBLK
  5
21
  8
0
  0
BLOCK
 67
     1
  8
0
  2
$PAPER_SPACE
 70
     0
 10
0.0
 20
0.0
 30
0.0
  3
$PAPER_SPACE
  1

  0
ENDBLK
  5
1D
 67
     1
  8
0
  0
ENDSEC
  0
SECTION
  2
ENTITIES
  0
ATTDEF
  5
3930
  8
DEFPOINTS
 10
4092.0192986370238941
 20
127.2454040184182986
 30
0.0
 40
0.001
  1
K-15994T-CL
  3

  2
MODELNUMBER
 70
     0
1001
ACDBATTR
1070
     0
1070
     1
  0
ATTDEF
  5
3931
  8
DEFPOINTS
 10
4092.0192986370238941
 20
127.243737351751605
 30
0.0
 40
0.001
  1
KATALYST
  3

  2
TRADENAME
 70
     0
1001
ACDBATTR
1070
     0
1070
     1
  0
ATTDEF
  5
3932
  8
DEFPOINTS
 10
4092.0192986370238941
 20
127.2420706850849967
 30
0.0
 40
0.001
  1
SHOWERHEAD
  3

  2
PRODUCT
 70
     0
1001
ACDBATTR
1070
     0
1070
     1
  0
LINE
  5
6B58
  8
0
 10
4085.0171517588960342
 20
124.8361885690276978
 30
0.0
 11
4085.0171517588960342
 21
125.2393381753277026
 31
0.0
  0
LINE
  5
6B59
  8
0
 10
4086.3488249806960084
 20
124.755825756927706
 30
0.0
 11
4086.3438565360961547
 21
124.8062673092277066
 31
0.0
  0
LINE
  5
6B5A
  8
0
 10
4086.163695139804986
 20
124.7580439884222017
 30
0.0
 11
4086.1589981430961416
 21
124.8062673092277066
 31
0.0
  0
LINE
  5
6B5B
  8
0
 10
4086.0520153440947979
 20
124.7559201446341035
 30
0.0
 11
4086.0471449316960388
 21
124.8062673092277066
 31
0.0
  0
LINE
  5
6B5C
  8
0
 10
4086.0097035729959316
 20
124.8062673092277066
 30
0.0
 11
4086.0145616398981474
 21
124.7559320570943981
 31
0.0
  0
LINE
  5
6B5D
  8
0
 10
4086.9275614499961193
 20
124.7556417928277028
 30
0.0
 11
4086.9224008487958599
 21
124.8062673092277066
 31
0.0
  0
LINE
  5
6B5E
  8
0
 10
4086.6044484792951152
 20
124.7557444883276929
 30
0.0
 11
4086.5993953247962054
 21
124.8062673092277066
 31
0.0
  0
LINE
  5
6B5F
  8
0
 10
4086.4564772054959576
 20
124.7522774177276972
 30
0.0
 11
4086.4654162720958084
 21
124.8062673092277066
 31
0.0
  0
LINE
  5
6B60
  8
0
 10
4086.2715538573947924
 20
124.7522196452215013
 30
0.0
 11
4086.2805623660960919
 21
124.8062673092277066
 31
0.0
  0
LINE
  5
6B61
  8
0
 10
4086.1597901744480623
 20
124.7529545069558026
 30
0.0
 11
4086.1625718481959666
 21
124.7695766453277031
 31
0.0
  0
LINE
  5
6B62
  8
0
 10
4086.8156959652960722
 20
124.7549709602276948
 30
0.0
 11
4086.8097438647960189
 21
124.8062673092277066
 31
0.0
  0
LINE
  5
6B63
  8
0
 10
4086.7514373107960637
 20
124.7549825775276986
 30
0.0
 11
4086.7454977434949797
 21
124.8062673092277066
 31
0.0
  0
LINE
  5
6B64
  8
0
 10
4087.3141006768960324
 20
124.7555189831277005
 30
0.0
 11
4087.3088109920950046
 21
124.8062673092277066
 31
0.0
  0
LINE
  5
6B65
  8
0
 10
4087.0723220270961065
 20
124.7531415811276929
 30
0.0
 11
4087.0803229314960845
 21
124.8062673092277066
 31
0.0
  0
LINE
  5
6B66
  8
0
 10
4086.9234100092958215
 20
124.7531149048261057
 30
0.0
 11
4086.9260429186788315
 21
124.770538590520701
 31
0.0
  0
LINE
  5
6B67
  8
0
 10
4087.0352248851950208
 20
124.7524583723276947
 30
0.0
 11
4087.0439474792960937
 21
124.8062673092277066
 31
0.0
  0
LINE
  5
6B68
  8
0
 10
4086.7121058051961882
 20
124.7523573169277
 30
0.0
 11
4086.7209490969958097
 21
124.8062673092277066
 31
0.0
  0
LINE
  5
6B69
  8
0
 10
4087.1957255881961828
 20
124.7549022662277025
 30
0.0
 11
4087.1896992569950271
 21
124.8062673092277066
 31
0.0
  0
LINE
  5
6B6A
  8
0
 10
4087.7592053349958405
 20
124.7553776290277057
 30
0.0
 11
4087.7537662734957848
 21
124.8062673092277066
 31
0.0
  0
LINE
  5
6B6B
  8
0
 10
4087.4486949410961643
 20
124.7532090238276936
 30
0.0
 11
4087.4566176065959553
 21
124.8062673092277066
 31
0.0
  0
LINE
  5
6B6C
  8
0
 10
4087.3034418617958181
 20
124.7531829926276998
 30
0.0
 11
4087.3098710613821822
 21
124.7960971868361071
 31
0.0
  0
LINE
  5
6B6D
  8
0
 10
4087.1778121424949859
 20
124.7531604813276971
 30
0.0
 11
4087.1857910997960062
 21
124.8062673092277066
 31
0.0
  0
LINE
  5
6B6E
  8
0
 10
4087.4217709235958864
 20
124.7525793532277021
 30
0.0
 11
4087.4303496608958994
 21
124.8062673092277066
 31
0.0
  0
LINE
  5
6B6F
  8
0
 10
4087.4915419358958388
 20
124.7539457363276938
 30
0.0
 11
4087.4838829286959481
 21
124.8062673092277066
 31
0.0
  0
LINE
  5
6B70
  8
0
 10
4087.888117485094881
 20
124.7547771591276984
 30
0.0
 11
4087.8819554310957756
 21
124.8062673092277066
 31
0.0
  0
LINE
  5
6B71
  8
0
 10
4087.5052565360961125
 20
124.7548463296276964
 30
0.0
 11
4087.4991696069960199
 21
124.8062673092277066
 31
0.0
  0
LINE
  5
6B72
  8
0
 10
4088.2572781118951752
 20
124.7552195366277061
 30
0.0
 11
4088.2516709647970856
 21
124.8062673092277066
 31
0.0
  0
LINE
  5
6B73
  8
0
 10
4087.6994455172962262
 20
124.7539457363276938
 30
0.0
 11
4087.7071045244961169
 21
124.8062673092277066
 31
0.0
  0
LINE
  5
6B74
  8
0
 10
4087.9958373823960756
 20
124.753307114327697
 30
0.0
 11
4088.0036466320962063
 21
124.8062673092277066
 31
0.0
  0
LINE
  5
6B75
  8
0
 10
4087.6129744995960209
 20
124.7532384696277035
 30
0.0
 11
4087.6208630718961103
 21
124.8062673092277066
 31
0.0
  0
LINE
  5
6B76
  8
0
 10
4087.8668827541951032
 20
124.7527187814277028
 30
0.0
 11
4087.8752965597959701
 21
124.8062673092277066
 31
0.0
  0
LINE
  5
6B77
  8
0
 10
4088.0808118054960687
 20
124.7539457363276938
 30
0.0
 11
4088.0731527982961779
 21
124.8062673092277066
 31
0.0
  0
LINE
  5
6B78
  8
0
 10
4088.2111625883958368
 20
124.7540327708277061
 30
0.0
 11
4088.2041727389960215
 21
124.8058094334276973
 31
0.0
  0
LINE
  5
6B79
  8
0
 10
4088.2414358142950732
 20
124.7540327708277061
 30
0.0
 11
4088.2343841515958047
 21
124.8062673092277066
 31
0.0
  0
LINE
  5
6B7A
  8
0
 10
4088.4457438653957979
 20
124.7533878141277057
 30
0.0
 11
4088.4534601409950483
 21
124.8062673092277066
 31
0.0
  0
LINE
  5
6B7B
  8
0
 10
4088.1886493049960336
 20
124.7539457363276938
 30
0.0
 11
4088.1963083121959244
 21
124.8062673092277066
 31
0.0
  0
LINE
  5
6B7C
  8
0
 10
4088.3649627049958326
 20
124.752874947527701
 30
0.0
 11
4088.3731928678957956
 21
124.8062673092277066
 31
0.0
  0
LINE
  5
6B7D
  8
0
 10
4088.4590215070961676
 20
124.7539457363276938
 30
0.0
 11
4088.4524129762958182
 21
124.7990911083277012
 31
0.0
  0
LINE
  5
6B7E
  8
0
 10
4088.6567848055951799
 20
124.7540327708277061
 30
0.0
 11
4088.6497331428959114
 21
124.8062673092277066
 31
0.0
  0
LINE
  5
6B7F
  8
0
 10
4088.802055589595966
 20
124.7550467246277037
 30
0.0
 11
4088.7962639018960544
 21
124.8062634723277
 31
0.0
  0
LINE
  5
6B80
  8
0
 10
4088.6179995033958221
 20
124.7540327708277061
 30
0.0
 11
4088.6250511660960001
 21
124.8062673092277066
 31
0.0
  0
LINE
  5
6B81
  8
0
 10
4088.7645318738959759
 20
124.7540327708277061
 30
0.0
 11
4088.7715835365961539
 21
124.8062673092277066
 31
0.0
  0
LINE
  5
6B82
  8
0
 10
4088.955306446495797
 20
124.7534792589276975
 30
0.0
 11
4088.9629177320957751
 21
124.8062673092277066
 31
0.0
  0
LINE
  5
6B83
  8
0
 10
4088.5668590066961769
 20
124.7539457363276938
 30
0.0
 11
4088.5745180138960677
 21
124.8062673092277066
 31
0.0
  0
LINE
  5
6B84
  8
0
 10
4089.0235228952960824
 20
124.7539457363276938
 30
0.0
 11
4089.0311819024959732
 21
124.8062673092277066
 31
0.0
  0
LINE
  5
6B85
  8
0
 10
4088.9097469982962139
 20
124.7530459292276959
 30
0.0
 11
4088.9177774077961658
 21
124.8062673092277066
 31
0.0
  0
LINE
  5
6B86
  8
0
 10
4089.0285109126962197
 20
124.7540327708277061
 30
0.0
 11
4089.0261239115161516
 21
124.7717142611791985
 31
0.0
  0
LINE
  5
6B87
  8
0
 10
4089.2363215429959382
 20
124.7540327708277061
 30
0.0
 11
4089.229269880296215
 21
124.8062673092277066
 31
0.0
  0
LINE
  5
6B88
  8
0
 10
4089.1362579810947864
 20
124.7540327708277061
 30
0.0
 11
4089.1433096436958294
 21
124.8062673092277066
 31
0.0
  0
LINE
  5
6B89
  8
0
 10
4089.3440686112949152
 20
124.7540327708277061
 30
0.0
 11
4089.3511202739950932
 21
124.8062673092277066
 31
0.0
  0
LINE
  5
6B8A
  8
0
 10
4089.3584587976961302
 20
124.7540327708277061
 30
0.0
 11
4089.3654660414949831
 21
124.8059382806277
 31
0.0
  0
LINE
  5
6B8B
  8
0
 10
4089.5161580727958608
 20
124.7535799616276933
 30
0.0
 11
4089.5236541841959479
 21
124.8062673092277066
 31
0.0
  0
LINE
  5
6B8C
  8
0
 10
4089.2298786771962114
 20
124.7535285522277064
 30
0.0
 11
4089.2332306731959761
 21
124.7769281027276946
 31
0.0
  0
LINE
  5
6B8D
  8
0
 10
4089.4943845277957735
 20
124.7532296134277061
 30
0.0
 11
4089.502201862595939
 21
124.8062673092277066
 31
0.0
  0
LINE
  5
6B8E
  8
0
 10
4089.8235458754948013
 20
124.7540327708277061
 30
0.0
 11
4089.8164942127959876
 21
124.8062673092277066
 31
0.0
  0
LINE
  5
6B8F
  8
0
 10
4089.3866870040960748
 20
124.7548613982277033
 30
0.0
 11
4089.3806950667958517
 21
124.8062673092277066
 31
0.0
  0
LINE
  5
6B90
  8
0
 10
4089.6025630016961259
 20
124.7540327708294967
 30
0.0
 11
4089.6096146643958491
 21
124.8062673092277066
 31
0.0
  0
LINE
  5
6B91
  8
0
 10
4089.7057021709961191
 20
124.7540327708277061
 30
0.0
 11
4089.7127538336958423
 21
124.8062673092277066
 31
0.0
  0
LINE
  5
6B92
  8
0
 10
4089.7782637766958942
 20
124.7540327708277061
 30
0.0
 11
4089.7853154393960722
 21
124.8062673092277066
 31
0.0
  0
LINE
  5
6B93
  8
0
 10
4089.9312929437951425
 20
124.754032770819407
 30
0.0
 11
4089.9383446064971395
 21
124.8062673092277066
 31
0.0
  0
LINE
  5
6B94
  8
0
 10
4089.5484398540961593
 20
124.7539457363276938
 30
0.0
 11
4089.55609886129605
 21
124.8062673092277066
 31
0.0
  0
LINE
  5
6B95
  8
0
 10
4089.9731566237960578
 20
124.7540327708277061
 30
0.0
 11
4089.9661049610958798
 21
124.8062673092277066
 31
0.0
  0
LINE
  5
6B96
  8
0
 10
4090.3381095057961829
 20
124.7540327708277061
 30
0.0
 11
4090.3310578430960049
 21
124.8062673092277066
 31
0.0
  0
LINE
  5
6B97
  8
0
 10
4090.3255358584960959
 20
124.7543372799276966
 30
0.0
 11
4090.3188952808959584
 21
124.8062347086276986
 31
0.0
  0
LINE
  5
6B98
  8
0
 10
4090.0038203910958146
 20
124.7546659194276941
 30
0.0
 11
4089.9976160604960569
 21
124.8062673092277066
 31
0.0
  0
LINE
  5
6B99
  8
0
 10
4090.1484595087949856
 20
124.7540327708277061
 30
0.0
 11
4090.1555111714960731
 21
124.8062673092277066
 31
0.0
  0
LINE
  5
6B9A
  8
0
 10
4090.186337744895809
 20
124.7540327708277061
 30
0.0
 11
4090.1933894074950331
 21
124.8062673092277066
 31
0.0
  0
LINE
  5
6B9B
  8
0
 10
4090.275146360996132
 20
124.7540327708277061
 30
0.0
 11
4090.2821980236958552
 21
124.8062673092277066
 31
0.0
  0
LINE
  5
6B9C
  8
0
 10
4090.1190895298959731
 20
124.7536882817277046
 30
0.0
 11
4090.1264622742960455
 21
124.8062673092277066
 31
0.0
  0
LINE
  5
6B9D
  8
0
 10
4090.1115230223958861
 20
124.7534237204277048
 30
0.0
 11
4090.1191168898958495
 21
124.8062673092277066
 31
0.0
  0
LINE
  5
6B9E
  8
0
 10
4090.1298841056959645
 20
124.7539457363276938
 30
0.0
 11
4090.1375692350948157
 21
124.8064457596277066
 31
0.0
  0
LINE
  5
6B9F
  8
0
 10
4086.0221244375070455
 20
124.7488192774267048
 30
0.0
 11
4086.1141663000062181
 21
124.7456051047279004
 31
0.0
  0
LINE
  5
6BA0
  8
0
 10
4090.4019348217962033
 20
124.7540327708277061
 30
0.0
 11
4090.3948831590951158
 21
124.8062673092277066
 31
0.0
  0
LINE
  5
6BA1
  8
0
 10
4090.431534005695994
 20
124.7574430606276934
 30
0.0
 11
4090.4249427320960422
 21
124.8062673092277066
 31
0.0
  0
LINE
  5
6BA2
  8
0
 10
4090.645695035495919
 20
124.7544627759277063
 30
0.0
 11
4090.6392681973961771
 21
124.8062673092277066
 31
0.0
  0
LINE
  5
6BA3
  8
0
 10
4090.5402018522959224
 20
124.7574430606276934
 30
0.0
 11
4090.5467931257949203
 21
124.8062673092277066
 31
0.0
  0
LINE
  5
6BA4
  8
0
 10
4090.7618742580962135
 20
124.7540327708277061
 30
0.0
 11
4090.7689259207959367
 21
124.8062673092277066
 31
0.0
  0
LINE
  5
6BA5
  8
0
 10
4090.7792711432957731
 20
124.7540327708277061
 30
0.0
 11
4090.7863228059950416
 21
124.8062673092277066
 31
0.0
  0
LINE
  5
6BA6
  8
0
 10
4090.8450509400950068
 20
124.7574430606276934
 30
0.0
 11
4090.8516422136958681
 21
124.8062673092277066
 31
0.0
  0
LINE
  5
6BA7
  8
0
 10
4090.7534015101959994
 20
124.7536258317277031
 30
0.0
 11
4090.7607645374951062
 21
124.8062673092277066
 31
0.0
  0
LINE
  5
6BA8
  8
0
 10
4085.0470730186962101
 20
124.8062673092277066
 30
0.0
 11
4099.002978530495966
 21
124.8062673092277066
 31
0.0
  0
LINE
  5
6BA9
  8
0
 10
4086.7591363801961961
 20
124.7480161702277002
 30
0.0
 11
4086.8501343319949228
 21
124.7464334077276931
 31
0.0
  0
LINE
  5
6BAA
  8
0
 10
4090.9701448737960163
 20
124.7540327708277061
 30
0.0
 11
4090.9630932110958383
 21
124.8062673092277066
 31
0.0
  0
LINE
  5
6BAB
  8
0
 10
4091.1420796851962223
 20
124.7540327708277061
 30
0.0
 11
4091.1350280224951348
 21
124.8062673092277066
 31
0.0
  0
LINE
  5
6BAC
  8
0
 10
4091.0778919420959028
 20
124.7540327708277061
 30
0.0
 11
4091.0849436047960808
 21
124.8062673092277066
 31
0.0
  0
LINE
  5
6BAD
  8
0
 10
4091.2498267534961087
 20
124.7540327708277061
 30
0.0
 11
4091.256878416195832
 21
124.8062673092277066
 31
0.0
  0
LINE
  5
6BAE
  8
0
 10
4091.4119479226960721
 20
124.7538334186277069
 30
0.0
 11
4091.4190757982951254
 21
124.8062673092277066
 31
0.0
  0
LINE
  5
6BAF
  8
0
 10
4091.0805806898961237
 20
124.7538611481276973
 30
0.0
 11
4091.087792320096014
 21
124.8065203686277016
 31
0.0
  0
LINE
  5
6BB0
  8
0
 10
4099.0328997902961419
 20
125.2393381753277026
 30
0.0
 11
4085.0171517588960342
 21
125.2393381753277026
 31
0.0
  0
LINE
  5
6BB1
  8
0
 10
4091.6021802417949402
 20
124.7540327708277061
 30
0.0
 11
4091.5951285790961265
 21
124.8062673092277066
 31
0.0
  0
LINE
  5
6BB2
  8
0
 10
4091.3042390617961246
 20
124.7542545480277028
 30
0.0
 11
4091.2975822451958265
 21
124.8062673092277066
 31
0.0
  0
LINE
  5
6BB3
  8
0
 10
4091.7442893463958171
 20
124.7539805665277015
 30
0.0
 11
4091.751365043595797
 21
124.8065135849276999
 31
0.0
  0
LINE
  5
6BB4
  8
0
 10
4091.7099273100961909
 20
124.7540327708277061
 30
0.0
 11
4091.7169789727959142
 21
124.8062673092277066
 31
0.0
  0
LINE
  5
6BB5
  8
0
 10
4091.7350458914947922
 20
124.7540327708277061
 30
0.0
 11
4091.7420975541949701
 21
124.8062673092277066
 31
0.0
  0
LINE
  5
6BB6
  8
0
 10
4091.7415167130961891
 20
124.7540327708277061
 30
0.0
 11
4091.7485683756949584
 21
124.8062673092277066
 31
0.0
  0
LINE
  5
6BB7
  8
0
 10
4091.971107024795856
 20
124.7539457363276938
 30
0.0
 11
4091.9634480175959652
 21
124.8062673092277066
 31
0.0
  0
LINE
  5
6BB8
  8
0
 10
4099.0328997902961419
 20
124.8361885690276978
 30
0.0
 11
4099.0328997902961419
 21
125.2393381753277026
 31
0.0
  0
ARC
  5
6BB9
  8
0
 10
4085.0470730186962101
 20
124.8361885690276978
 30
0.0
 40
0.0299212598
 50
180.0
 51
270.0
  0
ARC
  5
6BBA
  8
0
 10
4086.1144410991960285
 20
124.7534743238277031
 30
0.0
 40
0.0078740157
 50
267.9999999783053113
 51
301.6631786810144717
  0
ARC
  5
6BBB
  8
0
 10
4086.022399236695037
 20
124.7566884965277012
 30
0.0
 40
0.0078740157
 50
185.5127818179383894
 51
267.9999999783312887
  0
ARC
  5
6BBC
  8
0
 10
4099.002978530495966
 20
124.8361885690276978
 30
0.0
 40
0.0299212598
 50
270.0
 51
0.0
  0
ARC
  5
6BBD
  8
0
 10
4086.0598207241691853
 20
124.756659782452104
 30
0.0
 40
0.0078403457949986
 50
185.4131842136750947
 51
270.2483803860719149
  0
ARC
  5
6BBE
  8
0
 10
4086.1515363656858426
 20
124.7539400784721977
 30
0.0
 40
0.0083124431014178
 50
268.7063212699582095
 51
353.1906616007025832
  0
LINE
  5
6BBF
  8
0
 10
4086.151348695366778
 20
124.745629754160305
 30
0.0
 11
4086.0598547123959179
 21
124.7488195103277064
 31
0.0
  0
LINE
  5
6BC0
  8
0
 10
4086.2635179223948398
 20
124.7456445025834029
 30
0.0
 11
4086.1726071438929466
 21
124.7488195103278059
 31
0.0
  0
LINE
  5
6BC1
  8
0
 10
4086.357026303352086
 20
124.748606581006996
 30
0.0
 11
4086.4484488956040877
 21
124.7456949018809951
 31
0.0
  0
LINE
  5
6BC2
  8
0
 10
4086.6108120795070136
 20
124.7487625771181996
 30
0.0
 11
4086.7040881811999498
 21
124.7457638431038021
 31
0.0
  0
LINE
  5
6BC3
  8
0
 10
4086.8239542349961084
 20
124.7480161702277002
 30
0.0
 11
4086.9149048400959146
 21
124.7464082129277045
 31
0.0
  0
LINE
  5
6BC4
  8
0
 10
4086.9351624072000959
 20
124.7485704017649937
 30
0.0
 11
4087.0272196638097739
 21
124.7458512391983021
 31
0.0
  0
LINE
  5
6BC5
  8
0
 10
4087.0642470100960963
 20
124.7464253635277061
 30
0.0
 11
4087.03069835185579
 21
124.7467658061888045
 31
0.0
  0
LINE
  5
6BC6
  8
0
 10
4087.0690034953540817
 20
124.7480574852502997
 30
0.0
 11
4087.1671909724959733
 21
124.7464071291277037
 31
0.0
  0
LINE
  5
6BC7
  8
0
 10
4087.2041993063871814
 20
124.7478701549585054
 30
0.0
 11
4087.2955292111450945
 21
124.7464776324575979
 31
0.0
  0
LINE
  5
6BC8
  8
0
 10
4087.3210071802450329
 20
124.7484323705154026
 30
0.0
 11
4087.4145383802838296
 21
124.7458866839806007
 31
0.0
  0
LINE
  5
6BC9
  8
0
 10
4087.4415508933811907
 20
124.7465104620325036
 30
0.0
 11
4087.4171659442758937
 21
124.7465288339690943
 31
0.0
  0
LINE
  5
6BCA
  8
0
 10
4087.4993337508958575
 20
124.7472121911277014
 30
0.0
 11
4087.5566465825259002
 21
124.7472121911277014
 31
0.0
  0
LINE
  5
6BCB
  8
0
 10
4087.513333721275103
 20
124.7478276734486968
 30
0.0
 11
4087.6050685148529737
 21
124.7465241081326042
 31
0.0
  0
LINE
  5
6BCC
  8
0
 10
4087.6916545320959813
 20
124.7472121911277014
 30
0.0
 11
4087.6082880338831274
 21
124.7472121911277014
 31
0.0
  0
LINE
  5
6BCD
  8
0
 10
4087.7672639289771723
 20
124.7481159103850956
 30
0.0
 11
4087.8589100817198414
 21
124.7460757414731063
 31
0.0
  0
LINE
  5
6BCE
  8
0
 10
4087.8959257525320936
 20
124.7477741556862014
 30
0.0
 11
4087.9886318562330416
 21
124.7477741556862014
 31
0.0
  0
LINE
  5
6BCF
  8
0
 10
4087.8895513847960501
 20
124.7472121911277014
 30
0.0
 11
4087.8629289406021599
 21
124.7472121911277014
 31
0.0
  0
LINE
  5
6BD0
  8
0
 10
4088.0886027906958589
 20
124.7472121911277014
 30
0.0
 11
4088.1808570395960487
 21
124.7472121911277014
 31
0.0
  0
LINE
  5
6BD1
  8
0
 10
4088.2032682863809896
 20
124.7464871683154968
 30
0.0
 11
4088.1551994121809912
 21
124.7464871683154968
 31
0.0
  0
LINE
  5
6BD2
  8
0
 10
4088.2189658182951462
 20
124.7472121911277014
 30
0.0
 11
4088.2684614131949274
 21
124.7472121911277014
 31
0.0
  0
LINE
  5
6BD3
  8
0
 10
4088.2652231817201027
 20
124.7480668061806028
 30
0.0
 11
4088.3570095782138196
 21
124.7462099319213991
 31
0.0
  0
LINE
  5
6BD4
  8
0
 10
4088.3604629085639317
 20
124.7470904266606055
 30
0.0
 11
4088.4389834300050097
 21
124.7466961606408944
 31
0.0
  0
LINE
  5
6BD5
  8
0
 10
4088.4662476799958313
 20
124.7472121911277014
 30
0.0
 11
4088.5590680213949781
 21
124.7472121911277014
 31
0.0
  0
LINE
  5
6BD6
  8
0
 10
4088.6110677622777985
 20
124.7470539902125068
 30
0.0
 11
4088.5616660062919436
 21
124.7476435901428005
 31
0.0
  0
LINE
  5
6BD7
  8
0
 10
4088.6645880353958091
 20
124.7472121911277014
 30
0.0
 11
4088.7567286439948475
 21
124.7472121911277014
 31
0.0
  0
LINE
  5
6BD8
  8
0
 10
4088.6136229667417865
 20
124.7476127515121931
 30
0.0
 11
4088.6566138011990006
 21
124.7464510077144979
 31
0.0
  0
LINE
  5
6BD9
  8
0
 10
4088.8097335116822251
 20
124.7480672199232998
 30
0.0
 11
4088.9018151296659198
 21
124.7463561132047971
 31
0.0
  0
ARC
  5
6BDA
  8
0
 10
4086.1727052895421366
 20
124.7578316278778061
 30
0.0
 40
0.009012651957403
 50
178.6498436710976989
 51
269.376050173277406
  0
ARC
  5
6BDB
  8
0
 10
4086.2639056520638405
 20
124.7533688377646968
 30
0.0
 40
0.0077340602719575
 50
267.1264007554555064
 51
351.4548621105747088
  0
ARC
  5
6BDC
  8
0
 10
4086.3557270912060631
 20
124.7553987467155991
 30
0.0
 40
0.0069153067332389
 50
176.4598161388205142
 51
280.8287881996383817
  0
ARC
  5
6BDD
  8
0
 10
4086.4480459655010236
 20
124.7543734203015049
 30
0.0
 40
0.0086878670939893
 50
272.6582449242783923
 51
346.0393005906029202
  0
ARC
  5
6BDE
  8
0
 10
4086.6113977021891515
 20
124.7556873163572959
 30
0.0
 40
0.0069494580692208
 50
179.5286323732804021
 51
265.1660190880878076
  0
ARC
  5
6BDF
  8
0
 10
4086.7043893450381802
 20
124.7535690575881944
 30
0.0
 40
0.0078110225198749
 50
267.7903411599647256
 51
351.0755398230390938
  0
ARC
  5
6BE0
  8
0
 10
4086.7589694823677746
 20
124.7555693163366044
 30
0.0
 40
0.0075549898099531
 50
184.4542142624364942
 51
271.2658281892253171
  0
ARC
  5
6BE1
  8
0
 10
4086.8244964454038382
 20
124.7570404227192
 30
0.0
 40
0.0090405268186575
 50
193.2328780780927104
 51
266.5615916504842176
  0
ARC
  5
6BE2
  8
0
 10
4086.850183920696054
 20
124.7486591613180025
 30
0.0
 40
0.0022263059277502
 50
268.7236892236371091
 51
329.1833304663136914
  0
ARC
  5
6BE3
  8
0
 10
4086.9158054446938877
 20
124.7540124112341999
 30
0.0
 40
0.0076573442216347
 50
263.2456277007162271
 51
353.2689712429660176
  0
ARC
  5
6BE4
  8
0
 10
4086.9353331419611095
 20
124.7563747090233051
 30
0.0
 40
0.0078061746162555
 50
185.3873951015447972
 51
268.7467406513729884
  0
ARC
  5
6BE5
  8
0
 10
4087.0268029997901067
 20
124.7545092116369005
 30
0.0
 40
0.0086679925965247
 50
272.7552276816019798
 51
346.3140965694191777
  0
ARC
  5
6BE6
  8
0
 10
4087.0639750982518308
 20
124.7549647580757011
 30
0.0
 40
0.0085437225667065
 50
271.823798950198011
 51
347.6786911468013272
  0
ARC
  5
6BE7
  8
0
 10
4087.1682398370821829
 20
124.7564863220904954
 30
0.0
 40
0.0101336196743002
 50
264.0590493014574918
 51
340.8405199143592768
  0
ARC
  5
6BE8
  8
0
 10
4087.2035047736139859
 20
124.7556547259580952
 30
0.0
 40
0.0078154923977567
 50
185.5248792055012075
 51
275.0983812851778794
  0
ARC
  5
6BE9
  8
0
 10
4087.2959861491099218
 20
124.7539597595790042
 30
0.0
 40
0.0074960668729853
 50
266.5052529579957081
 51
354.0521470251828191
  0
ARC
  5
6BEA
  8
0
 10
4087.3220419521899203
 20
124.7563496354188999
 30
0.0
 40
0.0079845999604948
 50
185.9713871853246872
 51
262.5537546328712892
  0
ARC
  5
6BEB
  8
0
 10
4087.4140211437738799
 20
124.7536999623199989
 30
0.0
 40
0.0078303800683747
 50
273.7874359157696063
 51
351.7721261038198008
  0
ARC
  5
6BEC
  8
0
 10
4087.4418299163121446
 20
124.7533717439330019
 30
0.0
 40
0.0068669529715453
 50
267.6712759284337722
 51
358.6421855458830237
  0
ARC
  5
6BED
  8
0
 10
4087.5002023398878919
 20
124.7560922667701959
 30
0.0
 40
0.0089224542730252
 50
193.9205526142939107
 51
264.413484991972382
  0
ARC
  5
6BEE
  8
0
 10
4087.5139783728800467
 20
124.7567265561247041
 30
0.0
 40
0.0089222020025957
 50
192.1654697004142918
 51
265.8566249908391796
  0
ARC
  5
6BEF
  8
0
 10
4087.6050297687579587
 20
124.7545814563408015
 30
0.0
 40
0.0080574413686423
 50
270.275521244463107
 51
350.4053561396930263
  0
ARC
  5
6BF0
  8
0
 10
4087.6917302984370508
 20
124.7549985421019016
 30
0.0
 40
0.0077867195938013
 50
269.4424917901387744
 51
352.2295083283351005
  0
ARC
  5
6BF1
  8
0
 10
4087.7674160155079335
 20
124.7563870034769025
 30
0.0
 40
0.0082724912357989
 50
187.0084531348487076
 51
268.9465800558115234
  0
ARC
  5
6BF2
  8
0
 10
4087.8587253730520388
 20
124.7544031586230062
 30
0.0
 40
0.0083294653898972
 50
271.270657152192598
 51
348.3332425483047814
  0
ARC
  5
6BF3
  8
0
 10
4087.8955961239380485
 20
124.7552611890704952
 30
0.0
 40
0.0074942860839961
 50
183.7031132471402088
 51
272.520910192565907
  0
ARC
  5
6BF4
  8
0
 10
4087.889769119643006
 20
124.7502163976365068
 30
0.0
 40
0.0030120865212645
 50
265.8546415981218729
 51
326.2620651837194146
  0
ARC
  5
6BF5
  8
0
 10
4087.988893157315033
 20
124.7548921932641974
 30
0.0
 40
0.0071228321064858
 50
267.8976327115627214
 51
347.1420346679162776
  0
ARC
  5
6BF6
  8
0
 10
4088.089803138111165
 20
124.7564750575325974
 30
0.0
 40
0.0093403173368476
 50
195.7116429934119139
 51
262.6163568880958223
  0
ARC
  5
6BF7
  8
0
 10
4088.1809768446842099
 20
124.7549490460712036
 30
0.0
 40
0.0077377824780123
 50
269.1128465771002993
 51
352.5498389602697102
  0
ARC
  5
6BF8
  8
0
 10
4088.2192839468461898
 20
124.7554501686667976
 30
0.0
 40
0.0082441178854761
 50
189.8999581534345964
 51
267.7884899001149961
  0
ARC
  5
6BF9
  8
0
 10
4088.2034816393870642
 20
124.7573677625311035
 30
0.0
 40
0.0108826857893889
 50
268.876655061804172
 51
324.3658771669498719
  0
ARC
  5
6BFA
  8
0
 10
4088.155220990584894
 20
124.7493681586369974
 30
0.0
 40
0.0028810711307026
 50
228.4451906616451993
 51
269.5708668764324898
  0
ARC
  5
6BFB
  8
0
 10
4088.249098615739058
 20
124.7545808266172997
 30
0.0
 40
0.0076823753556905
 50
184.0909196094503102
 51
253.5690027047135118
  0
ARC
  5
6BFC
  8
0
 10
4088.2653822628358284
 20
124.7562324646922036
 30
0.0
 40
0.00816720795191
 50
187.1243842538557089
 51
268.883920543179272
  0
ARC
  5
6BFD
  8
0
 10
4088.2685745883868549
 20
124.7490855267571987
 30
0.0
 40
0.0018767511835626
 50
266.5427502935846746
 51
323.4735478400189095
  0
ARC
  5
6BFE
  8
0
 10
4088.3566924708520673
 20
124.7546659247813068
 30
0.0
 40
0.008461936677037
 50
272.147637053012204
 51
347.7808781060277283
  0
ARC
  5
6BFF
  8
0
 10
4088.4388420665309241
 20
124.7535997660438056
 30
0.0
 40
0.0069050525841669
 50
271.17306801960342
 51
358.2410187455030268
  0
ARC
  5
6C00
  8
0
 10
4088.4674024091159481
 20
124.755695593770497
 30
0.0
 40
0.0085616306706562
 50
191.7934216880071858
 51
262.2487487836688729
  0
ARC
  5
6C01
  8
0
 10
4088.5591018365930722
 20
124.7550470813950056
 30
0.0
 40
0.0078349632397514
 50
269.7527143380120265
 51
351.9192850528173722
  0
ARC
  5
6C02
  8
0
 10
4088.6108414683549199
 20
124.7542106584822932
 30
0.0
 40
0.0071602450840651
 50
271.811089699770605
 51
358.5764089816977958
  0
ARC
  5
6C03
  8
0
 10
4088.6638505692430954
 20
124.7542424928949032
 30
0.0
 40
0.0070688753889891
 50
181.7001223196126887
 51
275.9883250063106743
  0
ARC
  5
6C04
  8
0
 10
4088.6572073127990734
 20
124.7515073749406014
 30
0.0
 40
0.0050910809799474
 50
263.3053095903179042
 51
314.5135585399351044
  0
ARC
  5
6C05
  8
0
 10
4088.7567256683460073
 20
124.7550896112583985
 30
0.0
 40
0.0078774206927326
 50
270.0216431423065728
 51
352.2899088041436926
  0
ARC
  5
6C06
  8
0
 10
4088.8101436924698646
 20
124.7562313125468023
 30
0.0
 40
0.0081743902918882
 50
188.3323297863173025
 51
267.1237608154992245
  0
ARC
  5
6C07
  8
0
 10
4088.9007758676521007
 20
124.7556354982795028
 30
0.0
 40
0.0093374007570716
 50
276.3903177741539139
 51
343.8989078917198867
  0
LINE
  5
6C08
  8
0
 10
4088.9030834969858006
 20
124.7465877416648965
 30
0.0
 11
4088.9474305949029258
 21
124.7467327117588951
 31
0.0
  0
LINE
  5
6C09
  8
0
 10
4089.0157319099957931
 20
124.7472121911277014
 30
0.0
 11
4088.9501203451141009
 21
124.7472121911277014
 31
0.0
  0
LINE
  5
6C0A
  8
0
 10
4089.0363141425950744
 20
124.7472121911277014
 30
0.0
 11
4089.1284404316961627
 21
124.7472121911277014
 31
0.0
  0
LINE
  5
6C0B
  8
0
 10
4089.2187103747969559
 20
124.7465488031216978
 30
0.0
 11
4089.1293506596921361
 21
124.7473139963377946
 31
0.0
  0
LINE
  5
6C0C
  8
0
 10
4089.2441247728947928
 20
124.7472121911277014
 30
0.0
 11
4089.3506555677959113
 21
124.7472121911277014
 31
0.0
  0
ARC
  5
6C0D
  8
0
 10
4089.4522909524798706
 20
125.5873016753946985
 30
0.0
 40
0.8416247605651868
 50
266.0525415942433938
 51
272.3894910104168048
  0
ARC
  5
6C0E
  8
0
 10
4089.4946238256570723
 20
124.9440037224382962
 30
0.0
 40
0.1976602073513116
 50
267.9841912794398127
 51
274.4145192313810071
  0
LINE
  5
6C0F
  8
0
 10
4089.5406488688959143
 20
124.7472121911277014
 30
0.0
 11
4089.5111636370211272
 21
124.7472121911277014
 31
0.0
  0
LINE
  5
6C10
  8
0
 10
4089.541820678231943
 20
124.7472121911277014
 30
0.0
 11
4089.5947506071938733
 21
124.7472121911277014
 31
0.0
  0
LINE
  5
6C11
  8
0
 10
4089.596207724397118
 20
124.7472121911277014
 30
0.0
 11
4089.6978846216961756
 21
124.7472121911277014
 31
0.0
  0
LINE
  5
6C12
  8
0
 10
4089.6978846216961756
 20
124.7472121911277014
 30
0.0
 11
4089.7704597275960623
 21
124.7472121911277014
 31
0.0
  0
LINE
  5
6C13
  8
0
 10
4089.8313491052949757
 20
124.7472121911277014
 30
0.0
 11
4089.923400983700958
 21
124.7472121911277014
 31
0.0
  0
LINE
  5
6C14
  8
0
 10
4089.9809598536958219
 20
124.7472121911277014
 30
0.0
 11
4090.0188458552602242
 21
124.7472121911277014
 31
0.0
  0
ARC
  5
6C15
  8
0
 10
4090.0656843946189838
 20
125.4456498337059003
 30
0.0
 40
0.7000064209273122
 50
265.5644249013657259
 51
273.2575849120917724
  0
ARC
  5
6C16
  8
0
 10
4090.1057842614141009
 20
124.7943807944974992
 30
0.0
 40
0.0477990571342735
 50
266.9255587980773043
 51
279.3160775465016172
  0
LINE
  5
6C17
  8
0
 10
4090.1135220077958365
 20
124.7472121911277014
 30
0.0
 11
4090.2673431310950036
 21
124.7472121911277014
 31
0.0
  0
LINE
  5
6C18
  8
0
 10
4090.3310705498679454
 20
124.7477793459768947
 30
0.0
 11
4090.5311033704201691
 21
124.7475033557532953
 31
0.0
  0
LINE
  5
6C19
  8
0
 10
4090.8333466103958926
 20
124.7472121911277014
 30
0.0
 11
4090.7479199644049004
 21
124.7472121911277014
 31
0.0
  0
ARC
  5
6C1A
  8
0
 10
4090.6536502299568383
 20
124.7554733129867941
 30
0.0
 40
0.0080191211654799
 50
187.2394292951699128
 51
269.426375813438483
  0
ARC
  5
6C1B
  8
0
 10
4090.7040959705232126
 20
125.4444027935661978
 30
0.0
 40
0.6987772694915236
 50
265.853533678999213
 51
273.4003722164176793
  0
ARC
  5
6C1C
  8
0
 10
4090.7455663729920161
 20
124.754803842365007
 30
0.0
 40
0.0079481168241145
 50
269.8275300819497033
 51
353.8848341013435856
  0
LINE
  5
6C1D
  8
0
 10
4090.9776514373961618
 20
124.7472121911277014
 30
0.0
 11
4091.0757849404949411
 21
124.7476377723277068
 31
0.0
  0
LINE
  5
6C1E
  8
0
 10
4091.1498829150959864
 20
124.7472121911277014
 30
0.0
 11
4091.2420235235958899
 21
124.7472121911277014
 31
0.0
  0
ARC
  5
6C1F
  8
0
 10
4091.360284638461053
 20
125.408470871994794
 30
0.0
 40
0.662867374463363
 50
265.8250010654195989
 51
273.9984991927967144
  0
LINE
  5
6C20
  8
0
 10
4091.6099834716960686
 20
124.7472121911277014
 30
0.0
 11
4091.7363881836881774
 21
124.7470428995388971
 31
0.0
  0
ARC
  5
6C21
  8
0
 10
4092.0234197116028554
 20
125.5537016279990041
 30
0.0
 40
0.8081029087489392
 50
266.9621462628243762
 51
273.4063693727678128
  0
ARC
  5
6C22
  8
0
 10
4088.9473886706878147
 20
124.7547520223845936
 30
0.0
 40
0.0080194202129495
 50
270.2995343143616083
 51
350.8679628299005913
  0
ARC
  5
6C23
  8
0
 10
4089.0150630563462073
 20
124.7558600977910004
 30
0.0
 40
0.0086737336171573
 50
274.4226136852382183
 51
347.2493857056043112
  0
ARC
  5
6C24
  8
0
 10
4089.035855609949067
 20
124.7545616128331005
 30
0.0
 40
0.00736371180812
 50
184.1183744348068956
 51
273.5700736187602047
  0
ARC
  5
6C25
  8
0
 10
4089.1279567199130724
 20
124.7556570207939046
 30
0.0
 40
0.008458671596724
 50
273.2782654865908967
 51
348.9291980129033846
  0
ARC
  5
6C26
  8
0
 10
4089.2194498339699749
 20
124.7577906734507991
 30
0.0
 40
0.0112661638709633
 50
266.2366632024553041
 51
337.7708574931738781
  0
ARC
  5
6C27
  8
0
 10
4089.2436622258419447
 20
124.7545570200664997
 30
0.0
 40
0.0073593791802063
 50
184.0849547592517013
 51
273.6034932943323952
  0
ARC
  5
6C28
  8
0
 10
4089.3358604446921163
 20
124.7555482095653048
 30
0.0
 40
0.0083468888554187
 50
272.9244592714098872
 51
349.5395177896145924
  0
ARC
  5
6C29
  8
0
 10
4089.3489987767611638
 20
124.7569816940774956
 30
0.0
 40
0.009908993108251
 50
279.625104182560392
 51
342.6864477639190909
  0
ARC
  5
6C2A
  8
0
 10
4089.397872779104091
 20
124.7591089924914058
 30
0.0
 40
0.0119651000654981
 50
200.7933610961894999
 51
252.8877463081601888
  0
ARC
  5
6C2B
  8
0
 10
4089.4858451521517964
 20
124.7549918110103988
 30
0.0
 40
0.0087193048293065
 50
280.1405733157744748
 51
348.3400367880258841
  0
ARC
  5
6C2C
  8
0
 10
4089.5090172329501002
 20
124.7540382100933982
 30
0.0
 40
0.0071555283071459
 50
276.5870735411463102
 51
356.3281979895567133
  0
ARC
  5
6C2D
  8
0
 10
4089.5412347735641561
 20
124.7544082913447028
 30
0.0
 40
0.0072199129228841
 50
265.3452596322172781
 51
356.3267404862982062
  0
ARC
  5
6C2E
  8
0
 10
4089.5954791657959504
 20
124.754262196046497
 30
0.0
 40
0.007087550140117
 50
264.0999078118458101
 51
358.1450017142416868
  0
ARC
  5
6C2F
  8
0
 10
4089.6972580166980151
 20
124.755820800702395
 30
0.0
 40
0.0086313841666927
 50
274.1631134765394222
 51
348.0443507491473838
  0
ARC
  5
6C30
  8
0
 10
4089.7695749612839791
 20
124.7560994862411974
 30
0.0
 40
0.0089312275674521
 50
275.6852945228254725
 51
346.620296817118799
  0
ARC
  5
6C31
  8
0
 10
4089.8315787681299298
 20
124.7553489574574002
 30
0.0
 40
0.008140006837931
 50
189.3052097947249877
 51
268.3832375312113072
  0
ARC
  5
6C32
  8
0
 10
4089.9236680993772097
 20
124.7548792233795041
 30
0.0
 40
0.0076716839309976
 50
268.0046499559427957
 51
353.6653929821075053
  0
ARC
  5
6C33
  8
0
 10
4089.9805752879487954
 20
124.7546462362466002
 30
0.0
 40
0.0074439853333655
 50
184.7271570166523986
 51
272.961291036908392
  0
ARC
  5
6C34
  8
0
 10
4090.0125520249630426
 20
124.7566341200248985
 30
0.0
 40
0.0089507119036204
 50
192.7027596349072098
 51
263.5545166059388862
  0
ARC
  5
6C35
  8
0
 10
4090.1045411189252263
 20
124.7537009399243999
 30
0.0
 40
0.0069874048628191
 50
277.5750235165373851
 51
357.7262406709739935
  0
ARC
  5
6C36
  8
0
 10
4090.1102784649219757
 20
124.7556319347501983
 30
0.0
 40
0.0090228960452188
 50
291.0682114286667002
 51
347.5602163031869054
  0
ARC
  5
6C37
  8
0
 10
4090.12203929178213
 20
124.7551186576661024
 30
0.0
 40
0.0079320142338975
 50
274.599794058079226
 51
351.4963848163421858
  0
ARC
  5
6C38
  8
0
 10
4090.1414702416600448
 20
124.7540772360139982
 30
0.0
 40
0.0069894085764664
 50
280.8245607709325782
 51
359.635493522669492
  0
ARC
  5
6C39
  8
0
 10
4090.1792757274538417
 20
124.7542765449485955
 30
0.0
 40
0.0070662236151081
 50
271.318106263829975
 51
358.0229892180083766
  0
ARC
  5
6C3A
  8
0
 10
4090.2661461014331508
 20
124.7564556942577951
 30
0.0
 40
0.0093206882861509
 50
277.3787141975349186
 51
344.9328377489130162
  0
ARC
  5
6C3B
  8
0
 10
4090.3324910083479153
 20
124.7545926888338954
 30
0.0
 40
0.0069598378700921
 50
182.1030861970043873
 51
258.2235546422940047
  0
ARC
  5
6C3C
  8
0
 10
4090.3473470221979369
 20
124.7575166012522061
 30
0.0
 40
0.0098726280040659
 50
200.6634304594921048
 51
261.2467150575985784
  0
ARC
  5
6C3D
  8
0
 10
4090.4103644011170218
 20
124.7563552748029991
 30
0.0
 40
0.0087436738412625
 50
195.4038599583751079
 51
263.2979988406283951
  0
ARC
  5
6C3E
  8
0
 10
4090.444670418043188
 20
124.7612130359294014
 30
0.0
 40
0.0136666763748703
 50
196.0127736845784909
 51
263.8652421153935279
  0
ARC
  5
6C3F
  8
0
 10
4090.5312109317528666
 20
124.7565389769327027
 30
0.0
 40
0.0090362613694729
 50
269.3179750202920104
 51
5.7420863164445013
  0
ARC
  5
6C40
  8
0
 10
4090.7549341941298735
 20
124.7541483106177935
 30
0.0
 40
0.0069410256654899
 50
272.1543830427829107
 51
359.0462147216811104
  0
ARC
  5
6C41
  8
0
 10
4090.769295843098007
 20
124.7579163918522056
 30
0.0
 40
0.0107046310680536
 50
270.5137606927590923
 51
338.7278563518457872
  0
ARC
  5
6C42
  8
0
 10
4090.8308779485300875
 20
124.7618468264951019
 30
0.0
 40
0.0148413895490368
 50
279.5748718128323276
 51
342.739178933055598
  0
ARC
  5
6C43
  8
0
 10
4091.0741796119968967
 20
124.7538343389100959
 30
0.0
 40
0.0064011340400843
 50
284.5241551305953749
 51
0.2399667777787624
  0
ARC
  5
6C44
  8
0
 10
4091.0691335052060822
 20
124.7567178778467962
 30
0.0
 40
0.0091607868912445
 50
276.3515644371366875
 51
342.9558341960508869
  0
ARC
  5
6C45
  8
0
 10
4090.9783104986008766
 20
124.7554785980308054
 30
0.0
 40
0.0082926379855516
 50
190.0408748419139897
 51
265.4415842865657851
  0
ARC
  5
6C46
  8
0
 10
4091.1515604163591888
 20
124.7570053880565979
 30
0.0
 40
0.0099358299389979
 50
197.4084531342809044
 51
260.2799949192536246
  0
ARC
  5
6C47
  8
0
 10
4091.2408974837230744
 20
124.7563744768736029
 30
0.0
 40
0.009231221256444
 50
277.006484767500524
 51
345.3050671788852242
  0
ARC
  5
6C48
  8
0
 10
4091.3148131482148528
 20
124.7583565726725965
 30
0.0
 40
0.0113418653567998
 50
201.2028580262166031
 51
255.7739062106601864
  0
ARC
  5
6C49
  8
0
 10
4091.4050422283507942
 20
124.7539669641372058
 30
0.0
 40
0.0069069855062379
 50
282.240422636041103
 51
358.8921258216818728
  0
ARC
  5
6C4A
  8
0
 10
4091.6110882894099632
 20
124.7563501972099971
 30
0.0
 40
0.0092045519903625
 50
194.5822527977881009
 51
263.1061952557802215
  0
ARC
  5
6C4B
  8
0
 10
4091.7369639093240039
 20
124.754355285078006
 30
0.0
 40
0.0073350148111823
 50
265.4982213033165976
 51
357.0716976521189281
  0
ARC
  5
6C4C
  8
0
 10
4091.733333214565846
 20
124.7552801099313058
 30
0.0
 40
0.0082780132293568
 50
275.893650740359476
 51
351.3336078984510209
  0
ARC
  5
6C4D
  8
0
 10
4091.7259291729178585
 20
124.755949519198694
 30
0.0
 40
0.0093160335952716
 50
287.2641588801112107
 51
348.126753667391597
  0
ARC
  5
6C4E
  8
0
 10
4091.6997926629951507
 20
124.7579613702647947
 30
0.0
 40
0.010869451015683
 50
269.8905693097963763
 51
338.8116528733033874
  0
ARC
  5
6C4F
  8
0
 10
4091.9811454985801902
 20
124.7573058146791993
 30
0.0
 40
0.0105858907254507
 50
198.5064262706630132
 51
267.0121782529589041
  0
LINE
  5
6C50
  8
0
 10
4097.7012265684961676
 20
124.755825756927706
 30
0.0
 11
4097.7061950130955665
 21
124.8062673092277066
 31
0.0
  0
LINE
  5
6C51
  8
0
 10
4097.8863564093871901
 20
124.7580439884222017
 30
0.0
 11
4097.8910534060960345
 21
124.8062673092277066
 31
0.0
  0
LINE
  5
6C52
  8
0
 10
4097.9980362050973781
 20
124.7559201446341035
 30
0.0
 11
4098.0029066174947729
 21
124.8062673092277066
 31
0.0
  0
LINE
  5
6C53
  8
0
 10
4098.0403479761962444
 20
124.8062673092277066
 30
0.0
 11
4098.0354899092926644
 21
124.7559320570943981
 31
0.0
  0
LINE
  5
6C54
  8
0
 10
4097.1224900991946924
 20
124.7556417928277028
 30
0.0
 11
4097.1276507003958613
 21
124.8062673092277066
 31
0.0
  0
LINE
  5
6C55
  8
0
 10
4097.445603069894787
 20
124.7557444883276929
 30
0.0
 11
4097.4506562243950611
 21
124.8062673092277066
 31
0.0
  0
LINE
  5
6C56
  8
0
 10
4097.5935743436948542
 20
124.7522774177276972
 30
0.0
 11
4097.5846352770959129
 21
124.8062673092277066
 31
0.0
  0
LINE
  5
6C57
  8
0
 10
4097.7784976917973836
 20
124.7522196452215013
 30
0.0
 11
4097.7694891830960842
 21
124.8062673092277066
 31
0.0
  0
LINE
  5
6C58
  8
0
 10
4097.8902613747422947
 20
124.7529545069558026
 30
0.0
 11
4097.8874797009957547
 21
124.7695766453277031
 31
0.0
  0
LINE
  5
6C59
  8
0
 10
4097.2343555838951943
 20
124.7549709602276948
 30
0.0
 11
4097.2403076843957024
 21
124.8062673092277066
 31
0.0
  0
LINE
  5
6C5A
  8
0
 10
4097.2986142383961123
 20
124.7549825775276986
 30
0.0
 11
4097.3045538056949226
 21
124.8062673092277066
 31
0.0
  0
LINE
  5
6C5B
  8
0
 10
4096.7359508722956889
 20
124.7555189831277005
 30
0.0
 11
4096.7412405570958072
 21
124.8062673092277066
 31
0.0
  0
LINE
  5
6C5C
  8
0
 10
4096.9777295220947053
 20
124.7531415811276929
 30
0.0
 11
4096.9697286176960915
 21
124.8062673092277066
 31
0.0
  0
LINE
  5
6C5D
  8
0
 10
4097.1266415398958998
 20
124.7531149048261057
 30
0.0
 11
4097.124008630512435
 21
124.770538590520701
 31
0.0
  0
LINE
  5
6C5E
  8
0
 10
4097.0148266639962458
 20
124.7524583723276947
 30
0.0
 11
4097.0061040698956276
 21
124.8062673092277066
 31
0.0
  0
LINE
  5
6C5F
  8
0
 10
4097.3379457439959879
 20
124.7523573169277
 30
0.0
 11
4097.3291024521959116
 21
124.8062673092277066
 31
0.0
  0
LINE
  5
6C60
  8
0
 10
4096.8543259609959932
 20
124.7549022662277025
 30
0.0
 11
4096.8603522921948752
 21
124.8062673092277066
 31
0.0
  0
LINE
  5
6C61
  8
0
 10
4096.2908462141958807
 20
124.7553776290277057
 30
0.0
 11
4096.2962852756973007
 21
124.8062673092277066
 31
0.0
  0
LINE
  5
6C62
  8
0
 10
4096.601356608095557
 20
124.7532090238276936
 30
0.0
 11
4096.593433942595766
 21
124.8062673092277066
 31
0.0
  0
LINE
  5
6C63
  8
0
 10
4096.7466096873959032
 20
124.7531829926276998
 30
0.0
 11
4096.7401804878099938
 21
124.7960971868361071
 31
0.0
  0
LINE
  5
6C64
  8
0
 10
4096.8722394066962806
 20
124.7531604813276971
 30
0.0
 11
4096.8642604493961699
 21
124.8062673092277066
 31
0.0
  0
LINE
  5
6C65
  8
0
 10
4096.6282806255958349
 20
124.7525793532277021
 30
0.0
 11
4096.6197018882958218
 21
124.8062673092277066
 31
0.0
  0
LINE
  5
6C66
  8
0
 10
4096.5585096132963372
 20
124.7539457363276938
 30
0.0
 11
4096.5661686204957732
 21
124.8062673092277066
 31
0.0
  0
LINE
  5
6C67
  8
0
 10
4096.1619340640963856
 20
124.7547771591276984
 30
0.0
 11
4096.16809611809731
 21
124.8062673092277066
 31
0.0
  0
LINE
  5
6C68
  8
0
 10
4096.5447950130946992
 20
124.7548463296276964
 30
0.0
 11
4096.5508819421947919
 21
124.8062673092277066
 31
0.0
  0
LINE
  5
6C69
  8
0
 10
4095.7927734372951818
 20
124.7552195366277061
 30
0.0
 11
4095.7983805843959999
 21
124.8062673092277066
 31
0.0
  0
LINE
  5
6C6A
  8
0
 10
4096.3506060318959499
 20
124.7539457363276938
 30
0.0
 11
4096.3429470246946948
 21
124.8062673092277066
 31
0.0
  0
LINE
  5
6C6B
  8
0
 10
4096.0542141667947362
 20
124.753307114327697
 30
0.0
 11
4096.0464049170950602
 21
124.8062673092277066
 31
0.0
  0
LINE
  5
6C6C
  8
0
 10
4096.4370770495952456
 20
124.7532384696277035
 30
0.0
 11
4096.4291884772947014
 21
124.8062673092277066
 31
0.0
  0
LINE
  5
6C6D
  8
0
 10
4096.1831687949961633
 20
124.7527187814277028
 30
0.0
 11
4096.1747549893962059
 21
124.8062673092277066
 31
0.0
  0
LINE
  5
6C6E
  8
0
 10
4095.9692397436961073
 20
124.7539457363276938
 30
0.0
 11
4095.9768987508959981
 21
124.8062673092277066
 31
0.0
  0
LINE
  5
6C6F
  8
0
 10
4095.8388889607958845
 20
124.7540327708277061
 30
0.0
 11
4095.8458788101961545
 21
124.8058094334276973
 31
0.0
  0
LINE
  5
6C70
  8
0
 10
4095.8086157348961933
 20
124.7540327708277061
 30
0.0
 11
4095.8156673975950071
 21
124.8062673092277066
 31
0.0
  0
LINE
  5
6C71
  8
0
 10
4095.6043076837950139
 20
124.7533878141277057
 30
0.0
 11
4095.5965914081962183
 21
124.8062673092277066
 31
0.0
  0
LINE
  5
6C72
  8
0
 10
4095.8614022441961424
 20
124.7539457363276938
 30
0.0
 11
4095.8537432369957969
 21
124.8062673092277066
 31
0.0
  0
LINE
  5
6C73
  8
0
 10
4095.6850888441958887
 20
124.752874947527701
 30
0.0
 11
4095.6768586812959256
 21
124.8062673092277066
 31
0.0
  0
LINE
  5
6C74
  8
0
 10
4095.5910300420960084
 20
124.7539457363276938
 30
0.0
 11
4095.5976385728959031
 21
124.7990911083277012
 31
0.0
  0
LINE
  5
6C75
  8
0
 10
4095.3932667435960866
 20
124.7540327708277061
 30
0.0
 11
4095.4003184062958098
 21
124.8062673092277066
 31
0.0
  0
LINE
  5
6C76
  8
0
 10
4095.24799595959621
 20
124.7550467246277037
 30
0.0
 11
4095.2537876472961216
 21
124.8062634723277
 31
0.0
  0
LINE
  5
6C77
  8
0
 10
4095.4320520457958992
 20
124.7540327708277061
 30
0.0
 11
4095.4250003830961759
 21
124.8062673092277066
 31
0.0
  0
LINE
  5
6C78
  8
0
 10
4095.2855196752962001
 20
124.7540327708277061
 30
0.0
 11
4095.2784680125960222
 21
124.8062673092277066
 31
0.0
  0
LINE
  5
6C79
  8
0
 10
4095.0947451026959243
 20
124.7534792589276975
 30
0.0
 11
4095.0871338170959461
 21
124.8062673092277066
 31
0.0
  0
LINE
  5
6C7A
  8
0
 10
4095.4831925424959991
 20
124.7539457363276938
 30
0.0
 11
4095.4755335352961083
 21
124.8062673092277066
 31
0.0
  0
LINE
  5
6C7B
  8
0
 10
4095.0265286538960936
 20
124.7539457363276938
 30
0.0
 11
4095.0188696466962028
 21
124.8062673092277066
 31
0.0
  0
LINE
  5
6C7C
  8
0
 10
4095.1403045508959622
 20
124.7530459292276959
 30
0.0
 11
4095.1322741413960102
 21
124.8062673092277066
 31
0.0
  0
LINE
  5
6C7D
  8
0
 10
4095.0215406364959563
 20
124.7540327708277061
 30
0.0
 11
4095.0239276376760245
 21
124.7717142611791985
 31
0.0
  0
LINE
  5
6C7E
  8
0
 10
4094.8137300061971473
 20
124.7540327708277061
 30
0.0
 11
4094.820781668895961
 21
124.8062673092277066
 31
0.0
  0
LINE
  5
6C7F
  8
0
 10
4094.9137935680951159
 20
124.7540327708277061
 30
0.0
 11
4094.9067419054958918
 21
124.8062673092277066
 31
0.0
  0
LINE
  5
6C80
  8
0
 10
4094.7059829378949871
 20
124.7540327708277061
 30
0.0
 11
4094.6989312751948091
 21
124.8062673092277066
 31
0.0
  0
LINE
  5
6C81
  8
0
 10
4094.6915927514951363
 20
124.7540327708277061
 30
0.0
 11
4094.6845855076949192
 21
124.8059382806277
 31
0.0
  0
LINE
  5
6C82
  8
0
 10
4094.5338934763958605
 20
124.7535799616276933
 30
0.0
 11
4094.5263973649971376
 21
124.8062673092277066
 31
0.0
  0
LINE
  5
6C83
  8
0
 10
4094.8201728719959647
 20
124.7535285522277064
 30
0.0
 11
4094.8168208759961999
 21
124.7769281027276946
 31
0.0
  0
LINE
  5
6C84
  8
0
 10
4094.5556670213959478
 20
124.7532296134277061
 30
0.0
 11
4094.5478496865971465
 21
124.8062673092277066
 31
0.0
  0
LINE
  5
6C85
  8
0
 10
4094.2265056736960105
 20
124.7540327708277061
 30
0.0
 11
4094.2335573363961885
 21
124.8062673092277066
 31
0.0
  0
LINE
  5
6C86
  8
0
 10
4094.6633645450961012
 20
124.7548613982277033
 30
0.0
 11
4094.6693564823958695
 21
124.8062673092277066
 31
0.0
  0
LINE
  5
6C87
  8
0
 10
4094.4474885474951407
 20
124.7540327708294967
 30
0.0
 11
4094.4404368847958722
 21
124.8062673092277066
 31
0.0
  0
LINE
  5
6C88
  8
0
 10
4094.3443493781960569
 20
124.7540327708277061
 30
0.0
 11
4094.3372977154958789
 21
124.8062673092277066
 31
0.0
  0
LINE
  5
6C89
  8
0
 10
4094.2717877724958271
 20
124.7540327708277061
 30
0.0
 11
4094.2647361097961038
 21
124.8062673092277066
 31
0.0
  0
LINE
  5
6C8A
  8
0
 10
4094.1187586053970335
 20
124.754032770819407
 30
0.0
 11
4094.1117069426959461
 21
124.8062673092277066
 31
0.0
  0
LINE
  5
6C8B
  8
0
 10
4094.5016116950960168
 20
124.7539457363276938
 30
0.0
 11
4094.493952687896126
 21
124.8062673092277066
 31
0.0
  0
LINE
  5
6C8C
  8
0
 10
4094.0768949253961182
 20
124.7540327708277061
 30
0.0
 11
4094.0839465880958414
 21
124.8062673092277066
 31
0.0
  0
LINE
  5
6C8D
  8
0
 10
4093.7119420433959931
 20
124.7540327708277061
 30
0.0
 11
4093.7189937060961711
 21
124.8062673092277066
 31
0.0
  0
LINE
  5
6C8E
  8
0
 10
4093.7245156906960801
 20
124.7543372799276966
 30
0.0
 11
4093.7311562682962176
 21
124.8062347086276986
 31
0.0
  0
LINE
  5
6C8F
  8
0
 10
4094.0462311580949972
 20
124.7546659194276941
 30
0.0
 11
4094.0524354886961191
 21
124.8062673092277066
 31
0.0
  0
LINE
  5
6C90
  8
0
 10
4093.9015920403958262
 20
124.7540327708277061
 30
0.0
 11
4093.894540377696103
 21
124.8062673092277066
 31
0.0
  0
LINE
  5
6C91
  8
0
 10
4093.8637138042950028
 20
124.7540327708277061
 30
0.0
 11
4093.8566621416948692
 21
124.8062673092277066
 31
0.0
  0
LINE
  5
6C92
  8
0
 10
4093.774905188196044
 20
124.7540327708277061
 30
0.0
 11
4093.7678535254958661
 21
124.8062673092277066
 31
0.0
  0
LINE
  5
6C93
  8
0
 10
4093.9309620192962029
 20
124.7536882817277046
 30
0.0
 11
4093.9235892748961305
 21
124.8062673092277066
 31
0.0
  0
LINE
  5
6C94
  8
0
 10
4093.9385285267958352
 20
124.7534237204277048
 30
0.0
 11
4093.9309346592958718
 21
124.8062673092277066
 31
0.0
  0
LINE
  5
6C95
  8
0
 10
4093.9201674434962115
 20
124.7539457363276938
 30
0.0
 11
4093.9124823140950866
 21
124.8064457596277066
 31
0.0
  0
LINE
  5
6C96
  8
0
 10
4098.0279271116851305
 20
124.7488192774267048
 30
0.0
 11
4097.935885249184139
 21
124.7456051047279004
 31
0.0
  0
LINE
  5
6C97
  8
0
 10
4093.6481167273959727
 20
124.7540327708277061
 30
0.0
 11
4093.6551683900961507
 21
124.8062673092277066
 31
0.0
  0
LINE
  5
6C98
  8
0
 10
4093.618517543496182
 20
124.7574430606276934
 30
0.0
 11
4093.6251088170961339
 21
124.8062673092277066
 31
0.0
  0
LINE
  5
6C99
  8
0
 10
4093.4043565136958023
 20
124.7544627759277063
 30
0.0
 11
4093.4107833517959989
 21
124.8062673092277066
 31
0.0
  0
LINE
  5
6C9A
  8
0
 10
4093.5098496968957988
 20
124.7574430606276934
 30
0.0
 11
4093.5032584233949819
 21
124.8062673092277066
 31
0.0
  0
LINE
  5
6C9B
  8
0
 10
4093.2881772910950531
 20
124.7540327708277061
 30
0.0
 11
4093.2811256283957846
 21
124.8062673092277066
 31
0.0
  0
LINE
  5
6C9C
  8
0
 10
4093.2707804058950387
 20
124.7540327708277061
 30
0.0
 11
4093.263728743196225
 21
124.8062673092277066
 31
0.0
  0
LINE
  5
6C9D
  8
0
 10
4093.205000609095805
 20
124.7574430606276934
 30
0.0
 11
4093.1984093354958532
 21
124.8062673092277066
 31
0.0
  0
LINE
  5
6C9E
  8
0
 10
4093.2966500389961766
 20
124.7536258317277031
 30
0.0
 11
4093.2892870116961603
 21
124.8062673092277066
 31
0.0
  0
LINE
  5
6C9F
  8
0
 10
4097.2909151689964347
 20
124.7480161702277002
 30
0.0
 11
4097.1999172171963437
 21
124.7464334077276931
 31
0.0
  0
LINE
  5
6CA0
  8
0
 10
4093.0799066753961597
 20
124.7540327708277061
 30
0.0
 11
4093.0869583380958829
 21
124.8062673092277066
 31
0.0
  0
LINE
  5
6CA1
  8
0
 10
4092.9079718639959538
 20
124.7540327708277061
 30
0.0
 11
4092.9150235266952222
 21
124.8062673092277066
 31
0.0
  0
LINE
  5
6CA2
  8
0
 10
4092.9721596070958185
 20
124.7540327708277061
 30
0.0
 11
4092.9651079443960953
 21
124.8062673092277066
 31
0.0
  0
LINE
  5
6CA3
  8
0
 10
4092.8002247956960673
 20
124.7540327708277061
 30
0.0
 11
4092.7931731329958893
 21
124.8062673092277066
 31
0.0
  0
LINE
  5
6CA4
  8
0
 10
4092.638103626496104
 20
124.7538334186277069
 30
0.0
 11
4092.6309757508947769
 21
124.8062673092277066
 31
0.0
  0
LINE
  5
6CA5
  8
0
 10
4092.9694708592960524
 20
124.7538611481276973
 30
0.0
 11
4092.9622592290947978
 21
124.8065203686277016
 31
0.0
  0
LINE
  5
6CA6
  8
0
 10
4092.4478713073949621
 20
124.7540327708277061
 30
0.0
 11
4092.4549229700960495
 21
124.8062673092277066
 31
0.0
  0
LINE
  5
6CA7
  8
0
 10
4092.7458124873960514
 20
124.7542545480277028
 30
0.0
 11
4092.7524693039958947
 21
124.8062673092277066
 31
0.0
  0
LINE
  5
6CA8
  8
0
 10
4092.3057622027959042
 20
124.7539805665277015
 30
0.0
 11
4092.2986865055950148
 21
124.8065135849276999
 31
0.0
  0
LINE
  5
6CA9
  8
0
 10
4092.3401242390959851
 20
124.7540327708277061
 30
0.0
 11
4092.3330725763958071
 21
124.8062673092277066
 31
0.0
  0
LINE
  5
6CAA
  8
0
 10
4092.3150056576951101
 20
124.7540327708277061
 30
0.0
 11
4092.3079539949949321
 21
124.8062673092277066
 31
0.0
  0
LINE
  5
6CAB
  8
0
 10
4092.308534836095987
 20
124.7540327708277061
 30
0.0
 11
4092.3014831734949439
 21
124.8062673092277066
 31
0.0
  0
ARC
  5
6CAC
  8
0
 10
4097.9356104499947833
 20
124.7534743238277031
 30
0.0
 40
0.0078740157
 50
238.3368213189854998
 51
272.0000000216946887
  0
ARC
  5
6CAD
  8
0
 10
4098.0276523124948653
 20
124.7566884965277012
 30
0.0
 40
0.0078740157
 50
272.0000000216685976
 51
354.4872181820616106
  0
ARC
  5
6CAE
  8
0
 10
4097.9902308250239003
 20
124.756659782452104
 30
0.0
 40
0.0078403457949986
 50
269.7516196139280851
 51
354.5868157863249053
  0
ARC
  5
6CAF
  8
0
 10
4097.8985151835067882
 20
124.7539400784721977
 30
0.0
 40
0.0083124431014178
 50
186.8093383992973884
 51
271.2936787300419041
  0
LINE
  5
6CB0
  8
0
 10
4097.8987028538240338
 20
124.745629754160305
 30
0.0
 11
4097.9901968367948939
 21
124.7488195103277064
 31
0.0
  0
LINE
  5
6CB1
  8
0
 10
4097.7865336267977909
 20
124.7456445025834029
 30
0.0
 11
4097.8774444052978652
 21
124.7488195103278059
 31
0.0
  0
LINE
  5
6CB2
  8
0
 10
4097.6930252458387258
 20
124.748606581006996
 30
0.0
 11
4097.6016026535880883
 21
124.7456949018809951
 31
0.0
  0
LINE
  5
6CB3
  8
0
 10
4097.4392394696851625
 20
124.7487625771181996
 30
0.0
 11
4097.3459633679922263
 21
124.7457638431038021
 31
0.0
  0
LINE
  5
6CB4
  8
0
 10
4097.2260973141947034
 20
124.7480161702277002
 30
0.0
 11
4097.135146709095352
 21
124.7464082129277045
 31
0.0
  0
LINE
  5
6CB5
  8
0
 10
4097.1148891419934444
 20
124.7485704017649937
 30
0.0
 11
4097.0228318853805831
 21
124.7458512391983021
 31
0.0
  0
LINE
  5
6CB6
  8
0
 10
4096.9858045390947154
 20
124.7464253635277061
 30
0.0
 11
4097.0193531973345671
 21
124.7467658061888045
 31
0.0
  0
LINE
  5
6CB7
  8
0
 10
4096.9810480538362754
 20
124.7480574852502997
 30
0.0
 11
4096.882860576695748
 21
124.7464071291277037
 31
0.0
  0
LINE
  5
6CB8
  8
0
 10
4096.8458522428036304
 20
124.7478701549585054
 30
0.0
 11
4096.7545223380484458
 21
124.7464776324575979
 31
0.0
  0
LINE
  5
6CB9
  8
0
 10
4096.7290443689462336
 20
124.7484323705154026
 30
0.0
 11
4096.6355131689078917
 21
124.7458866839806007
 31
0.0
  0
LINE
  5
6CBA
  8
0
 10
4096.6085006558096211
 20
124.7465104620325036
 30
0.0
 11
4096.6328856049158276
 21
124.7465288339690943
 31
0.0
  0
LINE
  5
6CBB
  8
0
 10
4096.5507177982963185
 20
124.7472121911277014
 30
0.0
 11
4096.4934049666671854
 21
124.7472121911277014
 31
0.0
  0
LINE
  5
6CBC
  8
0
 10
4096.5367178279166183
 20
124.7478276734486968
 30
0.0
 11
4096.4449830343392023
 21
124.7465241081326042
 31
0.0
  0
LINE
  5
6CBD
  8
0
 10
4096.35839701709574
 20
124.7472121911277014
 30
0.0
 11
4096.4417635153104129
 21
124.7472121911277014
 31
0.0
  0
LINE
  5
6CBE
  8
0
 10
4096.2827876202136395
 20
124.7481159103850956
 30
0.0
 11
4096.1911414674714251
 21
124.7460757414731063
 31
0.0
  0
LINE
  5
6CBF
  8
0
 10
4096.1541257966591729
 20
124.7477741556862014
 30
0.0
 11
4096.0614196929582249
 21
124.7477741556862014
 31
0.0
  0
LINE
  5
6CC0
  8
0
 10
4096.1605001643956712
 20
124.7472121911277014
 30
0.0
 11
4096.1871226085886519
 21
124.7472121911277014
 31
0.0
  0
LINE
  5
6CC1
  8
0
 10
4095.9614487584958624
 20
124.7472121911277014
 30
0.0
 11
4095.8691945095961273
 21
124.7472121911277014
 31
0.0
  0
LINE
  5
6CC2
  8
0
 10
4095.8467832628098222
 20
124.7464871683154968
 30
0.0
 11
4095.8948521370111848
 21
124.7464871683154968
 31
0.0
  0
LINE
  5
6CC3
  8
0
 10
4095.8310857308952109
 20
124.7472121911277014
 30
0.0
 11
4095.7815901359958843
 21
124.7472121911277014
 31
0.0
  0
LINE
  5
6CC4
  8
0
 10
4095.7848283674720733
 20
124.7480668061806028
 30
0.0
 11
4095.6930419709779017
 21
124.7462099319213991
 31
0.0
  0
LINE
  5
6CC5
  8
0
 10
4095.6895886406268801
 20
124.7470904266606055
 30
0.0
 11
4095.6110681191858021
 21
124.7466961606408944
 31
0.0
  0
LINE
  5
6CC6
  8
0
 10
4095.5838038691949805
 20
124.7472121911277014
 30
0.0
 11
4095.4909835277949242
 21
124.7472121911277014
 31
0.0
  0
LINE
  5
6CC7
  8
0
 10
4095.4389837869130133
 20
124.7470539902125068
 30
0.0
 11
4095.4883855428997776
 21
124.7476435901428005
 31
0.0
  0
LINE
  5
6CC8
  8
0
 10
4095.3854635137950027
 20
124.7472121911277014
 30
0.0
 11
4095.2933229051950548
 21
124.7472121911277014
 31
0.0
  0
LINE
  5
6CC9
  8
0
 10
4095.4364285824490253
 20
124.7476127515121931
 30
0.0
 11
4095.3934377479931754
 21
124.7464510077144979
 31
0.0
  0
LINE
  5
6CCA
  8
0
 10
4095.2403180375090415
 20
124.7480672199232998
 30
0.0
 11
4095.148236419524892
 21
124.7463561132047971
 31
0.0
  0
ARC
  5
6CCB
  8
0
 10
4097.8773462596491299
 20
124.7578316278778061
 30
0.0
 40
0.009012651957403
 50
270.623949826722594
 51
1.3501563289023091
  0
ARC
  5
6CCC
  8
0
 10
4097.7861458971283355
 20
124.7533688377646968
 30
0.0
 40
0.0077340602719575
 50
188.5451378894252059
 51
272.8735992445446072
  0
ARC
  5
6CCD
  8
0
 10
4097.694324457986113
 20
124.7553987467155991
 30
0.0
 40
0.0069153067332389
 50
259.1712118003616183
 51
3.5401838611794552
  0
ARC
  5
6CCE
  8
0
 10
4097.6020055836906977
 20
124.7543734203015049
 30
0.0
 40
0.0086878670939893
 50
193.9606994093971082
 51
267.341755075721494
  0
ARC
  5
6CCF
  8
0
 10
4097.4386538470016603
 20
124.7556873163572959
 30
0.0
 40
0.0069494580692208
 50
274.8339809119121924
 51
0.4713676267195505
  0
ARC
  5
6CD0
  8
0
 10
4097.3456622041549053
 20
124.7535690575881944
 30
0.0
 40
0.0078110225198749
 50
188.9244601769609062
 51
272.2096588400352744
  0
ARC
  5
6CD1
  8
0
 10
4097.2910820668230372
 20
124.7555693163366044
 30
0.0
 40
0.0075549898099531
 50
268.7341718107746829
 51
355.5457857375635058
  0
ARC
  5
6CD2
  8
0
 10
4097.2255551037860641
 20
124.7570404227192
 30
0.0
 40
0.0090405268186575
 50
273.4384083495157824
 51
346.7671219219071759
  0
ARC
  5
6CD3
  8
0
 10
4097.1998676284947578
 20
124.7486591613180025
 30
0.0
 40
0.0022263059277502
 50
210.8166695336861949
 51
271.2763107763628909
  0
ARC
  5
6CD4
  8
0
 10
4097.1342461044978336
 20
124.7540124112341999
 30
0.0
 40
0.0076573442216347
 50
186.7310287570340108
 51
276.7543722992837729
  0
ARC
  5
6CD5
  8
0
 10
4097.1147184072306118
 20
124.7563747090233051
 30
0.0
 40
0.0078061746162555
 50
271.2532593486268979
 51
354.6126048984551744
  0
ARC
  5
6CD6
  8
0
 10
4097.0232485494007051
 20
124.7545092116369005
 30
0.0
 40
0.0086679925965247
 50
193.6859034305807938
 51
267.2447723183979065
  0
ARC
  5
6CD7
  8
0
 10
4096.9860764509403452
 20
124.7549647580757011
 30
0.0
 40
0.0085437225667065
 50
192.3213088531985875
 51
268.1762010498018753
  0
ARC
  5
6CD8
  8
0
 10
4096.8818117121081741
 20
124.7564863220904954
 30
0.0
 40
0.0101336196743002
 50
199.1594800856406948
 51
275.9409506985423945
  0
ARC
  5
6CD9
  8
0
 10
4096.8465467755768259
 20
124.7556547259580952
 30
0.0
 40
0.0078154923977567
 50
264.9016187148221206
 51
354.4751207944987073
  0
ARC
  5
6CDA
  8
0
 10
4096.7540654000831637
 20
124.7539597595790042
 30
0.0
 40
0.0074960668729853
 50
185.9478529748170956
 51
273.4947470420042919
  0
ARC
  5
6CDB
  8
0
 10
4096.728009597001801
 20
124.7563496354188999
 30
0.0
 40
0.0079845999604948
 50
277.4462453671285971
 51
354.0286128146752844
  0
ARC
  5
6CDC
  8
0
 10
4096.6360304054169319
 20
124.7536999623199989
 30
0.0
 40
0.0078303800683747
 50
188.2278738961801139
 51
266.2125640842303937
  0
ARC
  5
6CDD
  8
0
 10
4096.6082216328786672
 20
124.7533717439330019
 30
0.0
 40
0.0068669529715453
 50
181.3578144541170047
 51
272.3287240715662278
  0
ARC
  5
6CDE
  8
0
 10
4096.5498492093038294
 20
124.7560922667701959
 30
0.0
 40
0.0089224542730252
 50
275.586515008027618
 51
346.0794473857059756
  0
ARC
  5
6CDF
  8
0
 10
4096.5360731763112199
 20
124.7567265561247041
 30
0.0
 40
0.0089222020025957
 50
274.1433750091608204
 51
347.8345302995855945
  0
ARC
  5
6CE0
  8
0
 10
4096.4450217804342174
 20
124.7545814563408015
 30
0.0
 40
0.0080574413686423
 50
189.5946438603070021
 51
269.724478755536893
  0
ARC
  5
6CE1
  8
0
 10
4096.3583212507546705
 20
124.7549985421019016
 30
0.0
 40
0.0077867195938013
 50
187.7704916716641037
 51
270.5575082098611119
  0
ARC
  5
6CE2
  8
0
 10
4096.2826355336828783
 20
124.7563870034769025
 30
0.0
 40
0.0082724912357989
 50
271.0534199441884766
 51
352.9915468651512924
  0
ARC
  5
6CE3
  8
0
 10
4096.1913261761410467
 20
124.7544031586230062
 30
0.0
 40
0.0083294653898972
 50
191.6667574516951902
 51
268.7293428478072883
  0
ARC
  5
6CE4
  8
0
 10
4096.1544554252541275
 20
124.7552611890704952
 30
0.0
 40
0.0074942860839961
 50
267.479089807434093
 51
356.2968867528596775
  0
ARC
  5
6CE5
  8
0
 10
4096.1602824295496248
 20
124.7502163976365068
 30
0.0
 40
0.0030120865212645
 50
213.7379348162806139
 51
274.1453584018780134
  0
ARC
  5
6CE6
  8
0
 10
4096.061158391877143
 20
124.7548921932641974
 30
0.0
 40
0.0071228321064858
 50
192.857965332083694
 51
272.1023672884372786
  0
ARC
  5
6CE7
  8
0
 10
4095.9602484110801015
 20
124.7564750575325974
 30
0.0
 40
0.0093403173368476
 50
277.3836431119041777
 51
344.2883570065881145
  0
ARC
  5
6CE8
  8
0
 10
4095.8690747045079661
 20
124.7549490460712036
 30
0.0
 40
0.0077377824780123
 50
187.4501610397302045
 51
270.8871534228997007
  0
ARC
  5
6CE9
  8
0
 10
4095.8307676023459862
 20
124.7554501686667976
 30
0.0
 40
0.0082441178854761
 50
272.2115100998850039
 51
350.1000418465653752
  0
ARC
  5
6CEA
  8
0
 10
4095.8465699098051118
 20
124.7573677625311035
 30
0.0
 40
0.0108826857893889
 50
215.6341228330500996
 51
271.123344938195828
  0
ARC
  5
6CEB
  8
0
 10
4095.8948305586068273
 20
124.7493681586369974
 30
0.0
 40
0.0028810711307026
 50
270.4291331235673965
 51
311.5548093383548007
  0
ARC
  5
6CEC
  8
0
 10
4095.800952933453118
 20
124.7545808266172997
 30
0.0
 40
0.0076823753556905
 50
286.4309972952864882
 51
355.9090803905497182
  0
ARC
  5
6CED
  8
0
 10
4095.7846692863549833
 20
124.7562324646922036
 30
0.0
 40
0.00816720795191
 50
271.116079456820728
 51
352.8756157461435237
  0
ARC
  5
6CEE
  8
0
 10
4095.7814769608039569
 20
124.7490855267571987
 30
0.0
 40
0.0018767511835626
 50
216.5264521599810053
 51
273.4572497064153254
  0
ARC
  5
6CEF
  8
0
 10
4095.6933590783410182
 20
124.7546659247813068
 30
0.0
 40
0.008461936677037
 50
192.2191218939723001
 51
267.8523629469879097
  0
ARC
  5
6CF0
  8
0
 10
4095.6112094826607972
 20
124.7535997660438056
 30
0.0
 40
0.0069050525841669
 50
181.7589812544968879
 51
268.82693198039658
  0
ARC
  5
6CF1
  8
0
 10
4095.5826491400757732
 20
124.755695593770497
 30
0.0
 40
0.0085616306706562
 50
277.7512512163311271
 51
348.2065783119927005
  0
ARC
  5
6CF2
  8
0
 10
4095.4909497125991038
 20
124.7550470813950056
 30
0.0
 40
0.0078349632397514
 50
188.0807149471825142
 51
270.2472856619879735
  0
ARC
  5
6CF3
  8
0
 10
4095.4392100808368014
 20
124.7542106584822932
 30
0.0
 40
0.0071602450840651
 50
181.4235910183022042
 51
268.1889103002295087
  0
ARC
  5
6CF4
  8
0
 10
4095.3862009799481712
 20
124.7542424928949032
 30
0.0
 40
0.0070688753889891
 50
264.0116749936893257
 51
358.2998776803872829
  0
ARC
  5
6CF5
  8
0
 10
4095.3928442363921931
 20
124.7515073749406014
 30
0.0
 40
0.0050910809799474
 50
225.4864414600648956
 51
276.6946904096819821
  0
ARC
  5
6CF6
  8
0
 10
4095.293325880843895
 20
124.7550896112583985
 30
0.0
 40
0.0078774206927326
 50
187.7100911958563927
 51
269.9783568576934272
  0
ARC
  5
6CF7
  8
0
 10
4095.2399078567209472
 20
124.7562313125468023
 30
0.0
 40
0.0081743902918882
 50
272.8762391845008892
 51
351.6676702136826975
  0
ARC
  5
6CF8
  8
0
 10
4095.1492756815391658
 20
124.7556354982795028
 30
0.0
 40
0.0093374007570716
 50
196.1010921082801133
 51
263.6096822258460861
  0
LINE
  5
6CF9
  8
0
 10
4095.1469680522068302
 20
124.7465877416648965
 30
0.0
 11
4095.102620954287886
 21
124.7467327117588951
 31
0.0
  0
LINE
  5
6CFA
  8
0
 10
4095.0343196391959282
 20
124.7472121911277014
 30
0.0
 11
4095.0999312040771656
 21
124.7472121911277014
 31
0.0
  0
LINE
  5
6CFB
  8
0
 10
4095.0137374065961922
 20
124.7472121911277014
 30
0.0
 11
4094.9216111174960133
 21
124.7472121911277014
 31
0.0
  0
LINE
  5
6CFC
  8
0
 10
4094.8313411743961296
 20
124.7465488031216978
 30
0.0
 11
4094.9207008895009494
 21
124.7473139963377946
 31
0.0
  0
LINE
  5
6CFD
  8
0
 10
4094.8059267762960189
 20
124.7472121911277014
 30
0.0
 11
4094.6993959813958099
 21
124.7472121911277014
 31
0.0
  0
ARC
  5
6CFE
  8
0
 10
4094.5977605967118507
 20
125.5873016753946985
 30
0.0
 40
0.8416247605651868
 50
267.6105089895831952
 51
273.9474584057564925
  0
ARC
  5
6CFF
  8
0
 10
4094.5554277235341942
 20
124.9440037224382962
 30
0.0
 40
0.1976602073513116
 50
265.5854807686189929
 51
272.0158087205601873
  0
LINE
  5
6D00
  8
0
 10
4094.5094026802958069
 20
124.7472121911277014
 30
0.0
 11
4094.5388879121710488
 21
124.7472121911277014
 31
0.0
  0
LINE
  5
6D01
  8
0
 10
4094.5082308709588688
 20
124.7472121911277014
 30
0.0
 11
4094.4553009419969385
 21
124.7472121911277014
 31
0.0
  0
LINE
  5
6D02
  8
0
 10
4094.4538438247959675
 20
124.7472121911277014
 30
0.0
 11
4094.3521669274950909
 21
124.7472121911277014
 31
0.0
  0
LINE
  5
6D03
  8
0
 10
4094.3521669274950909
 20
124.7472121911277014
 30
0.0
 11
4094.2795918215961137
 21
124.7472121911277014
 31
0.0
  0
LINE
  5
6D04
  8
0
 10
4094.2187024438949265
 20
124.7472121911277014
 30
0.0
 11
4094.1266505654898538
 21
124.7472121911277014
 31
0.0
  0
LINE
  5
6D05
  8
0
 10
4094.0690916954949898
 20
124.7472121911277014
 30
0.0
 11
4094.0312056939319518
 21
124.7472121911277014
 31
0.0
  0
ARC
  5
6D06
  8
0
 10
4093.9843671545741017
 20
125.4456498337059003
 30
0.0
 40
0.7000064209273122
 50
266.7424150879082276
 51
274.4355750986342741
  0
ARC
  5
6D07
  8
0
 10
4093.9442672877771656
 20
124.7943807944974992
 30
0.0
 40
0.0477990571342735
 50
260.6839224534983828
 51
273.0744412019226957
  0
LINE
  5
6D08
  8
0
 10
4093.9365295413949752
 20
124.7472121911277014
 30
0.0
 11
4093.7827084180958082
 21
124.7472121911277014
 31
0.0
  0
LINE
  5
6D09
  8
0
 10
4093.7189809993228664
 20
124.7477793459768947
 30
0.0
 11
4093.5189481787720069
 21
124.7475033557532953
 31
0.0
  0
LINE
  5
6D0A
  8
0
 10
4093.2167049387958286
 20
124.7472121911277014
 30
0.0
 11
4093.3021315847868209
 21
124.7472121911277014
 31
0.0
  0
ARC
  5
6D0B
  8
0
 10
4093.3964013192339735
 20
124.7554733129867941
 30
0.0
 40
0.0080191211654799
 50
270.573624186561517
 51
352.7605707048301156
  0
ARC
  5
6D0C
  8
0
 10
4093.3459555786680539
 20
125.4444027935661978
 30
0.0
 40
0.6987772694915236
 50
266.5996277835823207
 51
274.1464663210006734
  0
ARC
  5
6D0D
  8
0
 10
4093.3044851762001599
 20
124.754803842365007
 30
0.0
 40
0.0079481168241145
 50
186.1151658986563859
 51
270.1724699180504103
  0
LINE
  5
6D0E
  8
0
 10
4093.0724001117960142
 20
124.7472121911277014
 30
0.0
 11
4092.9742666086949612
 21
124.7476377723277068
 31
0.0
  0
LINE
  5
6D0F
  8
0
 10
4092.9001686340961896
 20
124.7472121911277014
 30
0.0
 11
4092.8080280255958314
 21
124.7472121911277014
 31
0.0
  0
ARC
  5
6D10
  8
0
 10
4092.6897669107311231
 20
125.408470871994794
 30
0.0
 40
0.662867374463363
 50
266.0015008072032856
 51
274.1749989345802874
  0
LINE
  5
6D11
  8
0
 10
4092.4400680774961074
 20
124.7472121911277014
 30
0.0
 11
4092.3136633655030892
 21
124.7470428995388971
 31
0.0
  0
ARC
  5
6D12
  8
0
 10
4095.102662878502997
 20
124.7547520223845936
 30
0.0
 40
0.0080194202129495
 50
189.1320371700994087
 51
269.7004656856385054
  0
ARC
  5
6D13
  8
0
 10
4095.0349884928450592
 20
124.7558600977910004
 30
0.0
 40
0.0086737336171573
 50
192.7506142943956036
 51
265.5773863147617817
  0
ARC
  5
6D14
  8
0
 10
4095.0141959392440185
 20
124.7545616128331005
 30
0.0
 40
0.00736371180812
 50
266.4299263812396816
 51
355.881625565193076
  0
ARC
  5
6D15
  8
0
 10
4094.9220948292791036
 20
124.7556570207939046
 30
0.0
 40
0.008458671596724
 50
191.0708019870965018
 51
266.7217345134091033
  0
ARC
  5
6D16
  8
0
 10
4094.8306017152222012
 20
124.7577906734507991
 30
0.0
 40
0.0112661638709633
 50
202.2291425068260935
 51
273.7633367975446959
  0
ARC
  5
6D17
  8
0
 10
4094.806389323348867
 20
124.7545570200664997
 30
0.0
 40
0.0073593791802063
 50
266.3965067056677185
 51
355.9150452407483272
  0
ARC
  5
6D18
  8
0
 10
4094.7141911044991502
 20
124.7555482095653048
 30
0.0
 40
0.0083468888554187
 50
190.4604822103854076
 51
267.0755407285901128
  0
ARC
  5
6D19
  8
0
 10
4094.7010527724310123
 20
124.7569816940774956
 30
0.0
 40
0.009908993108251
 50
197.3135522360809091
 51
260.374895817439608
  0
ARC
  5
6D1A
  8
0
 10
4094.6521787700871755
 20
124.7591089924914058
 30
0.0
 40
0.0119651000654981
 50
287.1122536918397827
 51
339.2066389038104717
  0
ARC
  5
6D1B
  8
0
 10
4094.5642063970399249
 20
124.7549918110103988
 30
0.0
 40
0.0087193048293065
 50
191.6599632119740875
 51
259.8594266842255252
  0
ARC
  5
6D1C
  8
0
 10
4094.5410343162411664
 20
124.7540382100933982
 30
0.0
 40
0.0071555283071459
 50
183.6718020104432867
 51
263.4129264588536898
  0
ARC
  5
6D1D
  8
0
 10
4094.50881677562802
 20
124.7544082913447028
 30
0.0
 40
0.0072199129228841
 50
183.6732595137017938
 51
274.6547403677827219
  0
ARC
  5
6D1E
  8
0
 10
4094.4545723833962256
 20
124.754262196046497
 30
0.0
 40
0.007087550140117
 50
181.8549982857581995
 51
275.9000921881543036
  0
ARC
  5
6D1F
  8
0
 10
4094.3527935324927967
 20
124.755820800702395
 30
0.0
 40
0.0086313841666927
 50
191.9556492508525878
 51
265.8368865234605778
  0
ARC
  5
6D20
  8
0
 10
4094.280476587908197
 20
124.7560994862411974
 30
0.0
 40
0.0089312275674521
 50
193.3797031828810873
 51
264.3147054771745275
  0
ARC
  5
6D21
  8
0
 10
4094.218472781060882
 20
124.7553489574574002
 30
0.0
 40
0.008140006837931
 50
271.6167624687886928
 51
350.6947902052750123
  0
ARC
  5
6D22
  8
0
 10
4094.1263834498149663
 20
124.7548792233795041
 30
0.0
 40
0.0076716839309976
 50
186.3346070178924947
 51
271.9953500440570906
  0
ARC
  5
6D23
  8
0
 10
4094.0694762612420163
 20
124.7546462362466002
 30
0.0
 40
0.0074439853333655
 50
267.038708963091608
 51
355.2728429833475161
  0
ARC
  5
6D24
  8
0
 10
4094.0374995242291334
 20
124.7566341200248985
 30
0.0
 40
0.0089507119036204
 50
276.4454833940610001
 51
347.2972403650920228
  0
ARC
  5
6D25
  8
0
 10
4093.9455104302660402
 20
124.7537009399243999
 30
0.0
 40
0.0069874048628191
 50
182.2737593290260918
 51
262.4249764834626149
  0
ARC
  5
6D26
  8
0
 10
4093.9397730842702003
 20
124.7556319347501983
 30
0.0
 40
0.0090228960452188
 50
192.4397836968130946
 51
248.9317885713332998
  0
ARC
  5
6D27
  8
0
 10
4093.928012257410046
 20
124.7551186576661024
 30
0.0
 40
0.0079320142338975
 50
188.5036151836577858
 51
265.400205941920774
  0
ARC
  5
6D28
  8
0
 10
4093.9085813075312217
 20
124.7540772360139982
 30
0.0
 40
0.0069894085764664
 50
180.364506477330508
 51
259.1754392290674218
  0
ARC
  5
6D29
  8
0
 10
4093.8707758217378796
 20
124.7542765449485955
 30
0.0
 40
0.0070662236151081
 50
181.977010781991595
 51
268.6818937361699113
  0
ARC
  5
6D2A
  8
0
 10
4093.7839054477572063
 20
124.7564556942577951
 30
0.0
 40
0.0093206882861509
 50
195.0671622510870122
 51
262.6212858024650814
  0
ARC
  5
6D2B
  8
0
 10
4093.7175605408438059
 20
124.7545926888338954
 30
0.0
 40
0.0069598378700921
 50
281.776445357706109
 51
357.8969138029955843
  0
ARC
  5
6D2C
  8
0
 10
4093.7027045269928749
 20
124.7575166012522061
 30
0.0
 40
0.0098726280040659
 50
278.7532849424014216
 51
339.3365695405079236
  0
ARC
  5
6D2D
  8
0
 10
4093.6396871480751543
 20
124.7563552748029991
 30
0.0
 40
0.0087436738412625
 50
276.7020011593716049
 51
344.5961400416247784
  0
ARC
  5
6D2E
  8
0
 10
4093.6053811311489881
 20
124.7612130359294014
 30
0.0
 40
0.0136666763748703
 50
276.1347578846064152
 51
343.9872263154214806
  0
ARC
  5
6D2F
  8
0
 10
4093.5188406174388547
 20
124.7565389769327027
 30
0.0
 40
0.0090362613694729
 50
174.2579136835555005
 51
270.6820249797079896
  0
ARC
  5
6D30
  8
0
 10
4093.2951173550609383
 20
124.7541483106177935
 30
0.0
 40
0.0069410256654899
 50
180.9537852783180085
 51
267.845616957217203
  0
ARC
  5
6D31
  8
0
 10
4093.280755706094169
 20
124.7579163918522056
 30
0.0
 40
0.0107046310680536
 50
201.2721436481540991
 51
269.486239307240794
  0
ARC
  5
6D32
  8
0
 10
4093.2191736006620886
 20
124.7618468264951019
 30
0.0
 40
0.0148413895490368
 50
197.260821066944402
 51
260.4251281871676724
  0
ARC
  5
6D33
  8
0
 10
4092.9758719371939151
 20
124.7538343389100959
 30
0.0
 40
0.0064011340400843
 50
179.7600332222212103
 51
255.4758448694045967
  0
ARC
  5
6D34
  8
0
 10
4092.9809180439870033
 20
124.7567178778467962
 30
0.0
 40
0.0091607868912445
 50
197.0441658039482888
 51
263.6484355628633125
  0
ARC
  5
6D35
  8
0
 10
4093.0717410505899352
 20
124.7554785980308054
 30
0.0
 40
0.0082926379855516
 50
274.5584157134342149
 51
349.9591251580860103
  0
ARC
  5
6D36
  8
0
 10
4092.8984911328320777
 20
124.7570053880565979
 30
0.0
 40
0.0099358299389979
 50
279.7200050807464891
 51
342.5915468657191241
  0
ARC
  5
6D37
  8
0
 10
4092.8091540654691016
 20
124.7563744768736029
 30
0.0
 40
0.009231221256444
 50
194.6949328211146906
 51
262.993515232499476
  0
ARC
  5
6D38
  8
0
 10
4092.7352384009777779
 20
124.7583565726725965
 30
0.0
 40
0.0113418653567998
 50
284.2260937893398136
 51
338.7971419737834253
  0
ARC
  5
6D39
  8
0
 10
4092.6450093208409271
 20
124.7539669641372058
 30
0.0
 40
0.0069069855062379
 50
181.1078741783180988
 51
257.7595773639587833
  0
ARC
  5
6D3A
  8
0
 10
4092.4389632597808486
 20
124.7563501972099971
 30
0.0
 40
0.0092045519903625
 50
276.8938047442197785
 51
345.4177472022117854
  0
ARC
  5
6D3B
  8
0
 10
4092.3130876398681721
 20
124.754355285078006
 30
0.0
 40
0.0073350148111823
 50
182.9283023478809866
 51
274.5017786966834024
  0
ARC
  5
6D3C
  8
0
 10
4092.3167183346249658
 20
124.7552801099313058
 30
0.0
 40
0.0082780132293568
 50
188.6663921015490075
 51
264.1063492596404103
  0
ARC
  5
6D3D
  8
0
 10
4092.3241223762738628
 20
124.755949519198694
 30
0.0
 40
0.0093160335952716
 50
191.873246332608403
 51
252.7358411198887893
  0
ARC
  5
6D3E
  8
0
 10
4092.3502588861961158
 20
124.7579613702647947
 30
0.0
 40
0.010869451015683
 50
201.1883471266964989
 51
270.1094306902036237
  0
LINE
  5
6D3F
  8
0
 10
4091.3065218376459597
 20
126.3023303013277001
 30
0.0
 11
4091.3065218376459597
 21
125.2393381753277026
 31
0.0
  0
LINE
  5
6D40
  8
0
 10
4091.528962782545932
 20
127.2272121911277054
 30
0.0
 11
4091.528962782545932
 21
126.7103605033277063
 31
0.0
  0
LINE
  5
6D41
  8
0
 10
4091.821164404746014
 20
126.3023303013277001
 30
0.0
 11
4091.821164404746014
 21
125.8298893564276995
 31
0.0
  0
LINE
  5
6D42
  8
0
 10
4091.8267728966461618
 20
127.0779208525276971
 30
0.0
 11
4091.8267728966461618
 21
126.7103605033277063
 31
0.0
  0
LINE
  5
6D43
  8
0
 10
4092.228887144446162
 20
125.8298893564276995
 30
0.0
 11
4091.821164404746014
 21
125.8298893564276995
 31
0.0
  0
LINE
  5
6D44
  8
0
 10
4092.7435297115471258
 20
126.3023303013277001
 30
0.0
 11
4091.3065218376459597
 21
126.3023303013277001
 31
0.0
  0
LINE
  5
6D45
  8
0
 10
4091.8267728966461618
 20
127.0779208525276971
 30
0.0
 11
4092.2232786525460142
 21
127.0779208525276971
 31
0.0
  0
LINE
  5
6D46
  8
0
 10
4092.5010878542461796
 20
127.2472121911277014
 30
0.0
 11
4091.5489636949459964
 21
127.2472121911277014
 31
0.0
  0
ARC
  5
6D47
  8
0
 10
4091.7573092389538942
 20
126.7103605030902997
 30
0.0
 40
0.2283464564082713
 50
179.999999940451886
 51
248.0877877554177076
  0
ARC
  5
6D48
  8
0
 10
4091.6459706565401575
 20
126.4335675694232037
 30
0.0
 40
0.0700000000063294
 50
309.3709926363910085
 51
68.0877877300576699
  0
ARC
  5
6D49
  8
0
 10
4091.5505697009939468
 20
127.2256051993922057
 30
0.0
 40
0.02166659519367
 50
94.2508681506556911
 51
175.7465180754940945
  0
ARC
  5
6D4A
  8
0
 10
4092.0250257746452007
 20
125.9716216399277045
 30
0.0
 40
0.5275590551000001
 50
129.3709891249019108
 51
141.1807458173556995
  0
ARC
  5
6D4B
  8
0
 10
4092.0250257746060925
 20
126.6231964433174966
 30
0.0
 40
0.4960629919101464
 50
90.0000000011985435
 51
113.5564643235256028
  0
ARC
  5
6D4C
  8
0
 10
4091.9536818522519752
 20
126.7236964335109946
 30
0.0
 40
0.1276077193860152
 50
185.9987771315059888
 51
229.7579916263464099
  0
ARC
  5
6D4D
  8
0
 10
4091.999086999157953
 20
126.7906021360039972
 30
0.0
 40
0.2081870713148212
 50
232.1154378768283095
 51
259.8709130148957911
  0
ARC
  5
6D4E
  8
0
 10
4092.0245393723162124
 20
126.8865422095587974
 30
0.0
 40
0.3072170459803799
 50
258.3446030576686212
 51
270.0907137563888227
  0
LINE
  5
6D4F
  8
0
 10
4092.7435297115471258
 20
126.3023303013277001
 30
0.0
 11
4092.7435297115471258
 21
125.2393381753277026
 31
0.0
  0
LINE
  5
6D50
  8
0
 10
4092.5210887666457893
 20
127.2272121911277054
 30
0.0
 11
4092.5210887666457893
 21
126.7103605033277063
 31
0.0
  0
LINE
  5
6D51
  8
0
 10
4092.228887144446162
 20
126.3023303013277001
 30
0.0
 11
4092.228887144446162
 21
125.8298893564276995
 31
0.0
  0
LINE
  5
6D52
  8
0
 10
4092.2232786525460142
 20
127.0779208525276971
 30
0.0
 11
4092.2232786525460142
 21
126.7103605033277063
 31
0.0
  0
ARC
  5
6D53
  8
0
 10
4092.2927423102369175
 20
126.7103605030902997
 30
0.0
 40
0.2283464564082713
 50
291.9122122445822924
 51
0.0000000595481259
  0
ARC
  5
6D54
  8
0
 10
4092.404080892651109
 20
126.4335675694232037
 30
0.0
 40
0.0700000000063294
 50
111.9122122699426001
 51
230.6290073636089062
  0
ARC
  5
6D55
  8
0
 10
4092.499481848196865
 20
127.2256051993922057
 30
0.0
 40
0.02166659519367
 50
4.253481924505806
 51
85.7491318493442947
  0
ARC
  5
6D56
  8
0
 10
4092.0250257745451563
 20
125.9716216399277045
 30
0.0
 40
0.5275590551000001
 50
38.8192541826443076
 51
50.6290108750976202
  0
ARC
  5
6D57
  8
0
 10
4092.0250257745851741
 20
126.6231964433174966
 30
0.0
 40
0.4960629919101464
 50
66.4435356764743688
 51
89.9999999988014707
  0
ARC
  5
6D58
  8
0
 10
4092.0963696969402008
 20
126.7236964335109946
 30
0.0
 40
0.1276077193860152
 50
310.2420083736529932
 51
354.0012228684930733
  0
ARC
  5
6D59
  8
0
 10
4092.0509645500342231
 20
126.7906021360039972
 30
0.0
 40
0.2081870713148212
 50
280.1290869851042089
 51
307.8845621231711789
  0
ARC
  5
6D5A
  8
0
 10
4092.0255121768750541
 20
126.8865422095587974
 30
0.0
 40
0.3072170459803799
 50
269.9092862436111773
 51
281.6553969423313788
  0
LINE
  5
6D5B
  8
0
 10
4092.0789445243958653
 20
124.7539457363276938
 30
0.0
 11
4092.0866035315962108
 21
124.8062673092277066
 31
0.0
  0
ARC
  5
6D5C
  8
0
 10
4092.0689060506110764
 20
124.7573058146791993
 30
0.0
 40
0.0105858907254507
 50
283.8217395276840875
 51
341.4935737293370153
  0
ENDSEC
  0
EOF
