  0
SECTION
  2
HEADER
  9
$ACADVER
  1
AC1009
  9
$INSBASE
 10
4124.2988067949981996
 20
128.3799726464154105
 30
0.0
  9
$EXTMIN
 10
4117.2176898047600844
 20
121.3697898394100037
 30
-0.0000000000112498
  9
$EXTMAX
 10
4131.4023787237720171
 20
135.3975160872712138
 30
0.0000000000002956
  9
$LIMMIN
 10
0.0
 20
0.0
  9
$LIMMAX
 10
11.6929133858000007
 20
8.2677165353999982
  9
$ORTHOMODE
 70
     0
  9
$REGENMODE
 70
     1
  9
$FILLMODE
 70
     1
  9
$QTEXTMODE
 70
     0
  9
$MIRRTEXT
 70
     0
  9
$DRAGMODE
 70
     2
  9
$LTSCALE
 40
0.6431102362
  9
$OSMODE
 70
  4095
  9
$ATTMODE
 70
     1
  9
$TEXTSIZE
 40
0.2
  9
$TRACEWID
 40
0.05
  9
$TEXTSTYLE
  7
STANDARD
  9
$CLAYER
  8
0
  9
$CELTYPE
  6
BYLAYER
  9
$CECOLOR
 62
   256
  9
$DIMSCALE
 40
1.0
  9
$DIMASZ
 40
0.1875
  9
$DIMEXO
 40
0.0625
  9
$DIMDLI
 40
0.4443307087
  9
$DIMRND
 40
0.0
  9
$DIMDLE
 40
0.0
  9
$DIMEXE
 40
0.125
  9
$DIMTP
 40
0.01
  9
$DIMTM
 40
0.01
  9
$DIMTXT
 40
2.0
  9
$DIMCEN
 40
0.1052362205
  9
$DIMTSZ
 40
0.0
  9
$DIMTOL
 70
     1
  9
$DIMLIM
 70
     0
  9
$DIMTIH
 70
     1
  9
$DIMTOH
 70
     1
  9
$DIMSE1
 70
     0
  9
$DIMSE2
 70
     0
  9
$DIMTAD
 70
     0
  9
$DIMZIN
 70
     0
  9
$DIMBLK
  1

  9
$DIMASO
 70
     1
  9
$DIMSHO
 70
     1
  9
$DIMPOST
  1
\X
  9
$DIMAPOST
  1

  9
$DIMALT
 70
     1
  9
$DIMALTD
 70
     2
  9
$DIMALTF
 40
25.3999999999999986
  9
$DIMLFAC
 40
1.0
  9
$DIMTOFL
 70
     0
  9
$DIMTVP
 40
0.0
  9
$DIMTIX
 70
     0
  9
$DIMSOXD
 70
     0
  9
$DIMSAH
 70
     0
  9
$DIMBLK1
  1

  9
$DIMBLK2
  1

  9
$DIMSTYLE
  2
STANDARD
  9
$DIMCLRD
 70
     0
  9
$DIMCLRE
 70
     0
  9
$DIMCLRT
 70
     0
  9
$DIMTFAC
 40
1.0
  9
$DIMGAP
 40
0.09
  9
$LUNITS
 70
     2
  9
$LUPREC
 70
     4
  9
$SKETCHINC
 40
0.1
  9
$FILLETRAD
 40
0.0
  9
$AUNITS
 70
     0
  9
$AUPREC
 70
     0
  9
$MENU
  1
.
  9
$ELEVATION
 40
0.0
  9
$PELEVATION
 40
0.0
  9
$THICKNESS
 40
0.0
  9
$LIMCHECK
 70
     0
  9
$BLIPMODE
 70
     0
  9
$CHAMFERA
 40
0.0
  9
$CHAMFERB
 40
0.0
  9
$SKPOLY
 70
     0
  9
$TDCREATE
 40
2458060.468368056230247
  9
$TDUPDATE
 40
2459066.6519212960265577
  9
$TDINDWG
 40
0.3077501157
  9
$TDUSRTIMER
 40
0.3077501157
  9
$USRTIMER
 70
     1
  9
$ANGBASE
 50
0.0
  9
$ANGDIR
 70
     0
  9
$PDMODE
 70
     0
  9
$PDSIZE
 40
0.3125
  9
$PLINEWID
 40
0.0
  9
$COORDS
 70
     1
  9
$SPLFRAME
 70
     0
  9
$SPLINETYPE
 70
     6
  9
$SPLINESEGS
 70
     8
  9
$ATTDIA
 70
     1
  9
$ATTREQ
 70
     1
  9
$HANDLING
 70
     1
  9
$HANDSEED
  5
70C1
  9
$SURFTAB1
 70
     6
  9
$SURFTAB2
 70
     6
  9
$SURFTYPE
 70
     6
  9
$SURFU
 70
     6
  9
$SURFV
 70
     6
  9
$UCSNAME
  2

  9
$UCSORG
 10
0.0
 20
0.0
 30
0.0
  9
$UCSXDIR
 10
1.0
 20
0.0
 30
0.0
  9
$UCSYDIR
 10
0.0
 20
1.0
 30
0.0
  9
$PUCSNAME
  2

  9
$PUCSORG
 10
0.0
 20
0.0
 30
0.0
  9
$PUCSXDIR
 10
1.0
 20
0.0
 30
0.0
  9
$PUCSYDIR
 10
0.0
 20
1.0
 30
0.0
  9
$USERI1
 70
     0
  9
$USERI2
 70
     0
  9
$USERI3
 70
     0
  9
$USERI4
 70
     0
  9
$USERI5
 70
     0
  9
$USERR1
 40
0.0
  9
$USERR2
 40
0.0
  9
$USERR3
 40
0.0
  9
$USERR4
 40
0.0
  9
$USERR5
 40
0.0
  9
$WORLDVIEW
 70
     1
  9
$SHADEDGE
 70
     3
  9
$SHADEDIF
 70
    70
  9
$TILEMODE
 70
     1
  9
$MAXACTVP
 70
    64
  9
$PLIMCHECK
 70
     0
  9
$PEXTMIN
 10
1.0000000000000000E+20
 20
1.0000000000000000E+20
 30
1.0000000000000000E+20
  9
$PEXTMAX
 10
-1.0000000000000000E+20
 20
-1.0000000000000000E+20
 30
-1.0000000000000000E+20
  9
$PLIMMIN
 10
0.0
 20
0.0
  9
$PLIMMAX
 10
12.0
 20
9.0
  9
$UNITMODE
 70
     0
  9
$VISRETAIN
 70
     1
  9
$PLINEGEN
 70
     0
  9
$PSLTSCALE
 70
     1
  0
ENDSEC
  0
SECTION
  2
TABLES
  0
TABLE
  2
VPORT
 70
     1
  0
VPORT
  2
*ACTIVE
 70
     0
 10
0.0
 20
0.0
 11
1.0
 21
1.0
 12
48.6995606314540126
 22
2.4179699799421699
 13
0.0
 23
0.0
 14
1.0
 24
1.0
 15
0.0
 25
0.0
 16
0.0
 26
0.0
 36
53.3788880271138382
 17
4075.6104736328129547
 27
125.9656829833983949
 37
0.0
 40
14.1155825709167608
 41
2.005224660397074
 42
50.0
 43
0.0
 44
0.0
 50
0.0
 51
0.0
 71
     0
 72
   100
 73
     1
 74
     1
 75
     0
 76
     0
 77
     0
 78
     0
  0
ENDTAB
  0
TABLE
  2
LTYPE
 70
     2
  0
LTYPE
  2
CONTINUOUS
 70
     0
  3
Solid line
 72
    65
 73
     0
 40
0.0
  0
LTYPE
  2
PHANTOM2
 70
     0
  3
___ _ _ ___ _ _ ___ _ _ ___ _ _
 72
    65
 73
     6
 40
1.25
 49
0.625
 49
-0.125
 49
0.125
 49
-0.125
 49
0.125
 49
-0.125
  0
ENDTAB
  0
TABLE
  2
LAYER
 70
     2
  0
LAYER
  2
0
 70
     0
 62
   255
  6
CONTINUOUS
  0
LAYER
  2
DEFPOINTS
 70
     0
 62
     7
  6
CONTINUOUS
  0
ENDTAB
  0
TABLE
  2
STYLE
 70
     1
  0
STYLE
  2
STANDARD
 70
     0
 40
0.0
 41
0.8
 50
0.0
 71
     0
 42
0.2
  3
txt
  4

  0
ENDTAB
  0
TABLE
  2
VIEW
 70
     0
  0
ENDTAB
  0
TABLE
  2
UCS
 70
     0
  0
ENDTAB
  0
TABLE
  2
APPID
 70
     9
  0
APPID
  2
ACAD
 70
     0
  0
APPID
  2
ACAD_MLEADERVER
 70
     0
  0
APPID
  2
ACAD_EXEMPT_FROM_CAD_STANDARDS
 70
     0
  0
APPID
  2
ACAD_NAV_VCDISPLAY
 70
     0
  0
APPID
  2
ACAECLAYERSTANDARD
 70
     0
  0
APPID
  2
ACCMTRANSPARENCY
 70
     0
  0
APPID
  2
ACAD_DSTYLE_DIMJAG
 70
     0
  0
APPID
  2
ACAD_DSTYLE_DIMTALN
 70
     0
  0
APPID
  2
ACDBATTR
 70
     0
  0
ENDTAB
  0
TABLE
  2
DIMSTYLE
 70
     1
  0
DIMSTYLE
  2
STANDARD
 70
     0
  3

  4

  5

  6

  7

 40
1.0
 41
0.1875
 42
0.0625
 43
0.38
 44
0.125
 45
0.0
 46
0.0
 47
0.01
 48
0.01
140
0.15625
141
0.09
142
0.0
143
25.3999999999999986
144
1.0
145
0.0
146
1.0
147
0.09
 71
     1
 72
     0
 73
     1
 74
     1
 75
     0
 76
     0
 77
     0
 78
     4
170
     0
171
     2
172
     0
173
     0
174
     0
175
     0
176
     0
177
     0
178
     0
  0
ENDTAB
  0
ENDSEC
  0
SECTION
  2
BLOCKS
  0
BLOCK
  8
0
  2
$MODEL_SPACE
 70
     0
 10
0.0
 20
0.0
 30
0.0
  3
$MODEL_SPACE
  1

  0
ENDBLK
  5
21
  8
0
  0
BLOCK
 67
     1
  8
0
  2
$PAPER_SPACE
 70
     0
 10
0.0
 20
0.0
 30
0.0
  3
$PAPER_SPACE
  1

  0
ENDBLK
  5
1D
 67
     1
  8
0
  0
BLOCK
  8
0
  2
_FILLED
 70
     0
 10
0.0
 20
0.0
 30
0.0
  3
_FILLED
  1

  0
SOLID
  5
6EF0
  8
0
  6
BYBLOCK
 62
     0
 10
0.0
 20
0.0
 30
0.0
 11
-1.0
 21
0.1666666667
 31
0.0
 12
-1.0
 22
-0.1666666667
 32
0.0
 13
-1.0
 23
-0.1666666667
 33
0.0
  0
ENDBLK
  5
6EF1
  8
0
  6
BYBLOCK
 62
     0
  0
ENDSEC
  0
SECTION
  2
ENTITIES
  0
ATTDEF
  5
3930
  8
DEFPOINTS
 10
4124.293962929476038
 20
128.3779690065755972
 30
0.0
 40
0.001
  1
K-15994T-CL
  3

  2
MODELNUMBER
 70
     0
1001
ACDBATTR
1070
     0
1070
     1
  0
ATTDEF
  5
3931
  8
DEFPOINTS
 10
4124.293962929476038
 20
128.3763023399089036
 30
0.0
 40
0.001
  1
KATALYST
  3

  2
TRADENAME
 70
     0
1001
ACDBATTR
1070
     0
1070
     1
  0
ATTDEF
  5
3932
  8
DEFPOINTS
 10
4124.293962929476038
 20
128.37463567324221
 30
0.0
 40
0.001
  1
SHOWERHEAD
  3

  2
PRODUCT
 70
     0
1001
ACDBATTR
1070
     0
1070
     1
  0
ARC
  5
6F58
  8
0
 10
4124.300833072155001
 20
128.3799726464154105
 30
0.0
 40
7.0099002928571661
 50
90.0165618804702632
 51
269.9834381195298079
  0
ARC
  5
6F59
  8
0
 10
4124.2968382910476066
 20
128.3799726464154105
 30
0.0
 40
6.9409448819000001
 50
89.9837504876179253
 51
270.0162495123819895
  0
ARC
  5
6F5A
  8
0
 10
4124.2988067950491313
 20
128.3799726464154105
 30
0.0
 40
0.4351000237
 50
90.0000000065658838
 51
269.9999999934340735
  0
ARC
  5
6F5B
  8
0
 10
4124.2988067950491313
 20
128.3799726464154105
 30
0.0
 40
0.3800000826
 50
90.0000000075559825
 51
269.9999999924439749
  0
ARC
  5
6F5C
  8
0
 10
4124.2988037760469524
 20
128.3799727281154048
 30
0.0
 40
0.37
 50
89.9995325051509383
 51
270.0004674948489765
  0
ARC
  5
6F5D
  8
0
 10
4124.2988037760469524
 20
128.3799727281154048
 30
0.0
 40
0.2775
 50
89.9993766735345702
 51
270.0006233264654156
  0
ARC
  5
6F5E
  8
0
 10
4124.2967805178413983
 20
128.3799726464154105
 30
0.0
 40
7.0099002928571723
 50
270.0165618804703058
 51
89.9834381195297226
  0
ARC
  5
6F5F
  8
0
 10
4124.3007752989469736
 20
128.3799726464154105
 30
0.0
 40
6.9409448819000001
 50
269.9837504876178969
 51
90.0162495123821031
  0
ARC
  5
6F60
  8
0
 10
4124.2988067949481774
 20
128.3799726464154105
 30
0.0
 40
0.4351000237
 50
270.0000000065659265
 51
89.9999999934341162
  0
ARC
  5
6F61
  8
0
 10
4124.2988067949481774
 20
128.3799726464154105
 30
0.0
 40
0.3800000826
 50
270.0000000075560251
 51
89.9999999924440033
  0
ARC
  5
6F62
  8
0
 10
4124.2988098139476278
 20
128.3799727281154048
 30
0.0
 40
0.37
 50
269.9995325051510235
 51
90.0004674948490759
  0
ARC
  5
6F63
  8
0
 10
4124.2988098139476278
 20
128.3799727281154048
 30
0.0
 40
0.2775
 50
269.9993766735345844
 51
90.0006233264654156
  0
CIRCLE
  5
6F64
  8
0
 10
4124.2988067949981996
 20
135.1201301267153951
 30
0.0
 40
0.157480315
  0
CIRCLE
  5
6F65
  8
0
 10
4124.2988067949981996
 20
135.1201301267153951
 30
0.0
 40
0.1062992126
  0
CIRCLE
  5
6F66
  8
0
 10
4124.2988067949981996
 20
135.1201301267153951
 30
0.0
 40
0.0799606299
  0
CIRCLE
  5
6F67
  8
0
 10
4124.2988067949981996
 20
135.1201301267153951
 30
0.0
 40
0.0649606299
  0
CIRCLE
  5
6F69
  8
0
 10
4126.3658141707992399
 20
134.7415672180154047
 30
0.0
 40
0.157480315
  0
CIRCLE
  5
6F6A
  8
0
 10
4126.3658141707992399
 20
134.7415672180154047
 30
0.0
 40
0.1062992126
  0
CIRCLE
  5
6F6B
  8
0
 10
4126.3658141707992399
 20
134.7415672180154047
 30
0.0
 40
0.0799606299
  0
CIRCLE
  5
6F6C
  8
0
 10
4126.3658141707992399
 20
134.7415672180154047
 30
0.0
 40
0.0649606299
  0
CIRCLE
  5
6F6D
  8
0
 10
4122.2317994192671904
 20
134.7415672180381989
 30
0.0
 40
0.157480315
  0
CIRCLE
  5
6F6E
  8
0
 10
4122.2317994192671904
 20
134.7415672180381989
 30
0.0
 40
0.1062992126
  0
CIRCLE
  5
6F6F
  8
0
 10
4122.2317994192671904
 20
134.7415672180381989
 30
0.0
 40
0.0799606299
  0
CIRCLE
  5
6F70
  8
0
 10
4122.2317994192671904
 20
134.7415672180381989
 30
0.0
 40
0.0649606299
  0
CIRCLE
  5
6F71
  8
0
 10
4118.8873112302699155
 20
132.3116543143480044
 30
0.0
 40
0.157480315
  0
CIRCLE
  5
6F72
  8
0
 10
4118.8873112302699155
 20
132.3116543143480044
 30
0.0
 40
0.1062992126
  0
CIRCLE
  5
6F73
  8
0
 10
4118.8873112302699155
 20
132.3116543143480044
 30
0.0
 40
0.0799606299
  0
CIRCLE
  5
6F74
  8
0
 10
4118.8873112302699155
 20
132.3116543143480044
 30
0.0
 40
0.0649606299
  0
CIRCLE
  5
6F75
  8
0
 10
4117.6098304170291158
 20
128.3799726464523019
 30
0.0
 40
0.157480315
  0
CIRCLE
  5
6F76
  8
0
 10
4117.6098304170291158
 20
128.3799726464523019
 30
0.0
 40
0.1062992126
  0
CIRCLE
  5
6F77
  8
0
 10
4117.6098304170291158
 20
128.3799726464523019
 30
0.0
 40
0.0799606299
  0
CIRCLE
  5
6F78
  8
0
 10
4117.6098304170291158
 20
128.3799726464523019
 30
0.0
 40
0.0649606299
  0
CIRCLE
  5
6F79
  8
0
 10
4118.8873112302271693
 20
124.4482909785426017
 30
0.0
 40
0.157480315
  0
CIRCLE
  5
6F7A
  8
0
 10
4118.8873112302271693
 20
124.4482909785426017
 30
0.0
 40
0.1062992126
  0
CIRCLE
  5
6F7B
  8
0
 10
4118.8873112302271693
 20
124.4482909785426017
 30
0.0
 40
0.0799606299
  0
CIRCLE
  5
6F7C
  8
0
 10
4118.8873112302271693
 20
124.4482909785426017
 30
0.0
 40
0.0649606299
  0
CIRCLE
  5
6F7D
  8
0
 10
4122.2317994191980688
 20
122.0183780748154021
 30
0.0
 40
0.1574803150000001
  0
CIRCLE
  5
6F7E
  8
0
 10
4122.2317994191980688
 20
122.0183780748154021
 30
0.0
 40
0.1062992126
  0
CIRCLE
  5
6F7F
  8
0
 10
4122.2317994191980688
 20
122.0183780748154021
 30
0.0
 40
0.0799606299000001
  0
CIRCLE
  5
6F80
  8
0
 10
4122.2317994191980688
 20
122.0183780748154021
 30
0.0
 40
0.0649606299
  0
CIRCLE
  5
6F81
  8
0
 10
4126.3658141707282994
 20
122.0183780747925937
 30
0.0
 40
0.1574803150000001
  0
CIRCLE
  5
6F82
  8
0
 10
4126.3658141707282994
 20
122.0183780747925937
 30
0.0
 40
0.1062992126
  0
CIRCLE
  5
6F83
  8
0
 10
4126.3658141707282994
 20
122.0183780747925937
 30
0.0
 40
0.0799606299000001
  0
CIRCLE
  5
6F84
  8
0
 10
4126.3658141707282994
 20
122.0183780747925937
 30
0.0
 40
0.0649606299
  0
CIRCLE
  5
6F85
  8
0
 10
4129.7103023597246647
 20
124.4482909784829019
 30
0.0
 40
0.1574803150000001
  0
CIRCLE
  5
6F86
  8
0
 10
4129.7103023597246647
 20
124.4482909784829019
 30
0.0
 40
0.1062992126
  0
CIRCLE
  5
6F87
  8
0
 10
4129.7103023597246647
 20
124.4482909784829019
 30
0.0
 40
0.0799606299000001
  0
CIRCLE
  5
6F88
  8
0
 10
4129.7103023597246647
 20
124.4482909784829019
 30
0.0
 40
0.0649606299
  0
CIRCLE
  5
6F89
  8
0
 10
4130.987783172966374
 20
128.3799726463784907
 30
0.0
 40
0.1574803150000001
  0
CIRCLE
  5
6F8A
  8
0
 10
4130.987783172966374
 20
128.3799726463784907
 30
0.0
 40
0.1062992126
  0
CIRCLE
  5
6F8B
  8
0
 10
4130.987783172966374
 20
128.3799726463784907
 30
0.0
 40
0.0799606299000001
  0
CIRCLE
  5
6F8C
  8
0
 10
4130.987783172966374
 20
128.3799726463784907
 30
0.0
 40
0.0649606299
  0
CIRCLE
  5
6F8D
  8
0
 10
4129.71030235976923
 20
132.3116543142882051
 30
0.0
 40
0.1574803150000001
  0
CIRCLE
  5
6F8E
  8
0
 10
4129.71030235976923
 20
132.3116543142882051
 30
0.0
 40
0.1062992126000001
  0
CIRCLE
  5
6F8F
  8
0
 10
4129.71030235976923
 20
132.3116543142882051
 30
0.0
 40
0.0799606299000001
  0
CIRCLE
  5
6F90
  8
0
 10
4129.71030235976923
 20
132.3116543142882051
 30
0.0
 40
0.0649606299000001
  0
CIRCLE
  5
6F91
  8
0
 10
4124.1590152927983581
 20
128.2992639850153864
 30
0.0
 40
0.0196850393999997
  0
CIRCLE
  5
6F92
  8
0
 10
4124.1373894721982651
 20
128.3799726464154105
 30
0.0
 40
0.0196850393999997
  0
CIRCLE
  5
6F93
  8
0
 10
4124.1590152927983581
 20
128.4606813078154062
 30
0.0
 40
0.0196850393999997
  0
CIRCLE
  5
6F94
  8
0
 10
4124.2180981335977776
 20
128.5197641486153941
 30
0.0
 40
0.0196850393999997
  0
CIRCLE
  5
6F95
  8
0
 10
4124.2988067949981996
 20
128.5413899692154018
 30
0.0
 40
0.0196850393999997
  0
CIRCLE
  5
6F96
  8
0
 10
4124.2988067949981996
 20
128.5866655598154011
 30
0.0
 40
0.0196850393999997
  0
CIRCLE
  5
6F97
  8
0
 10
4124.3795154563968026
 20
128.5197641486153941
 30
0.0
 40
0.0196850393999997
  0
CIRCLE
  5
6F98
  8
0
 10
4124.3626784178977687
 20
128.5765492885153947
 30
0.0
 40
0.0196850393999997
  0
CIRCLE
  5
6F99
  8
0
 10
4124.4202978411967706
 20
128.5471907259154136
 30
0.0
 40
0.0196850393999997
  0
CIRCLE
  5
6F9A
  8
0
 10
4124.4660248744976343
 20
128.5014636926154026
 30
0.0
 40
0.0196850393999997
  0
CIRCLE
  5
6F9B
  8
0
 10
4124.4385982971980411
 20
128.4606813078154062
 30
0.0
 40
0.0196850393999997
  0
CIRCLE
  5
6F9C
  8
0
 10
4124.4953834370980985
 20
128.4438442693154059
 30
0.0
 40
0.0196850393999997
  0
CIRCLE
  5
6F9D
  8
0
 10
4124.4602241177981341
 20
128.3799726464154105
 30
0.0
 40
0.0196850393999997
  0
CIRCLE
  5
6F9E
  8
0
 10
4124.5054997083980197
 20
128.3799726464154105
 30
0.0
 40
0.0196850393999997
  0
CIRCLE
  5
6F9F
  8
0
 10
4124.4953834370980985
 20
128.3161010235153867
 30
0.0
 40
0.0196850393999997
  0
CIRCLE
  5
6FA0
  8
0
 10
4124.4385982971980411
 20
128.2992639850153864
 30
0.0
 40
0.0196850393999997
  0
CIRCLE
  5
6FA1
  8
0
 10
4124.4660248744976343
 20
128.25848160021539
 30
0.0
 40
0.0196850393999997
  0
CIRCLE
  5
6FA2
  8
0
 10
4124.3795154563968026
 20
128.2401811442153985
 30
0.0
 40
0.0196850393999997
  0
CIRCLE
  5
6FA3
  8
0
 10
4124.4202978411967706
 20
128.2127545669154074
 30
0.0
 40
0.0196850393999997
  0
CIRCLE
  5
6FA4
  8
0
 10
4124.3626784178977687
 20
128.1833960043153979
 30
0.0
 40
0.0196850393999997
  0
CIRCLE
  5
6FA5
  8
0
 10
4124.2988067949981996
 20
128.2185553236153908
 30
0.0
 40
0.0196850393999997
  0
CIRCLE
  5
6FA6
  8
0
 10
4124.2988067949981996
 20
128.1732797330153915
 30
0.0
 40
0.0196850393999997
  0
CIRCLE
  5
6FA7
  8
0
 10
4124.2349351720968116
 20
128.1833960043153979
 30
0.0
 40
0.0196850393999997
  0
CIRCLE
  5
6FA8
  8
0
 10
4124.2180981335977776
 20
128.2401811442153985
 30
0.0
 40
0.0196850393999997
  0
CIRCLE
  5
6FA9
  8
0
 10
4124.1773157487978096
 20
128.2127545669154074
 30
0.0
 40
0.0196850393999997
  0
CIRCLE
  5
6FAA
  8
0
 10
4124.1315887154978554
 20
128.25848160021539
 30
0.0
 40
0.0196850393999997
  0
CIRCLE
  5
6FAB
  8
0
 10
4124.1022301528992102
 20
128.3161010235153867
 30
0.0
 40
0.0196850393999997
  0
CIRCLE
  5
6FAC
  8
0
 10
4124.0921138815983795
 20
128.3799726464154105
 30
0.0
 40
0.0196850393999997
  0
CIRCLE
  5
6FAD
  8
0
 10
4124.1022301528992102
 20
128.4438442693154059
 30
0.0
 40
0.0196850393999997
  0
CIRCLE
  5
6FAE
  8
0
 10
4124.1315887154978554
 20
128.5014636926154026
 30
0.0
 40
0.0196850393999997
  0
CIRCLE
  5
6FAF
  8
0
 10
4124.1773157487978096
 20
128.5471907259154136
 30
0.0
 40
0.0196850393999997
  0
CIRCLE
  5
6FB0
  8
0
 10
4124.2349351720968116
 20
128.5765492885153947
 30
0.0
 40
0.0196850393999997
  0
LINE
  5
6FB1
  8
0
 10
4124.094945425381411
 20
129.0689490244153887
 30
0.0
 11
4124.5026681646149882
 21
129.0689490244153887
 31
0.0
  0
LINE
  5
6FB2
  8
0
 10
4124.094945425381411
 20
127.6909962684154038
 30
0.0
 11
4124.5026681646149882
 21
127.6909962684154038
 31
0.0
  0
CIRCLE
  5
6FB3
  8
0
 10
4124.2988067949981996
 20
128.3799726464154105
 30
0.0
 40
0.7185039370000004
  0
CIRCLE
  5
6FB4
  8
0
 10
4124.2988067949981996
 20
128.3799726464154105
 30
0.0
 40
0.5039370079000002
  0
CIRCLE
  5
6FB5
  8
0
 10
4124.2988067949981996
 20
128.3799726464154105
 30
0.0
 40
0.4760629886000005
  0
CIRCLE
  5
6FB6
  8
0
 10
4124.2988067949981996
 20
128.3799726464154105
 30
0.0
 40
0.2440944882000005
  0
CIRCLE
  5
6FB7
  8
0
 10
4124.2988098139476278
 20
128.3799727281154048
 30
0.0
 40
0.2933040665447097
  0
ENDSEC
  0
EOF
