  0
SECTION
  2
HEADER
  9
$ACADVER
  1
AC1009
  9
$INSBASE
 10
4106.615148346811111
 20
127.1589311702402938
 30
0.0
  9
$EXTMIN
 10
4099.5783888506575749
 20
124.6554758429189036
 30
-0.0000000000000058
  9
$EXTMAX
 10
4113.7023066335195836
 20
127.1682606027012952
 30
0.0000000000000104
  9
$LIMMIN
 10
0.0
 20
0.0
  9
$LIMMAX
 10
11.6929133858000007
 20
8.2677165353999982
  9
$ORTHOMODE
 70
     0
  9
$REGENMODE
 70
     1
  9
$FILLMODE
 70
     1
  9
$QTEXTMODE
 70
     0
  9
$MIRRTEXT
 70
     0
  9
$DRAGMODE
 70
     2
  9
$LTSCALE
 40
0.6431102362
  9
$OSMODE
 70
  4095
  9
$ATTMODE
 70
     1
  9
$TEXTSIZE
 40
0.2
  9
$TRACEWID
 40
0.05
  9
$TEXTSTYLE
  7
STANDARD
  9
$CLAYER
  8
0
  9
$CELTYPE
  6
BYLAYER
  9
$CECOLOR
 62
   256
  9
$DIMSCALE
 40
1.0
  9
$DIMASZ
 40
0.1875
  9
$DIMEXO
 40
0.0625
  9
$DIMDLI
 40
0.4443307087
  9
$DIMRND
 40
0.0
  9
$DIMDLE
 40
0.0
  9
$DIMEXE
 40
0.125
  9
$DIMTP
 40
0.01
  9
$DIMTM
 40
0.01
  9
$DIMTXT
 40
2.0
  9
$DIMCEN
 40
0.1052362205
  9
$DIMTSZ
 40
0.0
  9
$DIMTOL
 70
     1
  9
$DIMLIM
 70
     0
  9
$DIMTIH
 70
     1
  9
$DIMTOH
 70
     1
  9
$DIMSE1
 70
     0
  9
$DIMSE2
 70
     0
  9
$DIMTAD
 70
     0
  9
$DIMZIN
 70
     0
  9
$DIMBLK
  1

  9
$DIMASO
 70
     1
  9
$DIMSHO
 70
     1
  9
$DIMPOST
  1
\X
  9
$DIMAPOST
  1

  9
$DIMALT
 70
     1
  9
$DIMALTD
 70
     2
  9
$DIMALTF
 40
25.3999999999999986
  9
$DIMLFAC
 40
1.0
  9
$DIMTOFL
 70
     0
  9
$DIMTVP
 40
0.0
  9
$DIMTIX
 70
     0
  9
$DIMSOXD
 70
     0
  9
$DIMSAH
 70
     0
  9
$DIMBLK1
  1

  9
$DIMBLK2
  1

  9
$DIMSTYLE
  2
STANDARD
  9
$DIMCLRD
 70
     0
  9
$DIMCLRE
 70
     0
  9
$DIMCLRT
 70
     0
  9
$DIMTFAC
 40
1.0
  9
$DIMGAP
 40
0.09
  9
$LUNITS
 70
     2
  9
$LUPREC
 70
     4
  9
$SKETCHINC
 40
0.1
  9
$FILLETRAD
 40
0.0
  9
$AUNITS
 70
     0
  9
$AUPREC
 70
     0
  9
$MENU
  1
.
  9
$ELEVATION
 40
0.0
  9
$PELEVATION
 40
0.0
  9
$THICKNESS
 40
0.0
  9
$LIMCHECK
 70
     0
  9
$BLIPMODE
 70
     0
  9
$CHAMFERA
 40
0.0
  9
$CHAMFERB
 40
0.0
  9
$SKPOLY
 70
     0
  9
$TDCREATE
 40
2458060.468368056230247
  9
$TDUPDATE
 40
2459066.6524652778171003
  9
$TDINDWG
 40
0.3057709491
  9
$TDUSRTIMER
 40
0.3057709491
  9
$USRTIMER
 70
     1
  9
$ANGBASE
 50
0.0
  9
$ANGDIR
 70
     0
  9
$PDMODE
 70
     0
  9
$PDSIZE
 40
0.3125
  9
$PLINEWID
 40
0.0
  9
$COORDS
 70
     1
  9
$SPLFRAME
 70
     0
  9
$SPLINETYPE
 70
     6
  9
$SPLINESEGS
 70
     8
  9
$ATTDIA
 70
     1
  9
$ATTREQ
 70
     1
  9
$HANDLING
 70
     1
  9
$HANDSEED
  5
7549
  9
$SURFTAB1
 70
     6
  9
$SURFTAB2
 70
     6
  9
$SURFTYPE
 70
     6
  9
$SURFU
 70
     6
  9
$SURFV
 70
     6
  9
$UCSNAME
  2

  9
$UCSORG
 10
0.0
 20
0.0
 30
0.0
  9
$UCSXDIR
 10
1.0
 20
0.0
 30
0.0
  9
$UCSYDIR
 10
0.0
 20
1.0
 30
0.0
  9
$PUCSNAME
  2

  9
$PUCSORG
 10
0.0
 20
0.0
 30
0.0
  9
$PUCSXDIR
 10
1.0
 20
0.0
 30
0.0
  9
$PUCSYDIR
 10
0.0
 20
1.0
 30
0.0
  9
$USERI1
 70
     0
  9
$USERI2
 70
     0
  9
$USERI3
 70
     0
  9
$USERI4
 70
     0
  9
$USERI5
 70
     0
  9
$USERR1
 40
0.0
  9
$USERR2
 40
0.0
  9
$USERR3
 40
0.0
  9
$USERR4
 40
0.0
  9
$USERR5
 40
0.0
  9
$WORLDVIEW
 70
     1
  9
$SHADEDGE
 70
     3
  9
$SHADEDIF
 70
    70
  9
$TILEMODE
 70
     1
  9
$MAXACTVP
 70
    64
  9
$PLIMCHECK
 70
     0
  9
$PEXTMIN
 10
1.0000000000000000E+20
 20
1.0000000000000000E+20
 30
1.0000000000000000E+20
  9
$PEXTMAX
 10
-1.0000000000000000E+20
 20
-1.0000000000000000E+20
 30
-1.0000000000000000E+20
  9
$PLIMMIN
 10
0.0
 20
0.0
  9
$PLIMMAX
 10
12.0
 20
9.0
  9
$UNITMODE
 70
     0
  9
$VISRETAIN
 70
     1
  9
$PLINEGEN
 70
     0
  9
$PSLTSCALE
 70
     1
  0
ENDSEC
  0
SECTION
  2
TABLES
  0
TABLE
  2
VPORT
 70
     1
  0
VPORT
  2
*ACTIVE
 70
     0
 10
0.0
 20
0.0
 11
1.0
 21
1.0
 12
31.0298741092765304
 22
-0.0538147605882955
 13
0.0
 23
0.0
 14
1.0
 24
1.0
 15
0.0
 25
0.0
 16
0.0
 26
0.0
 36
53.3788880271138382
 17
4075.6104736328129547
 27
125.9656829833983949
 37
0.0
 40
7.0655583933264676
 41
2.005224660397074
 42
50.0
 43
0.0
 44
0.0
 50
0.0
 51
0.0
 71
     0
 72
   100
 73
     1
 74
     1
 75
     0
 76
     0
 77
     0
 78
     0
  0
ENDTAB
  0
TABLE
  2
LTYPE
 70
     2
  0
LTYPE
  2
CONTINUOUS
 70
     0
  3
Solid line
 72
    65
 73
     0
 40
0.0
  0
LTYPE
  2
PHANTOM2
 70
     0
  3
___ _ _ ___ _ _ ___ _ _ ___ _ _
 72
    65
 73
     6
 40
1.25
 49
0.625
 49
-0.125
 49
0.125
 49
-0.125
 49
0.125
 49
-0.125
  0
ENDTAB
  0
TABLE
  2
LAYER
 70
     2
  0
LAYER
  2
0
 70
     0
 62
   255
  6
CONTINUOUS
  0
LAYER
  2
DEFPOINTS
 70
     0
 62
     7
  6
CONTINUOUS
  0
ENDTAB
  0
TABLE
  2
STYLE
 70
     1
  0
STYLE
  2
STANDARD
 70
     0
 40
0.0
 41
0.8
 50
0.0
 71
     0
 42
0.2
  3
txt
  4

  0
ENDTAB
  0
TABLE
  2
VIEW
 70
     0
  0
ENDTAB
  0
TABLE
  2
UCS
 70
     0
  0
ENDTAB
  0
TABLE
  2
APPID
 70
     9
  0
APPID
  2
ACAD
 70
     0
  0
APPID
  2
ACAD_MLEADERVER
 70
     0
  0
APPID
  2
ACAD_EXEMPT_FROM_CAD_STANDARDS
 70
     0
  0
APPID
  2
ACAD_NAV_VCDISPLAY
 70
     0
  0
APPID
  2
ACAECLAYERSTANDARD
 70
     0
  0
APPID
  2
ACCMTRANSPARENCY
 70
     0
  0
APPID
  2
ACAD_DSTYLE_DIMJAG
 70
     0
  0
APPID
  2
ACAD_DSTYLE_DIMTALN
 70
     0
  0
APPID
  2
ACDBATTR
 70
     0
  0
ENDTAB
  0
TABLE
  2
DIMSTYLE
 70
     1
  0
DIMSTYLE
  2
STANDARD
 70
     0
  3

  4

  5

  6

  7

 40
1.0
 41
0.1875
 42
0.0625
 43
0.38
 44
0.125
 45
0.0
 46
0.0
 47
0.01
 48
0.01
140
0.15625
141
0.09
142
0.0
143
25.3999999999999986
144
1.0
145
0.0
146
1.0
147
0.09
 71
     1
 72
     0
 73
     1
 74
     1
 75
     0
 76
     0
 77
     0
 78
     4
170
     0
171
     2
172
     0
173
     0
174
     0
175
     0
176
     0
177
     0
178
     0
  0
ENDTAB
  0
ENDSEC
  0
SECTION
  2
BLOCKS
  0
BLOCK
  8
0
  2
$MODEL_SPACE
 70
     0
 10
0.0
 20
0.0
 30
0.0
  3
$MODEL_SPACE
  1

  0
ENDBLK
  5
21
  8
0
  0
BLOCK
 67
     1
  8
0
  2
$PAPER_SPACE
 70
     0
 10
0.0
 20
0.0
 30
0.0
  3
$PAPER_SPACE
  1

  0
ENDBLK
  5
1D
 67
     1
  8
0
  0
BLOCK
  8
0
  2
15994T_CLFRT
 70
     2
 10
0.0
 20
0.0
 30
0.0
  3
15994T_CLFRT
  1

  0
ATTDEF
  5
7270
  8
DEFPOINTS
 10
-0.0057271375717392
 20
-0.0018081727093602
 30
0.0
 40
0.001
  1
K-15994T-CL
  3

  2
MODELNUMBER
 70
     0
1001
ACDBATTR
1070
     0
1070
     1
  0
ATTDEF
  5
7271
  8
DEFPOINTS
 10
-0.0057271375717392
 20
-0.0034748393760253
 30
0.0
 40
0.001
  1

  3

  2
TRADENAME
 70
     0
1001
ACDBATTR
1070
     0
1070
     1
  0
ATTDEF
  5
7272
  8
DEFPOINTS
 10
-0.0057271375717392
 20
-0.0051415060426905
 30
0.0
 40
0.001
  1
SHOWERHEAD
  3

  2
PRODUCT
 70
     0
1001
ACDBATTR
1070
     0
1070
     1
  0
LINE
  5
7273
  8
0
 10
-7.007874015700053
 20
-2.4110236221000032
 30
0.0
 11
-7.007874015700053
 21
-2.007874015800013
 31
0.0
  0
LINE
  5
7274
  8
0
 10
-5.6762007939000787
 20
-2.4913864342000092
 30
0.0
 11
-5.6811692384999333
 21
-2.440944881900009
 31
0.0
  0
LINE
  5
7275
  8
0
 10
-5.8613306347915559
 20
-2.4891682027054571
 30
0.0
 11
-5.8660276314999464
 21
-2.440944881900009
 31
0.0
  0
LINE
  5
7276
  8
0
 10
-5.9730104305008354
 20
-2.4912920464936259
 30
0.0
 11
-5.9778808429000492
 21
-2.440944881900009
 31
0.0
  0
LINE
  5
7277
  8
0
 10
-6.0153222016001564
 20
-2.440944881900009
 30
0.0
 11
-6.0104641346970311
 21
-2.4912801340333171
 31
0.0
  0
LINE
  5
7278
  8
0
 10
-5.0974643245999678
 20
-2.4915703983000119
 30
0.0
 11
-5.1026249258002281
 21
-2.440944881900009
 31
0.0
  0
LINE
  5
7279
  8
0
 10
-5.4205772953000633
 20
-2.4914677028000081
 30
0.0
 11
-5.4256304497998817
 21
-2.440944881900009
 31
0.0
  0
LINE
  5
727A
  8
0
 10
-5.5685485691001304
 20
-2.4949347734000038
 30
0.0
 11
-5.559609502499824
 21
-2.440944881900009
 31
0.0
  0
LINE
  5
727B
  8
0
 10
-5.7534719172008399
 20
-2.494992545906185
 30
0.0
 11
-5.7444634084999961
 21
-2.440944881900009
 31
0.0
  0
LINE
  5
727C
  8
0
 10
-5.8652356001475701
 20
-2.4942576841718842
 30
0.0
 11
-5.8624539264001214
 21
-2.4776355458000121
 31
0.0
  0
LINE
  5
727D
  8
0
 10
-5.2093298093000149
 20
-2.4922412309000062
 30
0.0
 11
-5.2152819098000691
 21
-2.440944881900009
 31
0.0
  0
LINE
  5
727E
  8
0
 10
-5.2735884638000243
 20
-2.4922296136000019
 30
0.0
 11
-5.279528031100198
 21
-2.440944881900009
 31
0.0
  0
LINE
  5
727F
  8
0
 10
-4.7109250977000547
 20
-2.4916932080000151
 30
0.0
 11
-4.716214782500173
 21
-2.440944881900009
 31
0.0
  0
LINE
  5
7280
  8
0
 10
-4.9527037474999807
 20
-2.4940706100000081
 30
0.0
 11
-4.9447028431000026
 21
-2.440944881900009
 31
0.0
  0
LINE
  5
7281
  8
0
 10
-5.1016157653002656
 20
-2.4940972863015669
 30
0.0
 11
-5.098982855916347
 21
-2.4766736006070138
 31
0.0
  0
LINE
  5
7282
  8
0
 10
-4.9898008894001569
 20
-2.4947538188000058
 30
0.0
 11
-4.9810782952999944
 21
-2.440944881900009
 31
0.0
  0
LINE
  5
7283
  8
0
 10
-5.312919969399899
 20
-2.4948548742000152
 30
0.0
 11
-5.3040766775998227
 21
-2.440944881900009
 31
0.0
  0
LINE
  5
7284
  8
0
 10
-4.8293001863999052
 20
-2.4923099249000131
 30
0.0
 11
-4.8353265176001514
 21
-2.440944881900009
 31
0.0
  0
LINE
  5
7285
  8
0
 10
-4.2658204396002466
 20
-2.4918345621000091
 30
0.0
 11
-4.2712595010998484
 21
-2.440944881900009
 31
0.0
  0
LINE
  5
7286
  8
0
 10
-4.5763308334999229
 20
-2.4940031673000069
 30
0.0
 11
-4.5684081680001318
 21
-2.440944881900009
 31
0.0
  0
LINE
  5
7287
  8
0
 10
-4.7215839127998152
 20
-2.4940291985000149
 30
0.0
 11
-4.7151547132139049
 21
-2.451115004291565
 31
0.0
  0
LINE
  5
7288
  8
0
 10
-4.8472136321001917
 20
-2.4940517098000039
 30
0.0
 11
-4.839234674800081
 21
-2.440944881900009
 31
0.0
  0
LINE
  5
7289
  8
0
 10
-4.6032548510002007
 20
-2.4946328379000131
 30
0.0
 11
-4.5946761137001877
 21
-2.440944881900009
 31
0.0
  0
LINE
  5
728A
  8
0
 10
-4.5334838387002492
 20
-2.4932664548000072
 30
0.0
 11
-4.5411428459001391
 21
-2.440944881900009
 31
0.0
  0
LINE
  5
728B
  8
0
 10
-4.1369082894998419
 20
-2.4924350320000168
 30
0.0
 11
-4.1430703434998568
 21
-2.440944881900009
 31
0.0
  0
LINE
  5
728C
  8
0
 10
-4.5197692384999746
 20
-2.4923658615000051
 30
0.0
 11
-4.5258561676000681
 21
-2.440944881900009
 31
0.0
  0
LINE
  5
728D
  8
0
 10
-3.7677476627000028
 20
-2.4919926545000091
 30
0.0
 11
-3.773354809799911
 21
-2.440944881900009
 31
0.0
  0
LINE
  5
728E
  8
0
 10
-4.325580257299861
 20
-2.4932664548000072
 30
0.0
 11
-4.3179212500999711
 21
-2.440944881900009
 31
0.0
  0
LINE
  5
728F
  8
0
 10
-4.0291883922000116
 20
-2.493905076800004
 30
0.0
 11
-4.0213791424998808
 21
-2.440944881900009
 31
0.0
  0
LINE
  5
7290
  8
0
 10
-4.4120512750000671
 20
-2.4939737215000122
 30
0.0
 11
-4.4041627026999768
 21
-2.440944881900009
 31
0.0
  0
LINE
  5
7291
  8
0
 10
-4.1581430204000753
 20
-2.494493409700012
 30
0.0
 11
-4.149729214800117
 21
-2.440944881900009
 31
0.0
  0
LINE
  5
7292
  8
0
 10
-3.9442139691000189
 20
-2.4932664548000072
 30
0.0
 11
-3.9518729762999101
 21
-2.440944881900009
 31
0.0
  0
LINE
  5
7293
  8
0
 10
-3.8138631862002512
 20
-2.4931794203000091
 30
0.0
 11
-3.8208530356000661
 21
-2.4414027577000041
 31
0.0
  0
LINE
  5
7294
  8
0
 10
-3.7835899603001049
 20
-2.4931794203000091
 30
0.0
 11
-3.7906416229998281
 21
-2.440944881900009
 31
0.0
  0
LINE
  5
7295
  8
0
 10
-3.5792819091998349
 20
-2.493824377000009
 30
0.0
 11
-3.5715656336001298
 21
-2.440944881900009
 31
0.0
  0
LINE
  5
7296
  8
0
 10
-3.836376469600054
 20
-2.4932664548000072
 30
0.0
 11
-3.8287174624001632
 21
-2.440944881900009
 31
0.0
  0
LINE
  5
7297
  8
0
 10
-3.660063069600255
 20
-2.4943372436000142
 30
0.0
 11
-3.6518329066998372
 21
-2.440944881900009
 31
0.0
  0
LINE
  5
7298
  8
0
 10
-3.5660042674999199
 20
-2.4932664548000072
 30
0.0
 11
-3.5726127983002689
 21
-2.4481210828000139
 31
0.0
  0
LINE
  5
7299
  8
0
 10
-3.3682409689999981
 20
-2.4931794203000091
 30
0.0
 11
-3.3752926317001761
 21
-2.440944881900009
 31
0.0
  0
LINE
  5
729A
  8
0
 10
-3.222970185000122
 20
-2.492165466500011
 30
0.0
 11
-3.2287618727000331
 21
-2.4409487188000152
 31
0.0
  0
LINE
  5
729B
  8
0
 10
-3.4070262711998112
 20
-2.4931794203000091
 30
0.0
 11
-3.399974608500087
 21
-2.440944881900009
 31
0.0
  0
LINE
  5
729C
  8
0
 10
-3.2604939007001121
 20
-2.4931794203000091
 30
0.0
 11
-3.2534422379999342
 21
-2.440944881900009
 31
0.0
  0
LINE
  5
729D
  8
0
 10
-3.0697193280998358
 20
-2.493732932200003
 30
0.0
 11
-3.0621080424998581
 21
-2.440944881900009
 31
0.0
  0
LINE
  5
729E
  8
0
 10
-3.4581667678999111
 20
-2.4932664548000072
 30
0.0
 11
-3.4505077607000199
 21
-2.440944881900009
 31
0.0
  0
LINE
  5
729F
  8
0
 10
-3.0015028793000051
 20
-2.4932664548000072
 30
0.0
 11
-2.9938438721001139
 21
-2.440944881900009
 31
0.0
  0
LINE
  5
72A0
  8
0
 10
-3.1152787762998742
 20
-2.4941662619000051
 30
0.0
 11
-3.1072483667999218
 21
-2.440944881900009
 31
0.0
  0
LINE
  5
72A1
  8
0
 10
-2.9965148618998678
 20
-2.4931794203000091
 30
0.0
 11
-2.998901863079936
 21
-2.4754979299484878
 31
0.0
  0
LINE
  5
72A2
  8
0
 10
-2.7887042316001489
 20
-2.4931794203000091
 30
0.0
 11
-2.795755894299873
 21
-2.440944881900009
 31
0.0
  0
LINE
  5
72A3
  8
0
 10
-2.888767793499937
 20
-2.4931794203000091
 30
0.0
 11
-2.8817161309002581
 21
-2.440944881900009
 31
0.0
  0
LINE
  5
72A4
  8
0
 10
-2.6809571632998082
 20
-2.4931794203000091
 30
0.0
 11
-2.6739055006000849
 21
-2.440944881900009
 31
0.0
  0
LINE
  5
72A5
  8
0
 10
-2.6665669768999569
 20
-2.4931794203000091
 30
0.0
 11
-2.659559733100195
 21
-2.4412739105000152
 31
0.0
  0
LINE
  5
72A6
  8
0
 10
-2.5088677018002268
 20
-2.4936322295000082
 30
0.0
 11
-2.5013715904001401
 21
-2.440944881900009
 31
0.0
  0
LINE
  5
72A7
  8
0
 10
-2.7951470973998762
 20
-2.4936836389000092
 30
0.0
 11
-2.791795101400111
 21
-2.4702840884000059
 31
0.0
  0
LINE
  5
72A8
  8
0
 10
-2.5306412467998589
 20
-2.4939825777000091
 30
0.0
 11
-2.5228239120001481
 21
-2.440944881900009
 31
0.0
  0
LINE
  5
72A9
  8
0
 10
-2.201479899099922
 20
-2.4931794203000091
 30
0.0
 11
-2.2085315618001
 21
-2.440944881900009
 31
0.0
  0
LINE
  5
72AA
  8
0
 10
-2.6383387705000132
 20
-2.4923507929000119
 30
0.0
 11
-2.6443307078002358
 21
-2.440944881900009
 31
0.0
  0
LINE
  5
72AB
  8
0
 10
-2.4224627728999621
 20
-2.493179420298147
 30
0.0
 11
-2.415411110200238
 21
-2.440944881900009
 31
0.0
  0
LINE
  5
72AC
  8
0
 10
-2.319323603599968
 20
-2.4931794203000091
 30
0.0
 11
-2.3122719409002448
 21
-2.440944881900009
 31
0.0
  0
LINE
  5
72AD
  8
0
 10
-2.2467619979001929
 20
-2.4931794203000091
 30
0.0
 11
-2.2397103352000149
 21
-2.440944881900009
 31
0.0
  0
LINE
  5
72AE
  8
0
 10
-2.0937328308009451
 20
-2.493179420308266
 30
0.0
 11
-2.086681168099858
 21
-2.440944881900009
 31
0.0
  0
LINE
  5
72AF
  8
0
 10
-2.4765859204999279
 20
-2.4932664548000072
 30
0.0
 11
-2.4689269133000371
 21
-2.440944881900009
 31
0.0
  0
LINE
  5
72B0
  8
0
 10
-2.0518691508000302
 20
-2.4931794203000091
 30
0.0
 11
-2.0589208135002082
 21
-2.440944881900009
 31
0.0
  0
LINE
  5
72B1
  8
0
 10
-1.6869162687999051
 20
-2.4931794203000091
 30
0.0
 11
-1.6939679315000831
 21
-2.440944881900009
 31
0.0
  0
LINE
  5
72B2
  8
0
 10
-1.6994899160999919
 20
-2.4928749112000039
 30
0.0
 11
-1.7061304937001289
 21
-2.4409774825000019
 31
0.0
  0
LINE
  5
72B3
  8
0
 10
-2.0212053834998178
 20
-2.4925462717000069
 30
0.0
 11
-2.0274097141000311
 21
-2.440944881900009
 31
0.0
  0
LINE
  5
72B4
  8
0
 10
-1.876566265800192
 20
-2.4931794203000091
 30
0.0
 11
-1.869514603100014
 21
-2.440944881900009
 31
0.0
  0
LINE
  5
72B5
  8
0
 10
-1.838688029699824
 20
-2.4931794203000091
 30
0.0
 11
-1.831636367100145
 21
-2.440944881900009
 31
0.0
  0
LINE
  5
72B6
  8
0
 10
-1.749879413599956
 20
-2.4931794203000091
 30
0.0
 11
-1.7428277509002319
 21
-2.440944881900009
 31
0.0
  0
LINE
  5
72B7
  8
0
 10
-1.905936244700114
 20
-2.493523909400011
 30
0.0
 11
-1.8985635003000421
 21
-2.440944881900009
 31
0.0
  0
LINE
  5
72B8
  8
0
 10
-1.9135027522002011
 20
-2.49378847070001
 30
0.0
 11
-1.9059088847002379
 21
-2.440944881900009
 31
0.0
  0
LINE
  5
72B9
  8
0
 10
-1.895141668900123
 20
-2.4932664548000072
 30
0.0
 11
-1.8874565394999081
 21
-2.440766431500009
 31
0.0
  0
LINE
  5
72BA
  8
0
 10
-6.0029013370894972
 20
-2.4983929137009682
 30
0.0
 11
-5.9108594745894152
 21
-2.501607086399801
 31
0.0
  0
LINE
  5
72BB
  8
0
 10
-1.623090952799884
 20
-2.4931794203000091
 30
0.0
 11
-1.630142615500062
 21
-2.440944881900009
 31
0.0
  0
LINE
  5
72BC
  8
0
 10
-1.593491768900094
 20
-2.489769130500008
 30
0.0
 11
-1.600083042500045
 21
-2.440944881900009
 31
0.0
  0
LINE
  5
72BD
  8
0
 10
-1.379330739100169
 20
-2.4927494152000089
 30
0.0
 11
-1.38575757719991
 21
-2.440944881900009
 31
0.0
  0
LINE
  5
72BE
  8
0
 10
-1.4848239223001649
 20
-2.489769130500008
 30
0.0
 11
-1.478232648800258
 21
-2.440944881900009
 31
0.0
  0
LINE
  5
72BF
  8
0
 10
-1.2631515164998739
 20
-2.4931794203000091
 30
0.0
 11
-1.2560998538001511
 21
-2.440944881900009
 31
0.0
  0
LINE
  5
72C0
  8
0
 10
-1.24575463129986
 20
-2.4931794203000091
 30
0.0
 11
-1.2387029686001361
 21
-2.440944881900009
 31
0.0
  0
LINE
  5
72C1
  8
0
 10
-1.179974834500171
 20
-2.489769130500008
 30
0.0
 11
-1.173383560900219
 21
-2.440944881900009
 31
0.0
  0
LINE
  5
72C2
  8
0
 10
-1.2716242644000879
 20
-2.4935863594000121
 30
0.0
 11
-1.2642612371000721
 21
-2.440944881900009
 31
0.0
  0
LINE
  5
72C3
  8
0
 10
-6.9779527558998771
 20
-2.440944881900009
 30
0.0
 11
6.9779527558998771
 21
-2.440944881900009
 31
0.0
  0
LINE
  5
72C4
  8
0
 10
-5.265889394399891
 20
-2.499196020900015
 30
0.0
 11
-5.1748914426002548
 21
-2.5007787834000079
 31
0.0
  0
LINE
  5
72C5
  8
0
 10
-1.054880900800071
 20
-2.4931794203000091
 30
0.0
 11
-1.061932563500249
 21
-2.440944881900009
 31
0.0
  0
LINE
  5
72C6
  8
0
 10
-0.8829460893998657
 20
-2.4931794203000091
 30
0.0
 11
-0.8899977521000437
 21
-2.440944881900009
 31
0.0
  0
LINE
  5
72C7
  8
0
 10
-0.9471338325001852
 20
-2.4931794203000091
 30
0.0
 11
-0.9400821698000073
 21
-2.440944881900009
 31
0.0
  0
LINE
  5
72C8
  8
0
 10
-0.7751990210999793
 20
-2.4931794203000091
 30
0.0
 11
-0.7681473584002561
 21
-2.440944881900009
 31
0.0
  0
LINE
  5
72C9
  8
0
 10
-0.613077851900016
 20
-2.4933787725000078
 30
0.0
 11
-0.6059499763000531
 21
-2.440944881900009
 31
0.0
  0
LINE
  5
72CA
  8
0
 10
-0.9444450846999644
 20
-2.4933510430000041
 30
0.0
 11
-0.937233454500074
 21
-2.440691822500014
 31
0.0
  0
LINE
  5
72CB
  8
0
 10
7.007874015700053
 20
-2.007874015800013
 30
0.0
 11
-7.007874015700053
 21
-2.007874015800013
 31
0.0
  0
LINE
  5
72CC
  8
0
 10
-0.4228455328002383
 20
-2.4931794203000091
 30
0.0
 11
-0.4298971954999616
 21
-2.440944881900009
 31
0.0
  0
LINE
  5
72CD
  8
0
 10
-0.7207867127999635
 20
-2.492957643100012
 30
0.0
 11
-0.7274435294002615
 21
-2.440944881900009
 31
0.0
  0
LINE
  5
72CE
  8
0
 10
-0.2807364282002709
 20
-2.4932316246000141
 30
0.0
 11
-0.2736607309998362
 21
-2.4406986062000149
 31
0.0
  0
LINE
  5
72CF
  8
0
 10
-0.3150984644998971
 20
-2.4931794203000091
 30
0.0
 11
-0.3080468018001738
 21
-2.440944881900009
 31
0.0
  0
LINE
  5
72D0
  8
0
 10
-0.2899798830999316
 20
-2.4931794203000091
 30
0.0
 11
-0.2829282204002084
 21
-2.440944881900009
 31
0.0
  0
LINE
  5
72D1
  8
0
 10
-0.2835090614998989
 20
-2.4931794203000091
 30
0.0
 11
-0.2764573989002201
 21
-2.440944881900009
 31
0.0
  0
LINE
  5
72D2
  8
0
 10
-0.053918749800232
 20
-2.4932664548000072
 30
0.0
 11
-0.0615777570001228
 21
-2.440944881900009
 31
0.0
  0
LINE
  5
72D3
  8
0
 10
7.007874015700053
 20
-2.4110236221000032
 30
0.0
 11
7.007874015700053
 21
-2.007874015800013
 31
0.0
  0
ARC
  5
72D4
  8
0
 10
-6.9779527558998771
 20
-2.4110236221000032
 30
0.0
 40
0.0299212598
 50
180.0
 51
270.0
  0
ARC
  5
72D5
  8
0
 10
-5.9105846754000586
 20
-2.4937378673000121
 30
0.0
 40
0.0078740157
 50
267.9999999783053113
 51
301.6631786810174845
  0
ARC
  5
72D6
  8
0
 10
-6.0026265379001407
 20
-2.490523694600014
 30
0.0
 40
0.0078740157
 50
185.5127818179392136
 51
267.9999999783314024
  0
ARC
  5
72D7
  8
0
 10
6.9779527558998771
 20
-2.4110236221000032
 30
0.0
 40
0.0299212598
 50
270.0
 51
0.0
  0
ARC
  5
72D8
  8
0
 10
-5.9652050504278122
 20
-2.4905524086755539
 30
0.0
 40
0.0078403457949986
 50
185.4131842136750947
 51
270.2483803860719149
  0
ARC
  5
72D9
  8
0
 10
-5.8734894089107001
 20
-2.4932721126555171
 30
0.0
 40
0.0083124431014178
 50
268.7063212699582095
 51
353.1906616007041748
  0
LINE
  5
72DA
  8
0
 10
-5.8736770792283997
 20
-2.501582436967325
 30
0.0
 11
-5.9651710621997154
 21
-2.498392680800023
 31
0.0
  0
LINE
  5
72DB
  8
0
 10
-5.7615078522012482
 20
-2.5015676885442408
 30
0.0
 11
-5.8524186307026858
 21
-2.498392680799923
 31
0.0
  0
LINE
  5
72DC
  8
0
 10
-5.6679994712435473
 20
-2.4986056101206908
 30
0.0
 11
-5.576576878992455
 21
-2.5015172892466921
 31
0.0
  0
LINE
  5
72DD
  8
0
 10
-5.4142136950890736
 20
-2.4984496140094441
 30
0.0
 11
-5.3209375933956826
 21
-2.5014483480239269
 31
0.0
  0
LINE
  5
72DE
  8
0
 10
-5.2010715395999787
 20
-2.499196020900015
 30
0.0
 11
-5.1101209344997178
 21
-2.5008039782000249
 31
0.0
  0
LINE
  5
72DF
  8
0
 10
-5.089863367396446
 20
-2.49864178936265
 30
0.0
 11
-4.9978061107854037
 21
-2.50136095192937
 31
0.0
  0
LINE
  5
72E0
  8
0
 10
-4.9607787644999908
 20
-2.5007868276000091
 30
0.0
 11
-4.9943274227393877
 21
-2.5004463849388681
 31
0.0
  0
LINE
  5
72E1
  8
0
 10
-4.9560222792415507
 20
-2.4991547058773298
 30
0.0
 11
-4.8578348021001139
 21
-2.5008050620000111
 31
0.0
  0
LINE
  5
72E2
  8
0
 10
-4.8208264682089057
 20
-2.4993420361691392
 30
0.0
 11
-4.7294965634514483
 21
-2.50073455867006
 31
0.0
  0
LINE
  5
72E3
  8
0
 10
-4.7040185943506003
 20
-2.4987798206122269
 30
0.0
 11
-4.6104873943118028
 21
-2.5013255071470861
 31
0.0
  0
LINE
  5
72E4
  8
0
 10
-4.5834748812144417
 20
-2.5007017290951401
 30
0.0
 11
-4.6078598303201943
 21
-2.5006833571585498
 31
0.0
  0
LINE
  5
72E5
  8
0
 10
-4.5256920237002296
 20
-2.5000000000000142
 30
0.0
 11
-4.4683791920706417
 21
-2.5000000000000142
 31
0.0
  0
LINE
  5
72E6
  8
0
 10
-4.5116920533214389
 20
-2.4993845176790042
 30
0.0
 11
-4.419957259743569
 21
-2.500688082995111
 31
0.0
  0
LINE
  5
72E7
  8
0
 10
-4.3333712425001059
 20
-2.5000000000000142
 30
0.0
 11
-4.4167377407134154
 21
-2.5000000000000142
 31
0.0
  0
LINE
  5
72E8
  8
0
 10
-4.2577618456184601
 20
-2.4990962807425912
 30
0.0
 11
-4.1661156928753371
 21
-2.5011364496546089
 31
0.0
  0
LINE
  5
72E9
  8
0
 10
-4.129100022063084
 20
-2.4994380354415
 30
0.0
 11
-4.0363939183625908
 21
-2.4994380354415
 31
0.0
  0
LINE
  5
72EA
  8
0
 10
-4.135474389800037
 20
-2.5000000000000142
 30
0.0
 11
-4.1620968339934734
 21
-2.5000000000000142
 31
0.0
  0
LINE
  5
72EB
  8
0
 10
-3.9364229839002292
 20
-2.5000000000000142
 30
0.0
 11
-3.8441687350000389
 21
-2.5000000000000142
 31
0.0
  0
LINE
  5
72EC
  8
0
 10
-3.8217574882146428
 20
-2.50072502281219
 30
0.0
 11
-3.8698263624150959
 21
-2.50072502281219
 31
0.0
  0
LINE
  5
72ED
  8
0
 10
-3.8060599563000319
 20
-2.5000000000000142
 30
0.0
 11
-3.7565643614002511
 21
-2.5000000000000142
 31
0.0
  0
LINE
  5
72EE
  8
0
 10
-3.7598025928759848
 20
-2.4991453849470271
 30
0.0
 11
-3.6680161963822679
 21
-2.5010022592063299
 31
0.0
  0
LINE
  5
72EF
  8
0
 10
-3.6645628660312459
 20
-2.500121764467067
 30
0.0
 11
-3.5860423445906231
 21
-2.5005160304867351
 31
0.0
  0
LINE
  5
72F0
  8
0
 10
-3.5587780946002558
 20
-2.5000000000000142
 30
0.0
 11
-3.4659577532001999
 21
-2.5000000000000142
 31
0.0
  0
LINE
  5
72F1
  8
0
 10
-3.4139580123173801
 20
-2.5001582009152079
 30
0.0
 11
-3.4633597683041439
 21
-2.4995686009849152
 31
0.0
  0
LINE
  5
72F2
  8
0
 10
-3.3604377391998241
 20
-2.5000000000000142
 30
0.0
 11
-3.2682971305998758
 21
-2.5000000000000142
 31
0.0
  0
LINE
  5
72F3
  8
0
 10
-3.4114028078538459
 20
-2.499599439615479
 30
0.0
 11
-3.368411973397087
 21
-2.50076118341316
 31
0.0
  0
LINE
  5
72F4
  8
0
 10
-3.2152922629134082
 20
-2.4991449712043732
 30
0.0
 11
-3.123210644929713
 21
-2.500856077922847
 31
0.0
  0
ARC
  5
72F5
  8
0
 10
-5.8523204850534958
 20
-2.4893805632498811
 30
0.0
 40
0.009012651957403
 50
178.6498436710976989
 51
269.376050173277406
  0
ARC
  5
72F6
  8
0
 10
-5.7611201225322466
 20
-2.4938433533629758
 30
0.0
 40
0.0077340602719575
 50
267.1264007554555064
 51
351.4548621105755046
  0
ARC
  5
72F7
  8
0
 10
-5.6692986833900241
 20
-2.4918134444120308
 30
0.0
 40
0.0069153067332389
 50
176.4598161388205142
 51
280.8287881996388933
  0
ARC
  5
72F8
  8
0
 10
-5.5769798090950644
 20
-2.4928387708261819
 30
0.0
 40
0.0086878670939893
 50
272.6582449242783923
 51
346.0393005906012718
  0
ARC
  5
72F9
  8
0
 10
-5.4136280724064809
 20
-2.4915248747703198
 30
0.0
 40
0.0069494580692208
 50
179.5286323732804021
 51
265.1660190880876939
  0
ARC
  5
72FA
  8
0
 10
-5.3206364295583617
 20
-2.4936431335394209
 30
0.0
 40
0.0078110225198749
 50
267.7903411599647256
 51
351.075539823038298
  0
ARC
  5
72FB
  8
0
 10
-5.266056292227403
 20
-2.4916428747910251
 30
0.0
 40
0.0075549898099531
 50
184.4542142624364942
 51
271.2658281892253171
  0
ARC
  5
72FC
  8
0
 10
-5.2005293291908847
 20
-2.4901717684084872
 30
0.0
 40
0.0090405268186575
 50
193.2328780780950979
 51
266.5615916504842176
  0
ARC
  5
72FD
  8
0
 10
-5.1748418538995793
 20
-2.4985530298097132
 30
0.0
 40
0.0022263059277502
 50
268.7236892236372228
 51
329.1833304663151125
  0
ARC
  5
72FE
  8
0
 10
-5.1092203299017447
 20
-2.49319977989343
 30
0.0
 40
0.0076573442216347
 50
263.2456277007162271
 51
353.2689712429668134
  0
ARC
  5
72FF
  8
0
 10
-5.0896926326354333
 20
-2.4908374821044101
 30
0.0
 40
0.0078061746162555
 50
185.3873951015455077
 51
268.7467406513729884
  0
ARC
  5
7300
  8
0
 10
-4.9982227748055257
 20
-2.4927029794907578
 30
0.0
 40
0.0086679925965247
 50
272.7552276816019798
 51
346.3140965694199735
  0
ARC
  5
7301
  8
0
 10
-4.9610506763433468
 20
-2.4922474330520141
 30
0.0
 40
0.0085437225667065
 50
271.823798950198011
 51
347.6786911468029189
  0
ARC
  5
7302
  8
0
 10
-4.8567859375134503
 20
-2.4907258690371772
 30
0.0
 40
0.0101336196743002
 50
264.0590493014574918
 51
340.8405199143576851
  0
ARC
  5
7303
  8
0
 10
-4.8215210009816474
 20
-2.4915574651695911
 30
0.0
 40
0.0078154923977567
 50
185.5248792055012075
 51
275.098381285177993
  0
ARC
  5
7304
  8
0
 10
-4.72903962548662
 20
-2.4932524315486679
 30
0.0
 40
0.0074960668729853
 50
266.5052529579958218
 51
354.0521470251836149
  0
ARC
  5
7305
  8
0
 10
-4.7029838224057121
 20
-2.4908625557087869
 30
0.0
 40
0.0079845999604948
 50
185.9713871853255114
 51
262.5537546328715734
  0
ARC
  5
7306
  8
0
 10
-4.6110046308212977
 20
-2.4935122288077158
 30
0.0
 40
0.0078303800683747
 50
273.7874359157697199
 51
351.7721261038183229
  0
ARC
  5
7307
  8
0
 10
-4.5831958582839434
 20
-2.4938404471946849
 30
0.0
 40
0.0068669529715453
 50
267.6712759284337722
 51
358.6421855458830237
  0
ARC
  5
7308
  8
0
 10
-4.5248234347077414
 20
-2.4911199243575188
 30
0.0
 40
0.0089224542730252
 50
193.9205526142939107
 51
264.413484991972382
  0
ARC
  5
7309
  8
0
 10
-4.5110474017155857
 20
-2.490485635002968
 30
0.0
 40
0.0089222020025957
 50
192.1654697004119896
 51
265.8566249908391796
  0
ARC
  5
730A
  8
0
 10
-4.4199960058385841
 20
-2.492630734786843
 30
0.0
 40
0.0080574413686423
 50
270.275521244463107
 51
350.4053561396930263
  0
ARC
  5
730B
  8
0
 10
-4.3332954761585816
 20
-2.4922136490257709
 30
0.0
 40
0.0077867195938013
 50
269.4424917901387744
 51
352.2295083283335089
  0
ARC
  5
730C
  8
0
 10
-4.2576097590881536
 20
-2.4908251876507559
 30
0.0
 40
0.0082724912357989
 50
187.0084531348495034
 51
268.9465800558115234
  0
ARC
  5
730D
  8
0
 10
-4.1663004015449578
 20
-2.4928090325046801
 30
0.0
 40
0.0083294653898972
 50
271.270657152192598
 51
348.3332425483030761
  0
ARC
  5
730E
  8
0
 10
-4.1294296506584942
 20
-2.4919510020571769
 30
0.0
 40
0.0074942860839961
 50
183.7031132471410046
 51
272.5209101925660207
  0
ARC
  5
730F
  8
0
 10
-4.135256654953082
 20
-2.4969957934911231
 30
0.0
 40
0.0030120865212645
 50
265.8546415981221003
 51
326.2620651837153218
  0
ARC
  5
7310
  8
0
 10
-4.0361326172815088
 20
-2.4923199978634751
 30
0.0
 40
0.0071228321064858
 50
267.8976327115627214
 51
347.1420346679154818
  0
ARC
  5
7311
  8
0
 10
-3.9352226364849221
 20
-2.4907371335950468
 30
0.0
 40
0.0093403173368476
 50
195.7116429934119139
 51
262.6163568880957087
  0
ARC
  5
7312
  8
0
 10
-3.8440489299118781
 20
-2.4922631450564401
 30
0.0
 40
0.0077377824780123
 50
269.1128465771002993
 51
352.5498389602681186
  0
ARC
  5
7313
  8
0
 10
-3.8057418277498982
 20
-2.491762022460875
 30
0.0
 40
0.0082441178854761
 50
189.8999581534330048
 51
267.7884899001149961
  0
ARC
  5
7314
  8
0
 10
-3.8215441352085691
 20
-2.4898444285965549
 30
0.0
 40
0.0108826857893889
 50
268.876655061804172
 51
324.3658771669453245
  0
ARC
  5
7315
  8
0
 10
-3.8698047840107388
 20
-2.4978440324906752
 30
0.0
 40
0.0028810711307026
 50
228.4451906616473025
 51
269.5708668764324898
  0
ARC
  5
7316
  8
0
 10
-3.77592715885703
 20
-2.4926313645103439
 30
0.0
 40
0.0076823753556905
 50
184.090919609449486
 51
253.5690027047128865
  0
ARC
  5
7317
  8
0
 10
-3.7596435117598039
 20
-2.4909797264354259
 30
0.0
 40
0.00816720795191
 50
187.1243842538540889
 51
268.883920543179272
  0
ARC
  5
7318
  8
0
 10
-3.7564511862083232
 20
-2.4981266643704738
 30
0.0
 40
0.0018767511835626
 50
266.5427502935846746
 51
323.4735478400189095
  0
ARC
  5
7319
  8
0
 10
-3.668333303744475
 20
-2.492546266346408
 30
0.0
 40
0.008461936677037
 50
272.1476370530120903
 51
347.7808781060260799
  0
ARC
  5
731A
  8
0
 10
-3.5861837080651631
 20
-2.4936124250838949
 30
0.0
 40
0.0069050525841669
 50
271.17306801960342
 51
358.2410187455030268
  0
ARC
  5
731B
  8
0
 10
-3.557623365480139
 20
-2.491516597357204
 30
0.0
 40
0.0085616306706562
 50
191.7934216880065037
 51
262.2487487836689866
  0
ARC
  5
731C
  8
0
 10
-3.4659239380034701
 20
-2.4921651097327091
 30
0.0
 40
0.0078349632397514
 50
269.7527143380120265
 51
351.9192850528173722
  0
ARC
  5
731D
  8
0
 10
-3.4141843062407129
 20
-2.4930015326454078
 30
0.0
 40
0.0071602450840651
 50
271.811089699770605
 51
358.5764089816977958
  0
ARC
  5
731E
  8
0
 10
-3.361175205352537
 20
-2.4929696982327552
 30
0.0
 40
0.0070688753889891
 50
181.7001223196126887
 51
275.988325006310788
  0
ARC
  5
731F
  8
0
 10
-3.367818461796559
 20
-2.4957048161871138
 30
0.0
 40
0.0050910809799474
 50
263.3053095903177905
 51
314.5135585399322053
  0
ARC
  5
7320
  8
0
 10
-3.2683001062491712
 20
-2.4921225798692879
 30
0.0
 40
0.0078774206927326
 50
270.0216431423065728
 51
352.2899088041452274
  0
ARC
  5
7321
  8
0
 10
-3.2148820821257682
 20
-2.490980878580856
 30
0.0
 40
0.0081743902918882
 50
188.3323297863165067
 51
267.1237608154992245
  0
ARC
  5
7322
  8
0
 10
-3.1242499069435321
 20
-2.4915766928481551
 30
0.0
 40
0.0093374007570716
 50
276.3903177741538002
 51
343.8989078917190909
  0
LINE
  5
7323
  8
0
 10
-3.121942277610287
 20
-2.500624449462804
 30
0.0
 11
-3.0775951796922518
 21
-2.5004794793688059
 31
0.0
  0
LINE
  5
7324
  8
0
 10
-3.0092938645998402
 20
-2.5000000000000142
 30
0.0
 11
-3.0749054294815319
 21
-2.5000000000000142
 31
0.0
  0
LINE
  5
7325
  8
0
 10
-2.9887116320001041
 20
-2.5000000000000142
 30
0.0
 11
-2.8965853428999249
 21
-2.5000000000000142
 31
0.0
  0
LINE
  5
7326
  8
0
 10
-2.8063153998000412
 20
-2.5006633880060321
 30
0.0
 11
-2.8956751149044062
 21
-2.4998981947898349
 31
0.0
  0
LINE
  5
7327
  8
0
 10
-2.78090100169993
 20
-2.5000000000000142
 30
0.0
 11
-2.6743702068001758
 21
-2.5000000000000142
 31
0.0
  0
ARC
  5
7328
  8
0
 10
-2.572734822116217
 20
-1.6599105157329599
 30
0.0
 40
0.8416247605651868
 50
266.0525415942436211
 51
272.3894910104168048
  0
ARC
  5
7329
  8
0
 10
-2.5304019489385601
 20
-2.3032084686893479
 30
0.0
 40
0.1976602073513116
 50
267.9841912794398127
 51
274.4145192313811208
  0
LINE
  5
732A
  8
0
 10
-2.4843769057001732
 20
-2.5000000000000142
 30
0.0
 11
-2.5138621375749599
 21
-2.5000000000000142
 31
0.0
  0
LINE
  5
732B
  8
0
 10
-2.4832050963636898
 20
-2.5000000000000142
 30
0.0
 11
-2.4302751674017591
 21
-2.5000000000000142
 31
0.0
  0
LINE
  5
732C
  8
0
 10
-2.4288180501998791
 20
-2.5000000000000142
 30
0.0
 11
-2.327141152899912
 21
-2.5000000000000142
 31
0.0
  0
LINE
  5
732D
  8
0
 10
-2.327141152899912
 20
-2.5000000000000142
 30
0.0
 11
-2.2545660470000248
 21
-2.5000000000000142
 31
0.0
  0
LINE
  5
732E
  8
0
 10
-2.1936766693002019
 20
-2.5000000000000142
 30
0.0
 11
-2.1016247908942201
 21
-2.5000000000000142
 31
0.0
  0
LINE
  5
732F
  8
0
 10
-2.0440659209002661
 20
-2.5000000000000142
 30
0.0
 11
-2.0061799193363181
 21
-2.5000000000000142
 31
0.0
  0
ARC
  5
7330
  8
0
 10
-1.9593413799775581
 20
-1.8015623574218009
 30
0.0
 40
0.7000064209273122
 50
265.5644249013656122
 51
273.2575849120917724
  0
ARC
  5
7331
  8
0
 10
-1.9192415131815319
 20
-2.4528313966301449
 30
0.0
 40
0.0477990571342735
 50
266.9255587980773043
 51
279.3160775465015035
  0
LINE
  5
7332
  8
0
 10
-1.911503766800251
 20
-2.5000000000000142
 30
0.0
 11
-1.757682643500174
 21
-2.5000000000000142
 31
0.0
  0
LINE
  5
7333
  8
0
 10
-1.6939552247272329
 20
-2.499432845150749
 30
0.0
 11
-1.493922404176373
 21
-2.4997088353743768
 31
0.0
  0
LINE
  5
7334
  8
0
 10
-1.1916791642001949
 20
-2.5000000000000142
 30
0.0
 11
-1.277105810191187
 21
-2.5000000000000142
 31
0.0
  0
ARC
  5
7335
  8
0
 10
-1.3713755446387941
 20
-2.4917388781408358
 30
0.0
 40
0.0080191211654799
 50
187.2394292951715045
 51
269.426375813438483
  0
ARC
  5
7336
  8
0
 10
-1.32092980407242
 20
-1.8028093975614601
 30
0.0
 40
0.6987772694915236
 50
265.853533678999213
 51
273.4003722164176224
  0
ARC
  5
7337
  8
0
 10
-1.279459401604526
 20
-2.492408348762694
 30
0.0
 40
0.0079481168241145
 50
269.8275300819497033
 51
353.8848341013451773
  0
LINE
  5
7338
  8
0
 10
-1.047374337199926
 20
-2.5000000000000142
 30
0.0
 11
-0.9492408341002374
 21
-2.499574418800008
 31
0.0
  0
LINE
  5
7339
  8
0
 10
-0.8751428595001016
 20
-2.5000000000000142
 30
0.0
 11
-0.7830022510001982
 21
-2.5000000000000142
 31
0.0
  0
ARC
  5
733A
  8
0
 10
-0.6647411361354898
 20
-1.8387413191328359
 30
0.0
 40
0.662867374463363
 50
265.8250010654197126
 51
273.9984991927968281
  0
LINE
  5
733B
  8
0
 10
-0.4150423029000195
 20
-2.5000000000000142
 30
0.0
 11
-0.2886375909074559
 21
-2.500169291588747
 31
0.0
  0
ARC
  5
733C
  8
0
 10
-0.0016060629932326
 20
-1.69351056312864
 30
0.0
 40
0.8081029087489392
 50
266.9621462628244899
 51
273.4063693727678128
  0
ARC
  5
733D
  8
0
 10
-3.0776371039073629
 20
-2.492460168743079
 30
0.0
 40
0.0080194202129495
 50
270.2995343143616083
 51
350.8679628298997955
  0
ARC
  5
733E
  8
0
 10
-3.0099627182494251
 20
-2.4913520933367148
 30
0.0
 40
0.0086737336171573
 50
274.4226136852382183
 51
347.2493857056035722
  0
ARC
  5
733F
  8
0
 10
-2.9891701646479301
 20
-2.4926505782946
 30
0.0
 40
0.00736371180812
 50
184.1183744348068956
 51
273.5700736187602047
  0
ARC
  5
7340
  8
0
 10
-2.8970690546830151
 20
-2.4915551703337391
 30
0.0
 40
0.008458671596724
 50
273.2782654865910104
 51
348.9291980129017929
  0
ARC
  5
7341
  8
0
 10
-2.805575940626567
 20
-2.4894215176768308
 30
0.0
 40
0.0112661638709633
 50
266.2366632024554178
 51
337.7708574931701264
  0
ARC
  5
7342
  8
0
 10
-2.7813635487536881
 20
-2.4926551710611302
 30
0.0
 40
0.0073593791802063
 50
184.0849547592509055
 51
273.6034932943323952
  0
ARC
  5
7343
  8
0
 10
-2.6891653299039708
 20
-2.4916639815623962
 30
0.0
 40
0.0083468888554187
 50
272.9244592714098872
 51
349.5395177896145924
  0
ARC
  5
7344
  8
0
 10
-2.6760269978349238
 20
-2.4902304970501912
 30
0.0
 40
0.009908993108251
 50
279.6251041825606762
 51
342.6864477639214215
  0
ARC
  5
7345
  8
0
 10
-2.6271529954910871
 20
-2.4881031986362379
 30
0.0
 40
0.0119651000654981
 50
200.7933610961879936
 51
252.8877463081601888
  0
ARC
  5
7346
  8
0
 10
-2.539180622443836
 20
-2.4922203801173159
 30
0.0
 40
0.0087193048293065
 50
280.1405733157745885
 51
348.3400367880234967
  0
ARC
  5
7347
  8
0
 10
-2.5160085416455331
 20
-2.4931739810342739
 30
0.0
 40
0.0071555283071459
 50
276.5870735411464238
 51
356.3281979895573954
  0
ARC
  5
7348
  8
0
 10
-2.4837910010319311
 20
-2.492803899782956
 30
0.0
 40
0.0072199129228841
 50
265.3452596322172212
 51
356.3267404862974104
  0
ARC
  5
7349
  8
0
 10
-2.4295466088001372
 20
-2.4929499950812182
 30
0.0
 40
0.007087550140117
 50
264.0999078118456964
 51
358.1450017142416868
  0
ARC
  5
734A
  8
0
 10
-2.3277677578976181
 20
-2.491391390425278
 30
0.0
 40
0.0086313841666927
 50
274.1631134765394222
 51
348.0443507491498281
  0
ARC
  5
734B
  8
0
 10
-2.2554508133116542
 20
-2.4911127048864752
 30
0.0
 40
0.0089312275674521
 50
275.6852945228254725
 51
346.6202968171164116
  0
ARC
  5
734C
  8
0
 10
-2.193447006465703
 20
-2.491863233670315
 30
0.0
 40
0.008140006837931
 50
189.3052097947258119
 51
268.3832375312113072
  0
ARC
  5
734D
  8
0
 10
-2.1013576752188778
 20
-2.4923329677482111
 30
0.0
 40
0.0076716839309976
 50
268.0046499559429094
 51
353.6653929821083011
  0
ARC
  5
734E
  8
0
 10
-2.0444504866463831
 20
-2.4925659548811012
 30
0.0
 40
0.0074439853333655
 50
184.7271570166516028
 51
272.961291036908392
  0
ARC
  5
734F
  8
0
 10
-2.0124737496330449
 20
-2.490578071102802
 30
0.0
 40
0.0089507119036204
 50
192.7027596349063003
 51
263.5545166059389999
  0
ARC
  5
7350
  8
0
 10
-1.920484655670406
 20
-2.4935112512033148
 30
0.0
 40
0.0069874048628191
 50
277.5750235165373851
 51
357.726240670973084
  0
ARC
  5
7351
  8
0
 10
-1.9147473096736569
 20
-2.4915802563774738
 30
0.0
 40
0.0090228960452188
 50
291.0682114286669275
 51
347.560216303188497
  0
ARC
  5
7352
  8
0
 10
-1.9029864828139571
 20
-2.4920935334615839
 30
0.0
 40
0.0079320142338975
 50
274.5997940580791123
 51
351.49638481634139
  0
ARC
  5
7353
  8
0
 10
-1.8835555329360429
 20
-2.4931349551136601
 30
0.0
 40
0.0069894085764664
 50
280.8245607709325213
 51
359.635493522669492
  0
ARC
  5
7354
  8
0
 10
-1.8457500471422461
 20
-2.492935646179105
 30
0.0
 40
0.0070662236151081
 50
271.318106263829975
 51
358.022989218007524
  0
ARC
  5
7355
  8
0
 10
-1.7588796731620271
 20
-2.4907564968698921
 30
0.0
 40
0.0093206882861509
 50
277.3787141975350892
 51
344.9328377489105719
  0
ARC
  5
7356
  8
0
 10
-1.692534766247717
 20
-2.492619502293806
 30
0.0
 40
0.0069598378700921
 50
182.1030861970043873
 51
258.2235546422944026
  0
ARC
  5
7357
  8
0
 10
-1.6776787523976959
 20
-2.4896955898755091
 30
0.0
 40
0.0098726280040659
 50
200.6634304594890068
 51
261.2467150575984078
  0
ARC
  5
7358
  8
0
 10
-1.614661373479066
 20
-2.4908569163247019
 30
0.0
 40
0.0087436738412625
 50
195.4038599583734879
 51
263.2979988406283951
  0
ARC
  5
7359
  8
0
 10
-1.5803553565524451
 20
-2.4859991551983138
 30
0.0
 40
0.0136666763748703
 50
196.012773684575393
 51
263.8652421153936984
  0
ARC
  5
735A
  8
0
 10
-1.493814842843221
 20
-2.4906732141950121
 30
0.0
 40
0.0090362613694729
 50
269.3179750202920104
 51
5.7420863164453122
  0
ARC
  5
735B
  8
0
 10
-1.2700915804657591
 20
-2.4930638805098511
 30
0.0
 40
0.0069410256654899
 50
272.1543830427829107
 51
359.0462147216811104
  0
ARC
  5
735C
  8
0
 10
-1.2557299314980801
 20
-2.4892957992754949
 30
0.0
 40
0.0107046310680536
 50
270.5137606927590923
 51
338.7278563518473788
  0
ARC
  5
735D
  8
0
 10
-1.1941478260659999
 20
-2.4853653646325848
 30
0.0
 40
0.0148413895490368
 50
279.5748718128327255
 51
342.7391789330524716
  0
ARC
  5
735E
  8
0
 10
-0.9508461625987366
 20
-2.4933778522175909
 30
0.0
 40
0.0064011340400843
 50
284.5241551305952044
 51
0.2399667777787624
  0
ARC
  5
735F
  8
0
 10
-0.9558922693904605
 20
-2.4904943132808759
 30
0.0
 40
0.0091607868912445
 50
276.3515644371368012
 51
342.9558341960508869
  0
ARC
  5
7360
  8
0
 10
-1.046715275994756
 20
-2.491733593096924
 30
0.0
 40
0.0082926379855516
 50
190.0408748419116023
 51
265.4415842865657282
  0
ARC
  5
7361
  8
0
 10
-0.8734653582368991
 20
-2.4902068030710751
 30
0.0
 40
0.0099358299389979
 50
197.4084531342801085
 51
260.2799949192532836
  0
ARC
  5
7362
  8
0
 10
-0.7841282908730137
 20
-2.4908377142540981
 30
0.0
 40
0.009231221256444
 50
277.0064847675002966
 51
345.3050671788868158
  0
ARC
  5
7363
  8
0
 10
-0.71021262638169
 20
-2.4888556184550898
 30
0.0
 40
0.0113418653567998
 50
201.2028580262143009
 51
255.7739062106606127
  0
ARC
  5
7364
  8
0
 10
-0.6199835462443845
 20
-2.4932452269904379
 30
0.0
 40
0.0069069855062379
 50
282.2404226360417283
 51
358.8921258216818728
  0
ARC
  5
7365
  8
0
 10
-0.4139374851852154
 20
-2.4908619939176901
 30
0.0
 40
0.0092045519903625
 50
194.5822527977888967
 51
263.106195255780392
  0
ARC
  5
7366
  8
0
 10
-0.2880618652716293
 20
-2.492856906049667
 30
0.0
 40
0.0073350148111823
 50
265.4982213033167113
 51
357.0716976521189281
  0
ARC
  5
7367
  8
0
 10
-0.2916925600297873
 20
-2.491932081196381
 30
0.0
 40
0.0082780132293568
 50
275.8936507403594192
 51
351.3336078984502251
  0
ARC
  5
7368
  8
0
 10
-0.2990966016782295
 20
-2.4912626719290212
 30
0.0
 40
0.0093160335952716
 50
287.2641588801118928
 51
348.1267536673939844
  0
ARC
  5
7369
  8
0
 10
-0.3252331116000278
 20
-2.4892508208628921
 30
0.0
 40
0.010869451015683
 50
269.8905693097963763
 51
338.8116528733033874
  0
ARC
  5
736A
  8
0
 10
-0.0438802760154431
 20
-2.4899063764484728
 30
0.0
 40
0.0105858907254507
 50
198.5064262706661111
 51
267.0121782529589041
  0
LINE
  5
736B
  8
0
 10
5.6762007939000787
 20
-2.4913864342000092
 30
0.0
 11
5.681169238500388
 21
-2.440944881900009
 31
0.0
  0
LINE
  5
736C
  8
0
 10
5.8613306347911021
 20
-2.4891682027054571
 30
0.0
 11
5.8660276314999464
 21
-2.440944881900009
 31
0.0
  0
LINE
  5
736D
  8
0
 10
5.9730104305003797
 20
-2.4912920464936259
 30
0.0
 11
5.9778808428995944
 21
-2.440944881900009
 31
0.0
  0
LINE
  5
736E
  8
0
 10
6.0153222016001564
 20
-2.440944881900009
 30
0.0
 11
6.0104641346965764
 21
-2.4912801340333171
 31
0.0
  0
LINE
  5
736F
  8
0
 10
5.097464324599513
 20
-2.4915703983000119
 30
0.0
 11
5.1026249257997733
 21
-2.440944881900009
 31
0.0
  0
LINE
  5
7370
  8
0
 10
5.4205772952996076
 20
-2.4914677028000081
 30
0.0
 11
5.4256304497998817
 21
-2.440944881900009
 31
0.0
  0
LINE
  5
7371
  8
0
 10
5.5685485690996748
 20
-2.4949347734000038
 30
0.0
 11
5.559609502499824
 21
-2.440944881900009
 31
0.0
  0
LINE
  5
7372
  8
0
 10
5.7534719172012947
 20
-2.494992545906185
 30
0.0
 11
5.7444634084999961
 21
-2.440944881900009
 31
0.0
  0
LINE
  5
7373
  8
0
 10
5.8652356001471162
 20
-2.4942576841718842
 30
0.0
 11
5.8624539263996658
 21
-2.4776355458000121
 31
0.0
  0
LINE
  5
7374
  8
0
 10
5.2093298093000149
 20
-2.4922412309000062
 30
0.0
 11
5.2152819097996144
 21
-2.440944881900009
 31
0.0
  0
LINE
  5
7375
  8
0
 10
5.2735884638000243
 20
-2.4922296136000019
 30
0.0
 11
5.2795280310997441
 21
-2.440944881900009
 31
0.0
  0
LINE
  5
7376
  8
0
 10
4.7109250976996
 20
-2.4916932080000151
 30
0.0
 11
4.7162147824997191
 21
-2.440944881900009
 31
0.0
  0
LINE
  5
7377
  8
0
 10
4.9527037474995259
 20
-2.4940706100000081
 30
0.0
 11
4.9447028431000026
 21
-2.440944881900009
 31
0.0
  0
LINE
  5
7378
  8
0
 10
5.1016157652998109
 20
-2.4940972863015669
 30
0.0
 11
5.098982855916347
 21
-2.4766736006070138
 31
0.0
  0
LINE
  5
7379
  8
0
 10
4.9898008894001569
 20
-2.4947538188000058
 30
0.0
 11
4.9810782952995387
 21
-2.440944881900009
 31
0.0
  0
LINE
  5
737A
  8
0
 10
5.312919969399899
 20
-2.4948548742000152
 30
0.0
 11
5.3040766775998227
 21
-2.440944881900009
 31
0.0
  0
LINE
  5
737B
  8
0
 10
4.8293001863999052
 20
-2.4923099249000131
 30
0.0
 11
4.8353265175996958
 21
-2.440944881900009
 31
0.0
  0
LINE
  5
737C
  8
0
 10
4.2658204395997918
 20
-2.4918345621000091
 30
0.0
 11
4.2712595011003032
 21
-2.440944881900009
 31
0.0
  0
LINE
  5
737D
  8
0
 10
4.5763308335003776
 20
-2.4940031673000069
 30
0.0
 11
4.5684081679996771
 21
-2.440944881900009
 31
0.0
  0
LINE
  5
737E
  8
0
 10
4.7215839127998152
 20
-2.4940291985000149
 30
0.0
 11
4.7151547132139049
 21
-2.451115004291565
 31
0.0
  0
LINE
  5
737F
  8
0
 10
4.8472136321001917
 20
-2.4940517098000039
 30
0.0
 11
4.839234674800081
 21
-2.440944881900009
 31
0.0
  0
LINE
  5
7380
  8
0
 10
4.603254850999746
 20
-2.4946328379000131
 30
0.0
 11
4.5946761136997329
 21
-2.440944881900009
 31
0.0
  0
LINE
  5
7381
  8
0
 10
4.5334838387002492
 20
-2.4932664548000072
 30
0.0
 11
4.5411428458996852
 21
-2.440944881900009
 31
0.0
  0
LINE
  5
7382
  8
0
 10
4.1369082895002967
 20
-2.4924350320000168
 30
0.0
 11
4.1430703435003116
 21
-2.440944881900009
 31
0.0
  0
LINE
  5
7383
  8
0
 10
4.5197692384995198
 20
-2.4923658615000051
 30
0.0
 11
4.5258561675996134
 21
-2.440944881900009
 31
0.0
  0
LINE
  5
7384
  8
0
 10
3.7677476627000028
 20
-2.4919926545000091
 30
0.0
 11
3.773354809799911
 21
-2.440944881900009
 31
0.0
  0
LINE
  5
7385
  8
0
 10
4.325580257299861
 20
-2.4932664548000072
 30
0.0
 11
4.3179212500995163
 21
-2.440944881900009
 31
0.0
  0
LINE
  5
7386
  8
0
 10
4.0291883921995568
 20
-2.493905076800004
 30
0.0
 11
4.0213791424998808
 21
-2.440944881900009
 31
0.0
  0
LINE
  5
7387
  8
0
 10
4.4120512750000671
 20
-2.4939737215000122
 30
0.0
 11
4.404162702699522
 21
-2.440944881900009
 31
0.0
  0
LINE
  5
7388
  8
0
 10
4.1581430204000753
 20
-2.494493409700012
 30
0.0
 11
4.149729214800117
 21
-2.440944881900009
 31
0.0
  0
LINE
  5
7389
  8
0
 10
3.9442139691000189
 20
-2.4932664548000072
 30
0.0
 11
3.9518729762999101
 21
-2.440944881900009
 31
0.0
  0
LINE
  5
738A
  8
0
 10
3.813863186199796
 20
-2.4931794203000091
 30
0.0
 11
3.8208530356000661
 21
-2.4414027577000041
 31
0.0
  0
LINE
  5
738B
  8
0
 10
3.7835899603001049
 20
-2.4931794203000091
 30
0.0
 11
3.7906416229998281
 21
-2.440944881900009
 31
0.0
  0
LINE
  5
738C
  8
0
 10
3.5792819091998349
 20
-2.493824377000009
 30
0.0
 11
3.5715656336001298
 21
-2.440944881900009
 31
0.0
  0
LINE
  5
738D
  8
0
 10
3.836376469600054
 20
-2.4932664548000072
 30
0.0
 11
3.8287174624001632
 21
-2.440944881900009
 31
0.0
  0
LINE
  5
738E
  8
0
 10
3.6600630695998002
 20
-2.4943372436000142
 30
0.0
 11
3.6518329066998372
 21
-2.440944881900009
 31
0.0
  0
LINE
  5
738F
  8
0
 10
3.5660042674999199
 20
-2.4932664548000072
 30
0.0
 11
3.572612798299815
 21
-2.4481210828000139
 31
0.0
  0
LINE
  5
7390
  8
0
 10
3.3682409689999981
 20
-2.4931794203000091
 30
0.0
 11
3.3752926317001761
 21
-2.440944881900009
 31
0.0
  0
LINE
  5
7391
  8
0
 10
3.222970185000122
 20
-2.492165466500011
 30
0.0
 11
3.2287618727000331
 21
-2.4409487188000152
 31
0.0
  0
LINE
  5
7392
  8
0
 10
3.4070262711998112
 20
-2.4931794203000091
 30
0.0
 11
3.399974608500087
 21
-2.440944881900009
 31
0.0
  0
LINE
  5
7393
  8
0
 10
3.2604939007001121
 20
-2.4931794203000091
 30
0.0
 11
3.2534422379999342
 21
-2.440944881900009
 31
0.0
  0
LINE
  5
7394
  8
0
 10
3.0697193280998358
 20
-2.493732932200003
 30
0.0
 11
3.0621080424998581
 21
-2.440944881900009
 31
0.0
  0
LINE
  5
7395
  8
0
 10
3.4581667678999111
 20
-2.4932664548000072
 30
0.0
 11
3.4505077607000199
 21
-2.440944881900009
 31
0.0
  0
LINE
  5
7396
  8
0
 10
3.0015028793000051
 20
-2.4932664548000072
 30
0.0
 11
2.9938438721001139
 21
-2.440944881900009
 31
0.0
  0
LINE
  5
7397
  8
0
 10
3.1152787762998742
 20
-2.4941662619000051
 30
0.0
 11
3.1072483667999218
 21
-2.440944881900009
 31
0.0
  0
LINE
  5
7398
  8
0
 10
2.9965148618998678
 20
-2.4931794203000091
 30
0.0
 11
2.998901863079936
 21
-2.4754979299484878
 31
0.0
  0
LINE
  5
7399
  8
0
 10
2.7887042316001489
 20
-2.4931794203000091
 30
0.0
 11
2.795755894299873
 21
-2.440944881900009
 31
0.0
  0
LINE
  5
739A
  8
0
 10
2.888767793499937
 20
-2.4931794203000091
 30
0.0
 11
2.8817161308998029
 21
-2.440944881900009
 31
0.0
  0
LINE
  5
739B
  8
0
 10
2.6809571632998082
 20
-2.4931794203000091
 30
0.0
 11
2.6739055006000849
 21
-2.440944881900009
 31
0.0
  0
LINE
  5
739C
  8
0
 10
2.6665669768999569
 20
-2.4931794203000091
 30
0.0
 11
2.6595597330997398
 21
-2.4412739105000152
 31
0.0
  0
LINE
  5
739D
  8
0
 10
2.508867701799772
 20
-2.4936322295000082
 30
0.0
 11
2.5013715904001401
 21
-2.440944881900009
 31
0.0
  0
LINE
  5
739E
  8
0
 10
2.7951470973998762
 20
-2.4936836389000092
 30
0.0
 11
2.791795101400111
 21
-2.4702840884000059
 31
0.0
  0
LINE
  5
739F
  8
0
 10
2.5306412467998589
 20
-2.4939825777000091
 30
0.0
 11
2.5228239120001481
 21
-2.440944881900009
 31
0.0
  0
LINE
  5
73A0
  8
0
 10
2.201479899099922
 20
-2.4931794203000091
 30
0.0
 11
2.2085315618001
 21
-2.440944881900009
 31
0.0
  0
LINE
  5
73A1
  8
0
 10
2.6383387705000132
 20
-2.4923507929000119
 30
0.0
 11
2.6443307077997811
 21
-2.440944881900009
 31
0.0
  0
LINE
  5
73A2
  8
0
 10
2.422462772899507
 20
-2.493179420298147
 30
0.0
 11
2.4154111101997842
 21
-2.440944881900009
 31
0.0
  0
LINE
  5
73A3
  8
0
 10
2.319323603599968
 20
-2.4931794203000091
 30
0.0
 11
2.31227194089979
 21
-2.440944881900009
 31
0.0
  0
LINE
  5
73A4
  8
0
 10
2.2467619978997391
 20
-2.4931794203000091
 30
0.0
 11
2.2397103352000149
 21
-2.440944881900009
 31
0.0
  0
LINE
  5
73A5
  8
0
 10
2.0937328308009451
 20
-2.493179420308266
 30
0.0
 11
2.086681168099858
 21
-2.440944881900009
 31
0.0
  0
LINE
  5
73A6
  8
0
 10
2.4765859204999279
 20
-2.4932664548000072
 30
0.0
 11
2.4689269133000371
 21
-2.440944881900009
 31
0.0
  0
LINE
  5
73A7
  8
0
 10
2.0518691508000302
 20
-2.4931794203000091
 30
0.0
 11
2.058920813499753
 21
-2.440944881900009
 31
0.0
  0
LINE
  5
73A8
  8
0
 10
1.6869162687999051
 20
-2.4931794203000091
 30
0.0
 11
1.6939679315000831
 21
-2.440944881900009
 31
0.0
  0
LINE
  5
73A9
  8
0
 10
1.6994899160999919
 20
-2.4928749112000039
 30
0.0
 11
1.7061304937001289
 21
-2.4409774825000019
 31
0.0
  0
LINE
  5
73AA
  8
0
 10
2.0212053834998178
 20
-2.4925462717000069
 30
0.0
 11
2.0274097141000311
 21
-2.440944881900009
 31
0.0
  0
LINE
  5
73AB
  8
0
 10
1.876566265799738
 20
-2.4931794203000091
 30
0.0
 11
1.869514603100014
 21
-2.440944881900009
 31
0.0
  0
LINE
  5
73AC
  8
0
 10
1.838688029699824
 20
-2.4931794203000091
 30
0.0
 11
1.831636367100145
 21
-2.440944881900009
 31
0.0
  0
LINE
  5
73AD
  8
0
 10
1.749879413599956
 20
-2.4931794203000091
 30
0.0
 11
1.742827750899778
 21
-2.440944881900009
 31
0.0
  0
LINE
  5
73AE
  8
0
 10
1.905936244700114
 20
-2.493523909400011
 30
0.0
 11
1.8985635003000421
 21
-2.440944881900009
 31
0.0
  0
LINE
  5
73AF
  8
0
 10
1.913502752199747
 20
-2.49378847070001
 30
0.0
 11
1.9059088846997829
 21
-2.440944881900009
 31
0.0
  0
LINE
  5
73B0
  8
0
 10
1.895141668900123
 20
-2.4932664548000072
 30
0.0
 11
1.8874565394999081
 21
-2.440766431500009
 31
0.0
  0
LINE
  5
73B1
  8
0
 10
6.0029013370890416
 20
-2.4983929137009682
 30
0.0
 11
5.9108594745889604
 21
-2.501607086399801
 31
0.0
  0
LINE
  5
73B2
  8
0
 10
1.623090952799884
 20
-2.4931794203000091
 30
0.0
 11
1.630142615500062
 21
-2.440944881900009
 31
0.0
  0
LINE
  5
73B3
  8
0
 10
1.593491768900094
 20
-2.489769130500008
 30
0.0
 11
1.600083042500045
 21
-2.440944881900009
 31
0.0
  0
LINE
  5
73B4
  8
0
 10
1.379330739100169
 20
-2.4927494152000089
 30
0.0
 11
1.38575757719991
 21
-2.440944881900009
 31
0.0
  0
LINE
  5
73B5
  8
0
 10
1.4848239223001649
 20
-2.489769130500008
 30
0.0
 11
1.478232648799803
 21
-2.440944881900009
 31
0.0
  0
LINE
  5
73B6
  8
0
 10
1.2631515164998739
 20
-2.4931794203000091
 30
0.0
 11
1.2560998538001511
 21
-2.440944881900009
 31
0.0
  0
LINE
  5
73B7
  8
0
 10
1.24575463129986
 20
-2.4931794203000091
 30
0.0
 11
1.2387029686001361
 21
-2.440944881900009
 31
0.0
  0
LINE
  5
73B8
  8
0
 10
1.179974834500171
 20
-2.489769130500008
 30
0.0
 11
1.1733835608997649
 21
-2.440944881900009
 31
0.0
  0
LINE
  5
73B9
  8
0
 10
1.2716242644000879
 20
-2.4935863594000121
 30
0.0
 11
1.2642612371000721
 21
-2.440944881900009
 31
0.0
  0
LINE
  5
73BA
  8
0
 10
5.2658893944003458
 20
-2.499196020900015
 30
0.0
 11
5.1748914426002548
 21
-2.5007787834000079
 31
0.0
  0
LINE
  5
73BB
  8
0
 10
1.054880900800071
 20
-2.4931794203000091
 30
0.0
 11
1.061932563499794
 21
-2.440944881900009
 31
0.0
  0
LINE
  5
73BC
  8
0
 10
0.8829460893998657
 20
-2.4931794203000091
 30
0.0
 11
0.8899977521000437
 21
-2.440944881900009
 31
0.0
  0
LINE
  5
73BD
  8
0
 10
0.9471338324997304
 20
-2.4931794203000091
 30
0.0
 11
0.9400821698000073
 21
-2.440944881900009
 31
0.0
  0
LINE
  5
73BE
  8
0
 10
0.7751990210999793
 20
-2.4931794203000091
 30
0.0
 11
0.7681473583998013
 21
-2.440944881900009
 31
0.0
  0
LINE
  5
73BF
  8
0
 10
0.613077851900016
 20
-2.4933787725000078
 30
0.0
 11
0.6059499763000531
 21
-2.440944881900009
 31
0.0
  0
LINE
  5
73C0
  8
0
 10
0.9444450846999644
 20
-2.4933510430000041
 30
0.0
 11
0.937233454500074
 21
-2.440691822500014
 31
0.0
  0
LINE
  5
73C1
  8
0
 10
0.4228455327997836
 20
-2.4931794203000091
 30
0.0
 11
0.4298971954999616
 21
-2.440944881900009
 31
0.0
  0
LINE
  5
73C2
  8
0
 10
0.7207867127999635
 20
-2.492957643100012
 30
0.0
 11
0.7274435293998068
 21
-2.440944881900009
 31
0.0
  0
LINE
  5
73C3
  8
0
 10
0.2807364281998161
 20
-2.4932316246000141
 30
0.0
 11
0.2736607309998362
 21
-2.4406986062000149
 31
0.0
  0
LINE
  5
73C4
  8
0
 10
0.3150984644998971
 20
-2.4931794203000091
 30
0.0
 11
0.3080468018001738
 21
-2.440944881900009
 31
0.0
  0
LINE
  5
73C5
  8
0
 10
0.2899798830999316
 20
-2.4931794203000091
 30
0.0
 11
0.2829282203997536
 21
-2.440944881900009
 31
0.0
  0
LINE
  5
73C6
  8
0
 10
0.2835090614998989
 20
-2.4931794203000091
 30
0.0
 11
0.2764573988997654
 21
-2.440944881900009
 31
0.0
  0
ARC
  5
73C7
  8
0
 10
5.9105846753996039
 20
-2.4937378673000121
 30
0.0
 40
0.0078740157
 50
238.3368213189824871
 51
272.0000000216946887
  0
ARC
  5
73C8
  8
0
 10
6.0026265378996859
 20
-2.490523694600014
 30
0.0
 40
0.0078740157
 50
272.0000000216685976
 51
354.4872181820607011
  0
ARC
  5
73C9
  8
0
 10
5.9652050504278122
 20
-2.4905524086755539
 30
0.0
 40
0.0078403457949986
 50
269.7516196139280851
 51
354.5868157863249053
  0
ARC
  5
73CA
  8
0
 10
5.8734894089107001
 20
-2.4932721126555171
 30
0.0
 40
0.0083124431014178
 50
186.8093383992957968
 51
271.2936787300419041
  0
LINE
  5
73CB
  8
0
 10
5.8736770792288553
 20
-2.501582436967325
 30
0.0
 11
5.9651710621997154
 21
-2.498392680800023
 31
0.0
  0
LINE
  5
73CC
  8
0
 10
5.761507852201702
 20
-2.5015676885442408
 30
0.0
 11
5.8524186307026858
 21
-2.498392680799923
 31
0.0
  0
LINE
  5
73CD
  8
0
 10
5.6679994712435473
 20
-2.4986056101206908
 30
0.0
 11
5.5765768789920003
 21
-2.5015172892466921
 31
0.0
  0
LINE
  5
73CE
  8
0
 10
5.4142136950890736
 20
-2.4984496140094441
 30
0.0
 11
5.3209375933961383
 21
-2.5014483480239269
 31
0.0
  0
LINE
  5
73CF
  8
0
 10
5.201071539599524
 20
-2.499196020900015
 30
0.0
 11
5.1101209344992631
 21
-2.5008039782000249
 31
0.0
  0
LINE
  5
73D0
  8
0
 10
5.089863367396446
 20
-2.49864178936265
 30
0.0
 11
4.9978061107854037
 21
-2.50136095192937
 31
0.0
  0
LINE
  5
73D1
  8
0
 10
4.960778764499536
 20
-2.5007868276000091
 30
0.0
 11
4.9943274227393877
 21
-2.5004463849388681
 31
0.0
  0
LINE
  5
73D2
  8
0
 10
4.956022279241096
 20
-2.4991547058773298
 30
0.0
 11
4.85783480209966
 21
-2.5008050620000111
 31
0.0
  0
LINE
  5
73D3
  8
0
 10
4.820826468208451
 20
-2.4993420361691392
 30
0.0
 11
4.7294965634514483
 21
-2.50073455867006
 31
0.0
  0
LINE
  5
73D4
  8
0
 10
4.7040185943501447
 20
-2.4987798206122269
 30
0.0
 11
4.6104873943118028
 21
-2.5013255071470861
 31
0.0
  0
LINE
  5
73D5
  8
0
 10
4.5834748812144417
 20
-2.5007017290951401
 30
0.0
 11
4.6078598303197387
 21
-2.5006833571585498
 31
0.0
  0
LINE
  5
73D6
  8
0
 10
4.5256920237002296
 20
-2.5000000000000142
 30
0.0
 11
4.4683791920710973
 21
-2.5000000000000142
 31
0.0
  0
LINE
  5
73D7
  8
0
 10
4.5116920533214389
 20
-2.4993845176790042
 30
0.0
 11
4.4199572597431143
 21
-2.500688082995111
 31
0.0
  0
LINE
  5
73D8
  8
0
 10
4.3333712424996511
 20
-2.5000000000000142
 30
0.0
 11
4.4167377407134154
 21
-2.5000000000000142
 31
0.0
  0
LINE
  5
73D9
  8
0
 10
4.2577618456184601
 20
-2.4990962807425912
 30
0.0
 11
4.1661156928753371
 21
-2.5011364496546089
 31
0.0
  0
LINE
  5
73DA
  8
0
 10
4.129100022063084
 20
-2.4994380354415
 30
0.0
 11
4.036393918362136
 21
-2.4994380354415
 31
0.0
  0
LINE
  5
73DB
  8
0
 10
4.1354743897995832
 20
-2.5000000000000142
 30
0.0
 11
4.1620968339934734
 21
-2.5000000000000142
 31
0.0
  0
LINE
  5
73DC
  8
0
 10
3.936422983899774
 20
-2.5000000000000142
 30
0.0
 11
3.8441687350000389
 21
-2.5000000000000142
 31
0.0
  0
LINE
  5
73DD
  8
0
 10
3.8217574882146428
 20
-2.50072502281219
 30
0.0
 11
3.8698263624150959
 21
-2.50072502281219
 31
0.0
  0
LINE
  5
73DE
  8
0
 10
3.8060599563000319
 20
-2.5000000000000142
 30
0.0
 11
3.7565643614002511
 21
-2.5000000000000142
 31
0.0
  0
LINE
  5
73DF
  8
0
 10
3.7598025928759848
 20
-2.4991453849470271
 30
0.0
 11
3.6680161963822679
 21
-2.5010022592063299
 31
0.0
  0
LINE
  5
73E0
  8
0
 10
3.6645628660312459
 20
-2.500121764467067
 30
0.0
 11
3.5860423445906231
 21
-2.5005160304867351
 31
0.0
  0
LINE
  5
73E1
  8
0
 10
3.5587780945998011
 20
-2.5000000000000142
 30
0.0
 11
3.4659577531997452
 21
-2.5000000000000142
 31
0.0
  0
LINE
  5
73E2
  8
0
 10
3.4139580123173801
 20
-2.5001582009152079
 30
0.0
 11
3.4633597683041439
 21
-2.4995686009849152
 31
0.0
  0
LINE
  5
73E3
  8
0
 10
3.3604377391998241
 20
-2.5000000000000142
 30
0.0
 11
3.2682971305998758
 21
-2.5000000000000142
 31
0.0
  0
LINE
  5
73E4
  8
0
 10
3.411402807853392
 20
-2.499599439615479
 30
0.0
 11
3.368411973397087
 21
-2.50076118341316
 31
0.0
  0
LINE
  5
73E5
  8
0
 10
3.2152922629134082
 20
-2.4991449712043732
 30
0.0
 11
3.123210644929713
 21
-2.500856077922847
 31
0.0
  0
ARC
  5
73E6
  8
0
 10
5.852320485053041
 20
-2.4893805632498811
 30
0.0
 40
0.009012651957403
 50
270.623949826722594
 51
1.3501563289023091
  0
ARC
  5
73E7
  8
0
 10
5.7611201225322466
 20
-2.4938433533629758
 30
0.0
 40
0.0077340602719575
 50
188.5451378894244954
 51
272.8735992445446072
  0
ARC
  5
73E8
  8
0
 10
5.6692986833900241
 20
-2.4918134444120308
 30
0.0
 40
0.0069153067332389
 50
259.1712118003611067
 51
3.5401838611794552
  0
ARC
  5
73E9
  8
0
 10
5.5769798090946088
 20
-2.4928387708261819
 30
0.0
 40
0.0086878670939893
 50
193.9606994093985861
 51
267.3417550757216077
  0
ARC
  5
73EA
  8
0
 10
5.4136280724064809
 20
-2.4915248747703198
 30
0.0
 40
0.0069494580692208
 50
274.8339809119121924
 51
0.4713676267195505
  0
ARC
  5
73EB
  8
0
 10
5.3206364295588173
 20
-2.4936431335394209
 30
0.0
 40
0.0078110225198749
 50
188.924460176961702
 51
272.2096588400352744
  0
ARC
  5
73EC
  8
0
 10
5.2660562922269492
 20
-2.4916428747910251
 30
0.0
 40
0.0075549898099531
 50
268.7341718107746829
 51
355.5457857375635058
  0
ARC
  5
73ED
  8
0
 10
5.2005293291908847
 20
-2.4901717684084872
 30
0.0
 40
0.0090405268186575
 50
273.4384083495157824
 51
346.7671219219047885
  0
ARC
  5
73EE
  8
0
 10
5.1748418538995793
 20
-2.4985530298097132
 30
0.0
 40
0.0022263059277502
 50
210.8166695336842054
 51
271.2763107763627772
  0
ARC
  5
73EF
  8
0
 10
5.1092203299017447
 20
-2.49319977989343
 30
0.0
 40
0.0076573442216347
 50
186.7310287570331013
 51
276.7543722992837729
  0
ARC
  5
73F0
  8
0
 10
5.0896926326354333
 20
-2.4908374821044101
 30
0.0
 40
0.0078061746162555
 50
271.2532593486268979
 51
354.6126048984543786
  0
ARC
  5
73F1
  8
0
 10
4.9982227748055257
 20
-2.4927029794907578
 30
0.0
 40
0.0086679925965247
 50
193.685903430579998
 51
267.2447723183980202
  0
ARC
  5
73F2
  8
0
 10
4.9610506763433468
 20
-2.4922474330520141
 30
0.0
 40
0.0085437225667065
 50
192.3213088531971096
 51
268.176201049801989
  0
ARC
  5
73F3
  8
0
 10
4.8567859375129947
 20
-2.4907258690371772
 30
0.0
 40
0.0101336196743002
 50
199.1594800856422012
 51
275.9409506985423945
  0
ARC
  5
73F4
  8
0
 10
4.8215210009816474
 20
-2.4915574651695911
 30
0.0
 40
0.0078154923977567
 50
264.901618714822007
 51
354.4751207944987073
  0
ARC
  5
73F5
  8
0
 10
4.7290396254870748
 20
-2.4932524315486679
 30
0.0
 40
0.0074960668729853
 50
185.9478529748162998
 51
273.4947470420041782
  0
ARC
  5
73F6
  8
0
 10
4.7029838224057121
 20
-2.4908625557087869
 30
0.0
 40
0.0079845999604948
 50
277.4462453671284266
 51
354.0286128146744886
  0
ARC
  5
73F7
  8
0
 10
4.611004630820843
 20
-2.4935122288077158
 30
0.0
 40
0.0078303800683747
 50
188.2278738961817055
 51
266.2125640842302801
  0
ARC
  5
73F8
  8
0
 10
4.5831958582834877
 20
-2.4938404471946849
 30
0.0
 40
0.0068669529715453
 50
181.3578144541170047
 51
272.3287240715662278
  0
ARC
  5
73F9
  8
0
 10
4.5248234347077414
 20
-2.4911199243575188
 30
0.0
 40
0.0089224542730252
 50
275.586515008027618
 51
346.0794473857059756
  0
ARC
  5
73FA
  8
0
 10
4.511047401715131
 20
-2.490485635002968
 30
0.0
 40
0.0089222020025957
 50
274.1433750091608204
 51
347.834530299587982
  0
ARC
  5
73FB
  8
0
 10
4.4199960058381293
 20
-2.492630734786843
 30
0.0
 40
0.0080574413686423
 50
189.5946438603070021
 51
269.724478755536893
  0
ARC
  5
73FC
  8
0
 10
4.3332954761585816
 20
-2.4922136490257709
 30
0.0
 40
0.0077867195938013
 50
187.7704916716656953
 51
270.5575082098611119
  0
ARC
  5
73FD
  8
0
 10
4.2576097590876989
 20
-2.4908251876507559
 30
0.0
 40
0.0082724912357989
 50
271.0534199441884766
 51
352.9915468651504966
  0
ARC
  5
73FE
  8
0
 10
4.1663004015449578
 20
-2.4928090325046801
 30
0.0
 40
0.0083294653898972
 50
191.6667574516968102
 51
268.7293428478072883
  0
ARC
  5
73FF
  8
0
 10
4.1294296506580386
 20
-2.4919510020571769
 30
0.0
 40
0.0074942860839961
 50
267.4790898074339793
 51
356.2968867528588817
  0
ARC
  5
7400
  8
0
 10
4.1352566549535359
 20
-2.4969957934911231
 30
0.0
 40
0.0030120865212645
 50
213.7379348162847066
 51
274.1453584018778997
  0
ARC
  5
7401
  8
0
 10
4.0361326172810541
 20
-2.4923199978634751
 30
0.0
 40
0.0071228321064858
 50
192.8579653320844898
 51
272.1023672884372786
  0
ARC
  5
7402
  8
0
 10
3.9352226364849221
 20
-2.4907371335950468
 30
0.0
 40
0.0093403173368476
 50
277.3836431119042913
 51
344.2883570065881145
  0
ARC
  5
7403
  8
0
 10
3.8440489299118781
 20
-2.4922631450564401
 30
0.0
 40
0.0077377824780123
 50
187.4501610397319098
 51
270.8871534228997007
  0
ARC
  5
7404
  8
0
 10
3.8057418277498982
 20
-2.491762022460875
 30
0.0
 40
0.0082441178854761
 50
272.2115100998850039
 51
350.1000418465670236
  0
ARC
  5
7405
  8
0
 10
3.8215441352085691
 20
-2.4898444285965549
 30
0.0
 40
0.0108826857893889
 50
215.634122833054704
 51
271.123344938195828
  0
ARC
  5
7406
  8
0
 10
3.8698047840107388
 20
-2.4978440324906752
 30
0.0
 40
0.0028810711307026
 50
270.4291331235673965
 51
311.5548093383526975
  0
ARC
  5
7407
  8
0
 10
3.77592715885703
 20
-2.4926313645103439
 30
0.0
 40
0.0076823753556905
 50
286.4309972952871135
 51
355.909080390550514
  0
ARC
  5
7408
  8
0
 10
3.7596435117593501
 20
-2.4909797264354259
 30
0.0
 40
0.00816720795191
 50
271.116079456820728
 51
352.8756157461451153
  0
ARC
  5
7409
  8
0
 10
3.756451186207868
 20
-2.4981266643704738
 30
0.0
 40
0.0018767511835626
 50
216.5264521599810053
 51
273.4572497064153254
  0
ARC
  5
740A
  8
0
 10
3.668333303744475
 20
-2.492546266346408
 30
0.0
 40
0.008461936677037
 50
192.2191218939738064
 51
267.8523629469879097
  0
ARC
  5
740B
  8
0
 10
3.5861837080651631
 20
-2.4936124250838949
 30
0.0
 40
0.0069050525841669
 50
181.7589812544968879
 51
268.82693198039658
  0
ARC
  5
740C
  8
0
 10
3.5576233654796852
 20
-2.491516597357204
 30
0.0
 40
0.0085616306706562
 50
277.7512512163310134
 51
348.2065783119934963
  0
ARC
  5
740D
  8
0
 10
3.4659239380030149
 20
-2.4921651097327091
 30
0.0
 40
0.0078349632397514
 50
188.0807149471825142
 51
270.2472856619879735
  0
ARC
  5
740E
  8
0
 10
3.4141843062407129
 20
-2.4930015326454078
 30
0.0
 40
0.0071602450840651
 50
181.4235910183022042
 51
268.1889103002295087
  0
ARC
  5
740F
  8
0
 10
3.361175205352537
 20
-2.4929696982327552
 30
0.0
 40
0.0070688753889891
 50
264.011674993689212
 51
358.2998776803872829
  0
ARC
  5
7410
  8
0
 10
3.367818461796559
 20
-2.4957048161871138
 30
0.0
 40
0.0050910809799474
 50
225.4864414600677947
 51
276.6946904096822095
  0
ARC
  5
7411
  8
0
 10
3.2683001062491712
 20
-2.4921225798692879
 30
0.0
 40
0.0078774206927326
 50
187.7100911958546874
 51
269.9783568576934272
  0
ARC
  5
7412
  8
0
 10
3.2148820821257682
 20
-2.490980878580856
 30
0.0
 40
0.0081743902918882
 50
272.8762391845008892
 51
351.6676702136833796
  0
ARC
  5
7413
  8
0
 10
3.1242499069435321
 20
-2.4915766928481551
 30
0.0
 40
0.0093374007570716
 50
196.1010921082809091
 51
263.6096822258461998
  0
LINE
  5
7414
  8
0
 10
3.121942277610287
 20
-2.500624449462804
 30
0.0
 11
3.0775951796917971
 21
-2.5004794793688059
 31
0.0
  0
LINE
  5
7415
  8
0
 10
3.0092938645998402
 20
-2.5000000000000142
 30
0.0
 11
3.0749054294815319
 21
-2.5000000000000142
 31
0.0
  0
LINE
  5
7416
  8
0
 10
2.9887116320001041
 20
-2.5000000000000142
 30
0.0
 11
2.8965853428999249
 21
-2.5000000000000142
 31
0.0
  0
LINE
  5
7417
  8
0
 10
2.8063153998000412
 20
-2.5006633880060321
 30
0.0
 11
2.8956751149044062
 21
-2.4998981947898349
 31
0.0
  0
LINE
  5
7418
  8
0
 10
2.78090100169993
 20
-2.5000000000000142
 30
0.0
 11
2.6743702068001758
 21
-2.5000000000000142
 31
0.0
  0
ARC
  5
7419
  8
0
 10
2.572734822116217
 20
-1.6599105157329599
 30
0.0
 40
0.8416247605651868
 50
267.6105089895831952
 51
273.9474584057563789
  0
ARC
  5
741A
  8
0
 10
2.5304019489385601
 20
-2.3032084686893479
 30
0.0
 40
0.1976602073513116
 50
265.5854807686188792
 51
272.0158087205601873
  0
LINE
  5
741B
  8
0
 10
2.4843769057001732
 20
-2.5000000000000142
 30
0.0
 11
2.5138621375749599
 21
-2.5000000000000142
 31
0.0
  0
LINE
  5
741C
  8
0
 10
2.4832050963636898
 20
-2.5000000000000142
 30
0.0
 11
2.4302751674017591
 21
-2.5000000000000142
 31
0.0
  0
LINE
  5
741D
  8
0
 10
2.4288180501998791
 20
-2.5000000000000142
 30
0.0
 11
2.327141152899912
 21
-2.5000000000000142
 31
0.0
  0
LINE
  5
741E
  8
0
 10
2.327141152899912
 20
-2.5000000000000142
 30
0.0
 11
2.2545660470000248
 21
-2.5000000000000142
 31
0.0
  0
LINE
  5
741F
  8
0
 10
2.193676669299748
 20
-2.5000000000000142
 30
0.0
 11
2.1016247908942201
 21
-2.5000000000000142
 31
0.0
  0
LINE
  5
7420
  8
0
 10
2.0440659208998109
 20
-2.5000000000000142
 30
0.0
 11
2.0061799193358629
 21
-2.5000000000000142
 31
0.0
  0
ARC
  5
7421
  8
0
 10
1.9593413799775581
 20
-1.8015623574218009
 30
0.0
 40
0.7000064209273122
 50
266.7424150879082276
 51
274.4355750986343878
  0
ARC
  5
7422
  8
0
 10
1.9192415131815319
 20
-2.4528313966301449
 30
0.0
 40
0.0477990571342735
 50
260.6839224534986101
 51
273.0744412019226957
  0
LINE
  5
7423
  8
0
 10
1.9115037667997961
 20
-2.5000000000000142
 30
0.0
 11
1.757682643500174
 21
-2.5000000000000142
 31
0.0
  0
LINE
  5
7424
  8
0
 10
1.6939552247272329
 20
-2.499432845150749
 30
0.0
 11
1.493922404176373
 21
-2.4997088353743768
 31
0.0
  0
LINE
  5
7425
  8
0
 10
1.19167916419974
 20
-2.5000000000000142
 30
0.0
 11
1.277105810191187
 21
-2.5000000000000142
 31
0.0
  0
ARC
  5
7426
  8
0
 10
1.3713755446387941
 20
-2.4917388781408358
 30
0.0
 40
0.0080191211654799
 50
270.573624186561517
 51
352.7605707048284103
  0
ARC
  5
7427
  8
0
 10
1.32092980407242
 20
-1.8028093975614601
 30
0.0
 40
0.6987772694915236
 50
266.5996277835823207
 51
274.1464663210006734
  0
ARC
  5
7428
  8
0
 10
1.279459401604526
 20
-2.492408348762694
 30
0.0
 40
0.0079481168241145
 50
186.1151658986547943
 51
270.1724699180504103
  0
LINE
  5
7429
  8
0
 10
1.047374337199926
 20
-2.5000000000000142
 30
0.0
 11
0.9492408340997825
 21
-2.499574418800008
 31
0.0
  0
LINE
  5
742A
  8
0
 10
0.8751428595001016
 20
-2.5000000000000142
 30
0.0
 11
0.7830022509997434
 21
-2.5000000000000142
 31
0.0
  0
ARC
  5
742B
  8
0
 10
0.664741136135035
 20
-1.8387413191328359
 30
0.0
 40
0.662867374463363
 50
266.0015008072031719
 51
274.1749989345802874
  0
LINE
  5
742C
  8
0
 10
0.4150423029000195
 20
-2.5000000000000142
 30
0.0
 11
0.2886375909074559
 21
-2.500169291588747
 31
0.0
  0
ARC
  5
742D
  8
0
 10
3.0776371039073629
 20
-2.492460168743079
 30
0.0
 40
0.0080194202129495
 50
189.1320371701002045
 51
269.7004656856385054
  0
ARC
  5
742E
  8
0
 10
3.0099627182494251
 20
-2.4913520933367148
 30
0.0
 40
0.0086737336171573
 50
192.7506142943963994
 51
265.5773863147617817
  0
ARC
  5
742F
  8
0
 10
2.9891701646479301
 20
-2.4926505782946
 30
0.0
 40
0.00736371180812
 50
266.4299263812396816
 51
355.881625565193076
  0
ARC
  5
7430
  8
0
 10
2.8970690546830151
 20
-2.4915551703337391
 30
0.0
 40
0.008458671596724
 50
191.0708019870980934
 51
266.7217345134091033
  0
ARC
  5
7431
  8
0
 10
2.805575940626567
 20
-2.4894215176768308
 30
0.0
 40
0.0112661638709633
 50
202.2291425068297883
 51
273.7633367975445822
  0
ARC
  5
7432
  8
0
 10
2.7813635487532329
 20
-2.4926551710611302
 30
0.0
 40
0.0073593791802063
 50
266.3965067056674911
 51
355.915045240749123
  0
ARC
  5
7433
  8
0
 10
2.6891653299039708
 20
-2.4916639815623962
 30
0.0
 40
0.0083468888554187
 50
190.4604822103854076
 51
267.0755407285901128
  0
ARC
  5
7434
  8
0
 10
2.6760269978349238
 20
-2.4902304970501912
 30
0.0
 40
0.009908993108251
 50
197.3135522360784933
 51
260.3748958174393238
  0
ARC
  5
7435
  8
0
 10
2.6271529954910871
 20
-2.4881031986362379
 30
0.0
 40
0.0119651000654981
 50
287.1122536918397827
 51
339.2066389038120064
  0
ARC
  5
7436
  8
0
 10
2.539180622443836
 20
-2.4922203801173159
 30
0.0
 40
0.0087193048293065
 50
191.6599632119763896
 51
259.8594266842252978
  0
ARC
  5
7437
  8
0
 10
2.5160085416455331
 20
-2.4931739810342739
 30
0.0
 40
0.0071555283071459
 50
183.6718020104424909
 51
263.4129264588536898
  0
ARC
  5
7438
  8
0
 10
2.4837910010319311
 20
-2.492803899782956
 30
0.0
 40
0.0072199129228841
 50
183.6732595137025896
 51
274.6547403677827788
  0
ARC
  5
7439
  8
0
 10
2.4295466088001372
 20
-2.4929499950812182
 30
0.0
 40
0.007087550140117
 50
181.8549982857581995
 51
275.9000921881543036
  0
ARC
  5
743A
  8
0
 10
2.3277677578976181
 20
-2.491391390425278
 30
0.0
 40
0.0086313841666927
 50
191.9556492508500867
 51
265.8368865234605778
  0
ARC
  5
743B
  8
0
 10
2.2554508133116542
 20
-2.4911127048864752
 30
0.0
 40
0.0089312275674521
 50
193.3797031828835031
 51
264.3147054771745275
  0
ARC
  5
743C
  8
0
 10
2.1934470064652478
 20
-2.491863233670315
 30
0.0
 40
0.008140006837931
 50
271.6167624687886928
 51
350.6947902052742165
  0
ARC
  5
743D
  8
0
 10
2.1013576752188778
 20
-2.4923329677482111
 30
0.0
 40
0.0076716839309976
 50
186.3346070178916989
 51
271.9953500440570906
  0
ARC
  5
743E
  8
0
 10
2.0444504866463831
 20
-2.4925659548811012
 30
0.0
 40
0.0074439853333655
 50
267.038708963091608
 51
355.2728429833484256
  0
ARC
  5
743F
  8
0
 10
2.0124737496325902
 20
-2.490578071102802
 30
0.0
 40
0.0089507119036204
 50
276.4454833940610001
 51
347.2972403650928186
  0
ARC
  5
7440
  8
0
 10
1.920484655670406
 20
-2.4935112512033148
 30
0.0
 40
0.0069874048628191
 50
182.2737593290268023
 51
262.4249764834626149
  0
ARC
  5
7441
  8
0
 10
1.9147473096736569
 20
-2.4915802563774738
 30
0.0
 40
0.0090228960452188
 50
192.4397836968113893
 51
248.9317885713329872
  0
ARC
  5
7442
  8
0
 10
1.902986482813503
 20
-2.4920935334615839
 30
0.0
 40
0.0079320142338975
 50
188.50361518365861
 51
265.4002059419208877
  0
ARC
  5
7443
  8
0
 10
1.883555532935588
 20
-2.4931349551136601
 30
0.0
 40
0.0069894085764664
 50
180.364506477330508
 51
259.1754392290674787
  0
ARC
  5
7444
  8
0
 10
1.8457500471422461
 20
-2.492935646179105
 30
0.0
 40
0.0070662236151081
 50
181.977010781991595
 51
268.6818937361699113
  0
ARC
  5
7445
  8
0
 10
1.758879673161573
 20
-2.4907564968698921
 30
0.0
 40
0.0093206882861509
 50
195.0671622510893997
 51
262.6212858024650245
  0
ARC
  5
7446
  8
0
 10
1.692534766247717
 20
-2.492619502293806
 30
0.0
 40
0.0069598378700921
 50
281.7764453577055974
 51
357.8969138029955843
  0
ARC
  5
7447
  8
0
 10
1.6776787523976959
 20
-2.4896955898755091
 30
0.0
 40
0.0098726280040659
 50
278.7532849424015922
 51
339.3365695405108795
  0
ARC
  5
7448
  8
0
 10
1.614661373479066
 20
-2.4908569163247019
 30
0.0
 40
0.0087436738412625
 50
276.7020011593716049
 51
344.5961400416264269
  0
ARC
  5
7449
  8
0
 10
1.5803553565524451
 20
-2.4859991551983138
 30
0.0
 40
0.0136666763748703
 50
276.1347578846064152
 51
343.987226315424607
  0
ARC
  5
744A
  8
0
 10
1.493814842842766
 20
-2.4906732141950121
 30
0.0
 40
0.0090362613694729
 50
174.2579136835547047
 51
270.6820249797079896
  0
ARC
  5
744B
  8
0
 10
1.270091580465305
 20
-2.4930638805098511
 30
0.0
 40
0.0069410256654899
 50
180.9537852783180085
 51
267.8456169572170893
  0
ARC
  5
744C
  8
0
 10
1.2557299314980801
 20
-2.4892957992754949
 30
0.0
 40
0.0107046310680536
 50
201.2721436481525927
 51
269.486239307240794
  0
ARC
  5
744D
  8
0
 10
1.1941478260659999
 20
-2.4853653646325848
 30
0.0
 40
0.0148413895490368
 50
197.2608210669475
 51
260.4251281871672745
  0
ARC
  5
744E
  8
0
 10
0.9508461625987366
 20
-2.4933778522175909
 30
0.0
 40
0.0064011340400843
 50
179.7600332222212103
 51
255.4758448694047956
  0
ARC
  5
744F
  8
0
 10
0.9558922693904605
 20
-2.4904943132808759
 30
0.0
 40
0.0091607868912445
 50
197.0441658039482888
 51
263.6484355628631988
  0
ARC
  5
7450
  8
0
 10
1.046715275994756
 20
-2.491733593096924
 30
0.0
 40
0.0082926379855516
 50
274.5584157134342718
 51
349.9591251580883977
  0
ARC
  5
7451
  8
0
 10
0.8734653582368991
 20
-2.4902068030710751
 30
0.0
 40
0.0099358299389979
 50
279.7200050807467164
 51
342.5915468657199199
  0
ARC
  5
7452
  8
0
 10
0.7841282908730137
 20
-2.4908377142540981
 30
0.0
 40
0.009231221256444
 50
194.6949328211123884
 51
262.9935152324995897
  0
ARC
  5
7453
  8
0
 10
0.71021262638169
 20
-2.4888556184550898
 30
0.0
 40
0.0113418653567998
 50
284.2260937893394157
 51
338.7971419737855854
  0
ARC
  5
7454
  8
0
 10
0.6199835462443845
 20
-2.4932452269904379
 30
0.0
 40
0.0069069855062379
 50
181.1078741783180988
 51
257.7595773639582717
  0
ARC
  5
7455
  8
0
 10
0.4139374851852154
 20
-2.4908619939176901
 30
0.0
 40
0.0092045519903625
 50
276.893804744219608
 51
345.4177472022111033
  0
ARC
  5
7456
  8
0
 10
0.2880618652716293
 20
-2.492856906049667
 30
0.0
 40
0.0073350148111823
 50
182.9283023478809866
 51
274.5017786966832887
  0
ARC
  5
7457
  8
0
 10
0.2916925600297873
 20
-2.491932081196381
 30
0.0
 40
0.0082780132293568
 50
188.6663921015498033
 51
264.1063492596405808
  0
ARC
  5
7458
  8
0
 10
0.2990966016777747
 20
-2.4912626719290212
 30
0.0
 40
0.0093160335952716
 50
191.8732463326059872
 51
252.7358411198881072
  0
ARC
  5
7459
  8
0
 10
0.3252331116000278
 20
-2.4892508208628921
 30
0.0
 40
0.010869451015683
 50
201.1883471266964989
 51
270.1094306902036237
  0
LINE
  5
745A
  8
0
 10
-0.7185039369501283
 20
-0.9448818898000013
 30
0.0
 11
-0.7185039369501283
 21
-2.007874015800013
 31
0.0
  0
LINE
  5
745B
  8
0
 10
-0.4960629920501561
 20
-0.0200000000000102
 30
0.0
 11
-0.4960629920501561
 21
-0.5368516878000094
 31
0.0
  0
LINE
  5
745C
  8
0
 10
-0.203861369850074
 20
-0.9448818898000013
 30
0.0
 11
-0.203861369850074
 21
-1.4173228347000011
 31
0.0
  0
LINE
  5
745D
  8
0
 10
-0.1982528779499262
 20
-0.1692913386000043
 30
0.0
 11
-0.1982528779499262
 21
-0.5368516878000094
 31
0.0
  0
LINE
  5
745E
  8
0
 10
0.203861369850074
 20
-1.4173228347000011
 30
0.0
 11
-0.203861369850074
 21
-1.4173228347000011
 31
0.0
  0
LINE
  5
745F
  8
0
 10
0.7185039369501283
 20
-0.9448818898000013
 30
0.0
 11
-0.7185039369501283
 21
-0.9448818898000013
 31
0.0
  0
LINE
  5
7460
  8
0
 10
-0.1982528779499262
 20
-0.1692913386000043
 30
0.0
 11
0.1982528779499262
 21
-0.1692913386000043
 31
0.0
  0
LINE
  5
7461
  8
0
 10
0.4760620796500917
 20
0.0
 30
0.0
 11
-0.4760620796500917
 21
0.0
 31
0.0
  0
ARC
  5
7462
  8
0
 10
-0.267716535641739
 20
-0.5368516880373307
 30
0.0
 40
0.2283464564082713
 50
179.999999940451886
 51
248.0877877554189013
  0
ARC
  5
7463
  8
0
 10
-0.3790551180559305
 20
-0.8136446217045261
 30
0.0
 40
0.0700000000063294
 50
309.3709926363941918
 51
68.0877877300588636
  0
ARC
  5
7464
  8
0
 10
-0.4744560736012318
 20
-0.02160699173551
 30
0.0
 40
0.02166659519367
 50
94.2508681506556201
 51
175.746518075495004
  0
ARC
  5
7465
  8
0
 10
0.0000000000500222
 20
-1.275590551200011
 30
0.0
 40
0.5275590551000001
 50
129.3709891249029056
 51
141.1807458173556995
  0
ARC
  5
7466
  8
0
 10
0.0000000000104592
 20
-0.6240157478101481
 30
0.0
 40
0.4960629919101464
 50
90.0000000011985435
 51
113.5564643235259012
  0
ARC
  5
7467
  8
0
 10
-0.0713439223441128
 20
-0.5235157576166501
 30
0.0
 40
0.1276077193860152
 50
185.9987771315068983
 51
229.7579916263431983
  0
ARC
  5
7468
  8
0
 10
-0.0259387754381351
 20
-0.4566100551236474
 30
0.0
 40
0.2081870713148212
 50
232.1154378768287927
 51
259.8709130148955069
  0
ARC
  5
7469
  8
0
 10
-0.0004864022794209
 20
-0.3606699815688614
 30
0.0
 40
0.3072170459803799
 50
258.3446030576687917
 51
270.0907137563888227
  0
LINE
  5
746A
  8
0
 10
0.7185039369501283
 20
-0.9448818898000013
 30
0.0
 11
0.7185039369501283
 21
-2.007874015800013
 31
0.0
  0
LINE
  5
746B
  8
0
 10
0.4960629920501561
 20
-0.0200000000000102
 30
0.0
 11
0.4960629920501561
 21
-0.5368516878000094
 31
0.0
  0
LINE
  5
746C
  8
0
 10
0.203861369850074
 20
-0.9448818898000013
 30
0.0
 11
0.203861369850074
 21
-1.4173228347000011
 31
0.0
  0
LINE
  5
746D
  8
0
 10
0.1982528779499262
 20
-0.1692913386000043
 30
0.0
 11
0.1982528779499262
 21
-0.5368516878000094
 31
0.0
  0
ARC
  5
746E
  8
0
 10
0.267716535641739
 20
-0.5368516880373307
 30
0.0
 40
0.2283464564082713
 50
291.9122122445810987
 51
0.0000000595481259
  0
ARC
  5
746F
  8
0
 10
0.3790551180554758
 20
-0.8136446217045261
 30
0.0
 40
0.0700000000063294
 50
111.9122122699410937
 51
230.6290073636048135
  0
ARC
  5
7470
  8
0
 10
0.4744560736012318
 20
-0.02160699173551
 30
0.0
 40
0.02166659519367
 50
4.2534819245049951
 51
85.7491318493443657
  0
ARC
  5
7471
  8
0
 10
-0.0000000000500222
 20
-1.275590551200011
 30
0.0
 40
0.5275590551000001
 50
38.8192541826443076
 51
50.6290108750971015
  0
ARC
  5
7472
  8
0
 10
-0.0000000000104592
 20
-0.6240157478101481
 30
0.0
 40
0.4960629919101464
 50
66.4435356764740419
 51
89.9999999988014707
  0
ARC
  5
7473
  8
0
 10
0.0713439223436581
 20
-0.5235157576166501
 30
0.0
 40
0.1276077193860152
 50
310.242008373656688
 51
354.0012228684922775
  0
ARC
  5
7474
  8
0
 10
0.0259387754376803
 20
-0.4566100551236474
 30
0.0
 40
0.2081870713148212
 50
280.1290869851046068
 51
307.8845621231711789
  0
ARC
  5
7475
  8
0
 10
0.0004864022794209
 20
-0.3606699815688614
 30
0.0
 40
0.3072170459803799
 50
269.9092862436111773
 51
281.6553969423312083
  0
LINE
  5
7476
  8
0
 10
0.0539187497997773
 20
-2.4932664548000072
 30
0.0
 11
0.0615777570001228
 21
-2.440944881900009
 31
0.0
  0
ARC
  5
7477
  8
0
 10
0.0438802760154431
 20
-2.4899063764484728
 30
0.0
 40
0.0105858907254507
 50
283.8217395276848833
 51
341.4935737293338889
  0
ENDBLK
  5
747B
  8
0
  0
ENDSEC
  0
SECTION
  2
ENTITIES
  0
ATTDEF
  5
3930
  8
DEFPOINTS
 10
4106.6115382196830979
 20
127.1567045703444023
 30
0.0
 40
0.001
  1
K-15994T-CL
  3

  2
MODELNUMBER
 70
     0
1001
ACDBATTR
1070
     0
1070
     1
  0
ATTDEF
  5
3931
  8
DEFPOINTS
 10
4106.6115382196830979
 20
127.1550379036776945
 30
0.0
 40
0.001
  1
KATALYST
  3

  2
TRADENAME
 70
     0
1001
ACDBATTR
1070
     0
1070
     1
  0
ATTDEF
  5
3932
  8
DEFPOINTS
 10
4106.6115382196830979
 20
127.153371237011001
 30
0.0
 40
0.001
  1
SHOWERHEAD
  3

  2
PRODUCT
 70
     0
1001
ACDBATTR
1070
     0
1070
     1
  0
LINE
  5
6FED
  8
0
 10
4099.6072743311124214
 20
125.151057154440295
 30
0.0
 11
4099.6072743311124214
 21
124.7479075481403044
 31
0.0
  0
LINE
  5
6FEE
  8
0
 10
4099.6371955909107783
 20
124.7179862883401995
 30
0.0
 11
4113.5931011027123532
 21
124.7179862883401995
 31
0.0
  0
LINE
  5
6FEF
  8
0
 10
4113.6230223625134386
 20
125.151057154440295
 30
0.0
 11
4099.6072743311124214
 21
125.151057154440295
 31
0.0
  0
LINE
  5
6FF0
  8
0
 10
4113.6230223625134386
 20
124.7479075481403044
 30
0.0
 11
4113.6230223625134386
 21
125.151057154440295
 31
0.0
  0
ARC
  5
6FF1
  8
0
 10
4099.6371955909107783
 20
124.7479075481403044
 30
0.0
 40
0.0299212598
 50
180.0
 51
270.0
  0
ARC
  5
6FF2
  8
0
 10
4113.5931011027123532
 20
124.7479075481403044
 30
0.0
 40
0.0299212598
 50
270.0
 51
0.0
  0
LINE
  5
6FF3
  8
0
 10
4100.9389475529123956
 20
124.6675447360402984
 30
0.0
 11
4100.9339791083120872
 21
124.7179862883401995
 31
0.0
  0
LINE
  5
6FF4
  8
0
 10
4100.7538177120195542
 20
124.669762967534794
 30
0.0
 11
4100.7491207153116193
 21
124.7179862883401995
 31
0.0
  0
LINE
  5
6FF5
  8
0
 10
4100.6421379163111851
 20
124.6676391237465964
 30
0.0
 11
4100.6372675039119713
 21
124.7179862883401995
 31
0.0
  0
LINE
  5
6FF6
  8
0
 10
4100.5998261452123188
 20
124.7179862883401995
 30
0.0
 11
4100.6046842121149894
 21
124.6676510362070047
 31
0.0
  0
LINE
  5
6FF7
  8
0
 10
4101.5176840222111423
 20
124.6673607719402952
 30
0.0
 11
4101.5125234210108829
 21
124.7179862883401995
 31
0.0
  0
LINE
  5
6FF8
  8
0
 10
4101.1945710515119572
 20
124.6674634674402995
 30
0.0
 11
4101.1895178970107736
 21
124.7179862883401995
 31
0.0
  0
LINE
  5
6FF9
  8
0
 10
4101.0465997777118901
 20
124.6639963968403038
 30
0.0
 11
4101.0555388443108313
 21
124.7179862883401995
 31
0.0
  0
LINE
  5
6FFA
  8
0
 10
4100.8616764296111796
 20
124.6639386243340937
 30
0.0
 11
4100.8706849383115696
 21
124.7179862883401995
 31
0.0
  0
LINE
  5
6FFB
  8
0
 10
4100.7499127466644495
 20
124.6646734860683949
 30
0.0
 11
4100.752694420411899
 21
124.6812956244402955
 31
0.0
  0
LINE
  5
6FFC
  8
0
 10
4101.4058185375133689
 20
124.6666899393403014
 30
0.0
 11
4101.3998664370119513
 21
124.7179862883401995
 31
0.0
  0
LINE
  5
6FFD
  8
0
 10
4101.3415598830133604
 20
124.6667015566403052
 30
0.0
 11
4101.3356203157109121
 21
124.7179862883401995
 31
0.0
  0
LINE
  5
6FFE
  8
0
 10
4101.9042232491119648
 20
124.6672379622403071
 30
0.0
 11
4101.8989335643118466
 21
124.7179862883401995
 31
0.0
  0
LINE
  5
6FFF
  8
0
 10
4101.6624445993120389
 20
124.6648605602402995
 30
0.0
 11
4101.6704455037133812
 21
124.7179862883401995
 31
0.0
  0
LINE
  5
7000
  8
0
 10
4101.5135325815108445
 20
124.664833883938698
 30
0.0
 11
4101.5161654908961282
 21
124.6822575696332933
 31
0.0
  0
LINE
  5
7001
  8
0
 10
4101.6253474574123175
 20
124.6641773514403013
 30
0.0
 11
4101.6340700515120261
 21
124.7179862883401995
 31
0.0
  0
LINE
  5
7002
  8
0
 10
4101.3022283774116659
 20
124.6640762960403066
 30
0.0
 11
4101.3110716692108326
 21
124.7179862883401995
 31
0.0
  0
LINE
  5
7003
  8
0
 10
4101.78584816041257
 20
124.6666212453402949
 30
0.0
 11
4101.779821829211869
 21
124.7179862883401995
 31
0.0
  0
LINE
  5
7004
  8
0
 10
4102.3493279072108635
 20
124.667096608140298
 30
0.0
 11
4102.3438888457112625
 21
124.7179862883401995
 31
0.0
  0
LINE
  5
7005
  8
0
 10
4102.0388175133120967
 20
124.6649280029403002
 30
0.0
 11
4102.0467401788118877
 21
124.7179862883401995
 31
0.0
  0
LINE
  5
7006
  8
0
 10
4101.8935644340108411
 20
124.6649019717402069
 30
0.0
 11
4101.8999936335976599
 21
124.7078161659486994
 31
0.0
  0
LINE
  5
7007
  8
0
 10
4101.7679347147122826
 20
124.6648794604403037
 30
0.0
 11
4101.7759136720123934
 21
124.7179862883401995
 31
0.0
  0
LINE
  5
7008
  8
0
 10
4102.0118934958118189
 20
124.664298332340195
 30
0.0
 11
4102.0204722331118319
 21
124.7179862883401995
 31
0.0
  0
LINE
  5
7009
  8
0
 10
4102.081664508112226
 20
124.6656647154403004
 30
0.0
 11
4102.0740055009118805
 21
124.7179862883401995
 31
0.0
  0
LINE
  5
700A
  8
0
 10
4102.4782400573121777
 20
124.666496138240305
 30
0.0
 11
4102.4720780033112533
 21
124.7179862883401995
 31
0.0
  0
LINE
  5
700B
  8
0
 10
4102.095379108312045
 20
124.666565308740303
 30
0.0
 11
4102.0892921792110428
 21
124.7179862883401995
 31
0.0
  0
LINE
  5
700C
  8
0
 10
4102.8474006841115624
 20
124.6669385157402985
 30
0.0
 11
4102.8417935370116538
 21
124.7179862883401995
 31
0.0
  0
LINE
  5
700D
  8
0
 10
4102.2895680895117039
 20
124.6656647154403004
 30
0.0
 11
4102.2972270967120494
 21
124.7179862883401995
 31
0.0
  0
LINE
  5
700E
  8
0
 10
4102.585959954612008
 20
124.6650260934403036
 30
0.0
 11
4102.5937692043107745
 21
124.7179862883401995
 31
0.0
  0
LINE
  5
700F
  8
0
 10
4102.2030970718133176
 20
124.6649574487402958
 30
0.0
 11
4102.2109856441120428
 21
124.7179862883401995
 31
0.0
  0
LINE
  5
7010
  8
0
 10
4102.4570053264133094
 20
124.6644377605402951
 30
0.0
 11
4102.4654191320123573
 21
124.7179862883401995
 31
0.0
  0
LINE
  5
7011
  8
0
 10
4102.6709343777110917
 20
124.6656647154403004
 30
0.0
 11
4102.6632753705116556
 21
124.7179862883401995
 31
0.0
  0
LINE
  5
7012
  8
0
 10
4102.8012851606108597
 20
124.6657517499402985
 30
0.0
 11
4102.7942953112124087
 21
124.7175284125403039
 31
0.0
  0
LINE
  5
7013
  8
0
 10
4102.8315583865123699
 20
124.6657517499402985
 30
0.0
 11
4102.8245067238121919
 21
124.7179862883401995
 31
0.0
  0
LINE
  5
7014
  8
0
 10
4103.0358664376108209
 20
124.6651067932401986
 30
0.0
 11
4103.043582713212345
 21
124.7179862883401995
 31
0.0
  0
LINE
  5
7015
  8
0
 10
4102.7787718772124208
 20
124.6656647154403004
 30
0.0
 11
4102.7864308844118568
 21
124.7179862883401995
 31
0.0
  0
LINE
  5
7016
  8
0
 10
4102.9550852772108556
 20
124.6645939266402934
 30
0.0
 11
4102.9633154401117281
 21
124.7179862883401995
 31
0.0
  0
LINE
  5
7017
  8
0
 10
4103.0491440793121001
 20
124.6656647154403004
 30
0.0
 11
4103.0425355485122054
 21
124.7108100874401941
 31
0.0
  0
LINE
  5
7018
  8
0
 10
4103.2469073778120219
 20
124.6657517499402985
 30
0.0
 11
4103.2398557151118439
 21
124.7179862883401995
 31
0.0
  0
LINE
  5
7019
  8
0
 10
4103.392178161810989
 20
124.6667657037402961
 30
0.0
 11
4103.3863864741124416
 21
124.7179824514403066
 31
0.0
  0
LINE
  5
701A
  8
0
 10
4103.2081220756117546
 20
124.6657517499402985
 30
0.0
 11
4103.2151737383119325
 21
124.7179862883401995
 31
0.0
  0
LINE
  5
701B
  8
0
 10
4103.3546544461123631
 20
124.6657517499402985
 30
0.0
 11
4103.3617061088116316
 21
124.7179862883401995
 31
0.0
  0
LINE
  5
701C
  8
0
 10
4103.5454290187108199
 20
124.6651982380403041
 30
0.0
 11
4103.5530403043121623
 21
124.7179862883401995
 31
0.0
  0
LINE
  5
701D
  8
0
 10
4103.1569815789116547
 20
124.6656647154403004
 30
0.0
 11
4103.1646405861110907
 21
124.7179862883401995
 31
0.0
  0
LINE
  5
701E
  8
0
 10
4103.6136454675115601
 20
124.6656647154403004
 30
0.0
 11
4103.6213044747119056
 21
124.7179862883401995
 31
0.0
  0
LINE
  5
701F
  8
0
 10
4103.4998695705107821
 20
124.6647649083403024
 30
0.0
 11
4103.5078999800116435
 21
124.7179862883401995
 31
0.0
  0
LINE
  5
7020
  8
0
 10
4103.6186334849116975
 20
124.6657517499402985
 30
0.0
 11
4103.6162464837316293
 21
124.6834332402918051
 31
0.0
  0
LINE
  5
7021
  8
0
 10
4103.8264441152123254
 20
124.6657517499402985
 30
0.0
 11
4103.8193924525121474
 21
124.7179862883401995
 31
0.0
  0
LINE
  5
7022
  8
0
 10
4103.7263805533120831
 20
124.6657517499402985
 30
0.0
 11
4103.7334322159122166
 21
124.7179862883401995
 31
0.0
  0
LINE
  5
7023
  8
0
 10
4103.9341911835108476
 20
124.6657517499402985
 30
0.0
 11
4103.9412428462119351
 21
124.7179862883401995
 31
0.0
  0
LINE
  5
7024
  8
0
 10
4103.9485813699120627
 20
124.6657517499402985
 30
0.0
 11
4103.9555886137122798
 21
124.7176572597403066
 31
0.0
  0
LINE
  5
7025
  8
0
 10
4104.1062806450108837
 20
124.6652989407402998
 30
0.0
 11
4104.1137767564123351
 21
124.7179862883401995
 31
0.0
  0
LINE
  5
7026
  8
0
 10
4103.8200012494107796
 20
124.6652475313402988
 30
0.0
 11
4103.8233532454123633
 21
124.6886470818403012
 31
0.0
  0
LINE
  5
7027
  8
0
 10
4104.0845071000121607
 20
124.6649485925402985
 30
0.0
 11
4104.0923244348114167
 21
124.7179862883401995
 31
0.0
  0
LINE
  5
7028
  8
0
 10
4104.4136684477116432
 20
124.6657517499402985
 30
0.0
 11
4104.4066167850123747
 21
124.7179862883401995
 31
0.0
  0
LINE
  5
7029
  8
0
 10
4103.9768095763120073
 20
124.6665803773402956
 30
0.0
 11
4103.9708176390113294
 21
124.7179862883401995
 31
0.0
  0
LINE
  5
702A
  8
0
 10
4104.1926855739120583
 20
124.6657517499421033
 30
0.0
 11
4104.1997372366122363
 21
124.7179862883401995
 31
0.0
  0
LINE
  5
702B
  8
0
 10
4104.2958247432115968
 20
124.6657517499402985
 30
0.0
 11
4104.3028764059108653
 21
124.7179862883401995
 31
0.0
  0
LINE
  5
702C
  8
0
 10
4104.3683863489113719
 20
124.6657517499402985
 30
0.0
 11
4104.3754380116115499
 21
124.7179862883401995
 31
0.0
  0
LINE
  5
702D
  8
0
 10
4104.5214155160110749
 20
124.6657517499319994
 30
0.0
 11
4104.5284671787121624
 21
124.7179862883401995
 31
0.0
  0
LINE
  5
702E
  8
0
 10
4104.1385624263120917
 20
124.6656647154403004
 30
0.0
 11
4104.1462214335124372
 21
124.7179862883401995
 31
0.0
  0
LINE
  5
702F
  8
0
 10
4104.563279196012445
 20
124.6657517499402985
 30
0.0
 11
4104.556227533312267
 21
124.7179862883401995
 31
0.0
  0
LINE
  5
7030
  8
0
 10
4104.9282320780121154
 20
124.6657517499402985
 30
0.0
 11
4104.9211804153119374
 21
124.7179862883401995
 31
0.0
  0
LINE
  5
7031
  8
0
 10
4104.9156584307111189
 20
124.6660562590403032
 30
0.0
 11
4104.9090178531123456
 21
124.7179536877403052
 31
0.0
  0
LINE
  5
7032
  8
0
 10
4104.5939429633108375
 20
124.6663848985403007
 30
0.0
 11
4104.5877386327110798
 21
124.7179862883401995
 31
0.0
  0
LINE
  5
7033
  8
0
 10
4104.7385820810122823
 20
124.6657517499402985
 30
0.0
 11
4104.7456337437115508
 21
124.7179862883401995
 31
0.0
  0
LINE
  5
7034
  8
0
 10
4104.776460317110832
 20
124.6657517499402985
 30
0.0
 11
4104.783511979711875
 21
124.7179862883401995
 31
0.0
  0
LINE
  5
7035
  8
0
 10
4104.8652689332120644
 20
124.6657517499402985
 30
0.0
 11
4104.8723205959113329
 21
124.7179862883401995
 31
0.0
  0
LINE
  5
7036
  8
0
 10
4104.7092121021123603
 20
124.6654072608401975
 30
0.0
 11
4104.716584846511978
 21
124.7179862883401995
 31
0.0
  0
LINE
  5
7037
  8
0
 10
4104.7016455946113638
 20
124.6651426995401977
 30
0.0
 11
4104.7092394621122367
 21
124.7179862883401995
 31
0.0
  0
LINE
  5
7038
  8
0
 10
4104.7200066779123517
 20
124.6656647154403004
 30
0.0
 11
4104.7276918073121124
 21
124.718164738740299
 31
0.0
  0
LINE
  5
7039
  8
0
 10
4100.6122470097216137
 20
124.6605382565392972
 30
0.0
 11
4100.7042888722216958
 21
124.657324083840507
 31
0.0
  0
LINE
  5
703A
  8
0
 10
4104.992057394011681
 20
124.6657517499402985
 30
0.0
 11
4104.9850057313124125
 21
124.7179862883401995
 31
0.0
  0
LINE
  5
703B
  8
0
 10
4105.0216565779110169
 20
124.6691620397402005
 30
0.0
 11
4105.0150653043119746
 21
124.7179862883401995
 31
0.0
  0
LINE
  5
703C
  8
0
 10
4105.2358176077123062
 20
124.6661817550402986
 30
0.0
 11
4105.2293907696121096
 21
124.7179862883401995
 31
0.0
  0
LINE
  5
703D
  8
0
 10
4105.1303244245118549
 20
124.6691620397402005
 30
0.0
 11
4105.1369156980108528
 21
124.7179862883401995
 31
0.0
  0
LINE
  5
703E
  8
0
 10
4105.3519968303116912
 20
124.6657517499402985
 30
0.0
 11
4105.3590484930118691
 21
124.7179862883401995
 31
0.0
  0
LINE
  5
703F
  8
0
 10
4105.3693937155121603
 20
124.6657517499402985
 30
0.0
 11
4105.3764453782123383
 21
124.7179862883401995
 31
0.0
  0
LINE
  5
7040
  8
0
 10
4105.4351735123118488
 20
124.6691620397402005
 30
0.0
 11
4105.4417647859108911
 21
124.7179862883401995
 31
0.0
  0
LINE
  5
7041
  8
0
 10
4105.3435240824119319
 20
124.6653448108402955
 30
0.0
 11
4105.3508871097119481
 21
124.7179862883401995
 31
0.0
  0
LINE
  5
7042
  8
0
 10
4101.3492589524121286
 20
124.6597351493403067
 30
0.0
 11
4101.4402569042122195
 21
124.6581523868402996
 31
0.0
  0
LINE
  5
7043
  8
0
 10
4105.5602674460124035
 20
124.6657517499402985
 30
0.0
 11
4105.5532157833122255
 21
124.7179862883401995
 31
0.0
  0
LINE
  5
7044
  8
0
 10
4105.7322022574117
 20
124.6657517499402985
 30
0.0
 11
4105.725150594713341
 21
124.7179862883401995
 31
0.0
  0
LINE
  5
7045
  8
0
 10
4105.6680145143118352
 20
124.6657517499402985
 30
0.0
 11
4105.6750661770120132
 21
124.7179862883401995
 31
0.0
  0
LINE
  5
7046
  8
0
 10
4105.8399493257111317
 20
124.6657517499402985
 30
0.0
 11
4105.8470009884122192
 21
124.7179862883401995
 31
0.0
  0
LINE
  5
7047
  8
0
 10
4106.0020704949120045
 20
124.6655523977402993
 30
0.0
 11
4106.0091983705133316
 21
124.7179862883401995
 31
0.0
  0
LINE
  5
7048
  8
0
 10
4105.6707032621116014
 20
124.6655801272403039
 30
0.0
 11
4105.6779148923133107
 21
124.718239347740294
 31
0.0
  0
LINE
  5
7049
  8
0
 10
4106.1923028140117822
 20
124.6657517499402985
 30
0.0
 11
4106.1852511513116042
 21
124.7179862883401995
 31
0.0
  0
LINE
  5
704A
  8
0
 10
4105.894361634012057
 20
124.6659735271402951
 30
0.0
 11
4105.8877048174108495
 21
124.7179862883401995
 31
0.0
  0
LINE
  5
704B
  8
0
 10
4106.3344119186122043
 20
124.6656995456402939
 30
0.0
 11
4106.3414876158121842
 21
124.7182325640403064
 31
0.0
  0
LINE
  5
704C
  8
0
 10
4106.3000498823121234
 20
124.6657517499402985
 30
0.0
 11
4106.3071015450123014
 21
124.7179862883401995
 31
0.0
  0
LINE
  5
704D
  8
0
 10
4106.3251684637116341
 20
124.6657517499402985
 30
0.0
 11
4106.3322201264118121
 21
124.7179862883401995
 31
0.0
  0
LINE
  5
704E
  8
0
 10
4106.3316392853121215
 20
124.6657517499402985
 30
0.0
 11
4106.3386909479122551
 21
124.7179862883401995
 31
0.0
  0
LINE
  5
704F
  8
0
 10
4106.5612295970122432
 20
124.6656647154403004
 30
0.0
 11
4106.5535705898118977
 21
124.7179862883401995
 31
0.0
  0
ARC
  5
7050
  8
0
 10
4100.704563671411961
 20
124.6651933029402954
 30
0.0
 40
0.0078740157
 50
267.9999999783053113
 51
301.6631786809924165
  0
ARC
  5
7051
  8
0
 10
4100.6125218089109694
 20
124.6684074756401941
 30
0.0
 40
0.0078740157
 50
185.5127818179383894
 51
267.9999999783053113
  0
ARC
  5
7052
  8
0
 10
4100.6499432963837535
 20
124.6683787615646963
 30
0.0
 40
0.0078403457949986
 50
185.4131842136766863
 51
270.2483803860719149
  0
ARC
  5
7053
  8
0
 10
4100.7416589379008656
 20
124.6656590575847048
 30
0.0
 40
0.0083124431014178
 50
268.706321269984187
 51
353.1906616006994
  0
LINE
  5
7054
  8
0
 10
4100.7414712675836199
 20
124.6573487332728973
 30
0.0
 11
4100.6499772846127598
 21
124.6605384894401993
 31
0.0
  0
LINE
  5
7055
  8
0
 10
4100.8536404946098628
 20
124.6573634816959952
 30
0.0
 11
4100.7627297161097886
 21
124.6605384894402988
 31
0.0
  0
LINE
  5
7056
  8
0
 10
4100.9471488755689279
 20
124.6603255601196025
 30
0.0
 11
4101.0385714678186559
 21
124.6574138809936017
 31
0.0
  0
LINE
  5
7057
  8
0
 10
4101.2009346517234007
 20
124.6604815562308062
 30
0.0
 11
4101.294210753416337
 21
124.6574828222162949
 31
0.0
  0
LINE
  5
7058
  8
0
 10
4101.4140768072120409
 20
124.6597351493403067
 30
0.0
 11
4101.5050274123123017
 21
124.6581271920402969
 31
0.0
  0
LINE
  5
7059
  8
0
 10
4101.5252849794151189
 20
124.6602893808776003
 30
0.0
 11
4101.6173422360279801
 21
124.6575702183108945
 31
0.0
  0
LINE
  5
705A
  8
0
 10
4101.6543695823120288
 20
124.6581443426402984
 30
0.0
 11
4101.6208209240730866
 21
124.6584847853013969
 31
0.0
  0
LINE
  5
705B
  8
0
 10
4101.6591260675695594
 20
124.6597764643629063
 30
0.0
 11
4101.7573135447119057
 21
124.6581261082401966
 31
0.0
  0
LINE
  5
705C
  8
0
 10
4101.7943218786022044
 20
124.6595891340710978
 30
0.0
 11
4101.8856517833610269
 21
124.6581966115702045
 31
0.0
  0
LINE
  5
705D
  8
0
 10
4101.9111297524614201
 20
124.6601513496279949
 30
0.0
 11
4102.0046609524988526
 21
124.657605663093193
 31
0.0
  0
LINE
  5
705E
  8
0
 10
4102.0316734655980326
 20
124.658229441145096
 30
0.0
 11
4102.0072885164909167
 21
124.6582478130817009
 31
0.0
  0
LINE
  5
705F
  8
0
 10
4102.0894563231122447
 20
124.6589311702401943
 30
0.0
 11
4102.1467691547413779
 21
124.6589311702401943
 31
0.0
  0
LINE
  5
7060
  8
0
 10
4102.103456293490126
 20
124.6595466525613034
 30
0.0
 11
4102.1951910870684515
 21
124.6582430872451965
 31
0.0
  0
LINE
  5
7061
  8
0
 10
4102.2817771043119137
 20
124.6589311702401943
 30
0.0
 11
4102.1984106060981503
 21
124.6589311702401943
 31
0.0
  0
LINE
  5
7062
  8
0
 10
4102.3573865011940143
 20
124.6598348894977022
 30
0.0
 11
4102.4490326539371381
 21
124.6577947205856987
 31
0.0
  0
LINE
  5
7063
  8
0
 10
4102.4860483247493903
 20
124.6594931347987938
 30
0.0
 11
4102.5787544284494288
 21
124.6594931347987938
 31
0.0
  0
LINE
  5
7064
  8
0
 10
4102.4796739570119826
 20
124.6589311702401943
 30
0.0
 11
4102.4530515128190018
 21
124.6589311702401943
 31
0.0
  0
LINE
  5
7065
  8
0
 10
4102.6787253629117913
 20
124.6589311702401943
 30
0.0
 11
4102.7709796118124359
 21
124.6589311702401943
 31
0.0
  0
LINE
  5
7066
  8
0
 10
4102.7933908585973768
 20
124.6582061474281033
 30
0.0
 11
4102.7453219843973784
 21
124.6582061474281033
 31
0.0
  0
LINE
  5
7067
  8
0
 10
4102.8090883905124429
 20
124.6589311702401943
 30
0.0
 11
4102.8585839854122241
 21
124.6589311702401943
 31
0.0
  0
LINE
  5
7068
  8
0
 10
4102.8553457539355804
 20
124.6597857852931952
 30
0.0
 11
4102.9471321504288426
 21
124.6579289110339062
 31
0.0
  0
LINE
  5
7069
  8
0
 10
4102.9505854807812284
 20
124.6588094057731979
 30
0.0
 11
4103.0291060022218517
 21
124.658415139753501
 31
0.0
  0
LINE
  5
706A
  8
0
 10
4103.0563702522122185
 20
124.6589311702401943
 30
0.0
 11
4103.1491905936118201
 21
124.6589311702401943
 31
0.0
  0
LINE
  5
706B
  8
0
 10
4103.2011903344937309
 20
124.6587729693250992
 30
0.0
 11
4103.1517885785069666
 21
124.659362569255407
 31
0.0
  0
LINE
  5
706C
  8
0
 10
4103.2547106076108321
 20
124.6589311702401943
 30
0.0
 11
4103.34685121621078
 21
124.6589311702401943
 31
0.0
  0
LINE
  5
706D
  8
0
 10
4103.2037455389581737
 20
124.6593317306247997
 30
0.0
 11
4103.246736373414933
 21
124.6581699868271045
 31
0.0
  0
LINE
  5
706E
  8
0
 10
4103.3998560838981575
 20
124.6597861990359064
 30
0.0
 11
4103.491937701882307
 21
124.6580750923174037
 31
0.0
  0
ARC
  5
706F
  8
0
 10
4100.7628278617594333
 20
124.6695506069903985
 30
0.0
 40
0.009012651957403
 50
178.6498436710982958
 51
269.3760501732513717
  0
ARC
  5
7070
  8
0
 10
4100.8540282242802277
 20
124.6650878168773033
 30
0.0
 40
0.0077340602719575
 50
267.1264007554555064
 51
351.4548621105709003
  0
ARC
  5
7071
  8
0
 10
4100.9458496634224502
 20
124.6671177258282057
 30
0.0
 40
0.0069153067332389
 50
176.4598161388205142
 51
280.8287881996129158
  0
ARC
  5
7072
  8
0
 10
4101.0381685377169561
 20
124.6660923994140973
 30
0.0
 40
0.0086878670939893
 50
272.6582449242783923
 51
346.0393005906029202
  0
ARC
  5
7073
  8
0
 10
4101.2015202744050839
 20
124.6674062954699025
 30
0.0
 40
0.0069494580692208
 50
179.5286323732802032
 51
265.1660190880878076
  0
ARC
  5
7074
  8
0
 10
4101.2945119172527484
 20
124.6652880367008009
 30
0.0
 40
0.0078110225198749
 50
267.7903411599647256
 51
351.0755398230390938
  0
ARC
  5
7075
  8
0
 10
4101.3490920545846166
 20
124.6672882954491968
 30
0.0
 40
0.0075549898099531
 50
184.4542142624385122
 51
271.2658281892514083
  0
ARC
  5
7076
  8
0
 10
4101.4146190176215896
 20
124.6687594018318066
 30
0.0
 40
0.0090405268186575
 50
193.2328780780927104
 51
266.5615916504842176
  0
ARC
  5
7077
  8
0
 10
4101.4403064929128959
 20
124.6603781404305948
 30
0.0
 40
0.0022263059277502
 50
268.7236892236371091
 51
329.1833304663136914
  0
ARC
  5
7078
  8
0
 10
4101.5059280169098201
 20
124.6657313903468065
 30
0.0
 40
0.0076573442216347
 50
263.2456277007162271
 51
353.2689712429660176
  0
ARC
  5
7079
  8
0
 10
4101.5254557141761325
 20
124.6680936881358974
 30
0.0
 40
0.0078061746162555
 50
185.3873951015447972
 51
268.7467406513468973
  0
ARC
  5
707A
  8
0
 10
4101.6169255720069486
 20
124.6662281907494929
 30
0.0
 40
0.0086679925965247
 50
272.7552276816281278
 51
346.3140965694191777
  0
ARC
  5
707B
  8
0
 10
4101.654097670468218
 20
124.666683737188194
 30
0.0
 40
0.0085437225667065
 50
271.8237989502241021
 51
347.6786911468013272
  0
ARC
  5
707C
  8
0
 10
4101.7583624092976606
 20
124.668205301203102
 30
0.0
 40
0.0101336196743002
 50
264.0590493014574918
 51
340.840519914367917
  0
ARC
  5
707D
  8
0
 10
4101.7936273458308278
 20
124.6673737050707018
 30
0.0
 40
0.0078154923977567
 50
185.5248792055012075
 51
275.0983812851778794
  0
ARC
  5
707E
  8
0
 10
4101.8861087213253995
 20
124.6656787386915965
 30
0.0
 40
0.0074960668729853
 50
266.5052529579696738
 51
354.0521470251828191
  0
ARC
  5
707F
  8
0
 10
4101.9121645244058527
 20
124.6680686145315065
 30
0.0
 40
0.0079845999604948
 50
185.9713871853246872
 51
262.5537546328454823
  0
ARC
  5
7080
  8
0
 10
4102.0041437159907218
 20
124.6654189414326055
 30
0.0
 40
0.0078303800683747
 50
273.787435915743572
 51
351.772126103823723
  0
ARC
  5
7081
  8
0
 10
4102.0319524885280771
 20
124.6650907230455942
 30
0.0
 40
0.0068669529715453
 50
267.6712759284598064
 51
358.6421855458830237
  0
ARC
  5
7082
  8
0
 10
4102.0903249121038243
 20
124.667811245882703
 30
0.0
 40
0.0089224542730252
 50
193.9205526142939107
 51
264.413484991972382
  0
ARC
  5
7083
  8
0
 10
4102.1041009450973434
 20
124.6684455352372964
 30
0.0
 40
0.0089222020025957
 50
192.1654697004198056
 51
265.8566249908133159
  0
ARC
  5
7084
  8
0
 10
4102.1951523409734364
 20
124.6663004354533939
 30
0.0
 40
0.0080574413686423
 50
270.275521244463107
 51
350.4053561396930263
  0
ARC
  5
7085
  8
0
 10
4102.2818528706529833
 20
124.666717521214494
 30
0.0
 40
0.0077867195938013
 50
269.4424917901387744
 51
352.2295083283351005
  0
ARC
  5
7086
  8
0
 10
4102.3575385877238659
 20
124.6681059825894948
 30
0.0
 40
0.0082724912357989
 50
187.0084531348487076
 51
268.9465800557854891
  0
ARC
  5
7087
  8
0
 10
4102.448847945266607
 20
124.6661221377355986
 30
0.0
 40
0.0083294653898972
 50
271.2706571521666206
 51
348.3332425483047814
  0
ARC
  5
7088
  8
0
 10
4102.4857186961526168
 20
124.6669801681831018
 30
0.0
 40
0.0074942860839961
 50
183.7031132471385035
 51
272.520910192565907
  0
ARC
  5
7089
  8
0
 10
4102.4798916918589384
 20
124.6619353767490992
 30
0.0
 40
0.0030120865212645
 50
265.8546415981218729
 51
326.2620651837337959
  0
ARC
  5
708A
  8
0
 10
4102.5790157295296012
 20
124.666611172376804
 30
0.0
 40
0.0071228321064858
 50
267.8976327115888125
 51
347.1420346679220756
  0
ARC
  5
708B
  8
0
 10
4102.6799257103275522
 20
124.6681940366452039
 30
0.0
 40
0.0093403173368476
 50
195.7116429934119139
 51
262.6163568881215724
  0
ARC
  5
708C
  8
0
 10
4102.7710994169010519
 20
124.666668025183796
 30
0.0
 40
0.0077377824780123
 50
269.1128465770742082
 51
352.5498389602697102
  0
ARC
  5
708D
  8
0
 10
4102.809406519062577
 20
124.6671691477794042
 30
0.0
 40
0.0082441178854761
 50
189.899958153439087
 51
267.7884899001149961
  0
ARC
  5
708E
  8
0
 10
4102.7936042116034514
 20
124.6690867416436959
 30
0.0
 40
0.0108826857893889
 50
268.8766550618303199
 51
324.3658771669498719
  0
ARC
  5
708F
  8
0
 10
4102.7453435628003717
 20
124.6610871377496039
 30
0.0
 40
0.0028810711307026
 50
228.4451906616251051
 51
269.5708668764324898
  0
ARC
  5
7090
  8
0
 10
4102.8392211879554452
 20
124.6662998057299063
 30
0.0
 40
0.0076823753556905
 50
184.0909196094503102
 51
253.5690027047384945
  0
ARC
  5
7091
  8
0
 10
4102.8555048350517609
 20
124.667951443804796
 30
0.0
 40
0.00816720795191
 50
187.124384253859688
 51
268.883920543179272
  0
ARC
  5
7092
  8
0
 10
4102.8586971606036968
 20
124.6608045058698053
 30
0.0
 40
0.0018767511835626
 50
266.5427502935846746
 51
323.4735478400033912
  0
ARC
  5
7093
  8
0
 10
4102.9468150430666356
 20
124.6663849038938991
 30
0.0
 40
0.008461936677037
 50
272.1476370529861128
 51
347.7808781060277283
  0
ARC
  5
7094
  8
0
 10
4103.0289646387473113
 20
124.665318745156398
 30
0.0
 40
0.0069050525841669
 50
271.173068019577272
 51
358.2410187455038795
  0
ARC
  5
7095
  8
0
 10
4103.0575249813309711
 20
124.6674145728831036
 30
0.0
 40
0.0085616306706562
 50
191.7934216880125859
 51
262.2487487836430091
  0
ARC
  5
7096
  8
0
 10
4103.1492244088085499
 20
124.666766060507598
 30
0.0
 40
0.0078349632397514
 50
269.7527143380120265
 51
351.9192850528173722
  0
ARC
  5
7097
  8
0
 10
4103.2009640405713071
 20
124.6659296375948998
 30
0.0
 40
0.0071602450840651
 50
271.8110896997965824
 51
358.5764089816977958
  0
ARC
  5
7098
  8
0
 10
4103.2539731414590278
 20
124.6659614720074956
 30
0.0
 40
0.0070688753889891
 50
181.7001223196120065
 51
275.9883250063106743
  0
ARC
  5
7099
  8
0
 10
4103.2473298850145511
 20
124.6632263540531937
 30
0.0
 40
0.0050910809799474
 50
263.3053095903438816
 51
314.5135585399351044
  0
ARC
  5
709A
  8
0
 10
4103.346848240563304
 20
124.666808590371005
 30
0.0
 40
0.0078774206927326
 50
270.0216431422805954
 51
352.2899088041436926
  0
ARC
  5
709B
  8
0
 10
4103.4002662646862518
 20
124.6679502916593947
 30
0.0
 40
0.0081743902918882
 50
188.332329786321111
 51
267.1237608155252019
  0
ARC
  5
709C
  8
0
 10
4103.4908984398689427
 20
124.6673544773920952
 30
0.0
 40
0.0093374007570716
 50
276.3903177741797776
 51
343.8989078917272195
  0
LINE
  5
709D
  8
0
 10
4103.4932060692008235
 20
124.6583067207775031
 30
0.0
 11
4103.5375531671197677
 21
124.6584516908715017
 31
0.0
  0
LINE
  5
709E
  8
0
 10
4103.6058544822117256
 20
124.6589311702401943
 30
0.0
 11
4103.5402429173309429
 21
124.6589311702401943
 31
0.0
  0
LINE
  5
709F
  8
0
 10
4103.6264367148123711
 20
124.6589311702401943
 30
0.0
 11
4103.7185630039111857
 21
124.6589311702401943
 31
0.0
  0
LINE
  5
70A0
  8
0
 10
4103.8088329470119788
 20
124.6582677822342049
 30
0.0
 11
4103.7194732319067043
 21
124.6590329754504012
 31
0.0
  0
LINE
  5
70A1
  8
0
 10
4103.8342473451120895
 20
124.6589311702401943
 30
0.0
 11
4103.9407781400122985
 21
124.6589311702401943
 31
0.0
  0
ARC
  5
70A2
  8
0
 10
4104.0424135246958031
 20
125.499020654507305
 30
0.0
 40
0.8416247605651868
 50
266.0525415942174732
 51
272.3894910103908273
  0
ARC
  5
70A3
  8
0
 10
4104.08474639787255
 20
124.8557227015509028
 30
0.0
 40
0.1976602073513116
 50
267.9841912794398127
 51
274.4145192313549728
  0
LINE
  5
70A4
  8
0
 10
4104.1307714411123015
 20
124.6589311702401943
 30
0.0
 11
4104.1012862092366049
 21
124.6589311702401943
 31
0.0
  0
LINE
  5
70A5
  8
0
 10
4104.131943250448785
 20
124.6589311702401943
 30
0.0
 11
4104.1848731794107152
 21
124.6589311702401943
 31
0.0
  0
LINE
  5
70A6
  8
0
 10
4104.186330296612141
 20
124.6589311702401943
 30
0.0
 11
4104.2880071939116533
 21
124.6589311702401943
 31
0.0
  0
LINE
  5
70A7
  8
0
 10
4104.2880071939116533
 20
124.6589311702401943
 30
0.0
 11
4104.3605822998124495
 21
124.6589311702401943
 31
0.0
  0
LINE
  5
70A8
  8
0
 10
4104.4214716775122724
 20
124.6589311702401943
 30
0.0
 11
4104.5135235559182547
 21
124.6589311702401943
 31
0.0
  0
LINE
  5
70A9
  8
0
 10
4104.5710824259122091
 20
124.6589311702401943
 30
0.0
 11
4104.6089684274747924
 21
124.6589311702401943
 31
0.0
  0
ARC
  5
70AA
  8
0
 10
4104.655806966833552
 20
125.3573688128185069
 30
0.0
 40
0.7000064209273122
 50
265.5644249013917033
 51
273.2575849120656812
  0
ARC
  5
70AB
  8
0
 10
4104.6959068336309429
 20
124.7060997736101058
 30
0.0
 40
0.0477990571342735
 50
266.9255587980513269
 51
279.3160775465016172
  0
LINE
  5
70AC
  8
0
 10
4104.7036445800122237
 20
124.6589311702401943
 30
0.0
 11
4104.8574657033123003
 21
124.6589311702401943
 31
0.0
  0
LINE
  5
70AD
  8
0
 10
4104.9211931220852421
 20
124.6594983250895012
 30
0.0
 11
4105.1212259426347373
 21
124.6592223348659019
 31
0.0
  0
LINE
  5
70AE
  8
0
 10
4105.4234691826122798
 20
124.6589311702401943
 30
0.0
 11
4105.3380425366212876
 21
124.6589311702401943
 31
0.0
  0
ARC
  5
70AF
  8
0
 10
4105.243772802174135
 20
124.6671922920994007
 30
0.0
 40
0.0080191211654799
 50
187.2394292951699128
 51
269.4263758134645741
  0
ARC
  5
70B0
  8
0
 10
4105.2942185427391451
 20
125.3561217726788044
 30
0.0
 40
0.6987772694915236
 50
265.853533678999213
 51
273.4003722163917018
  0
ARC
  5
70B1
  8
0
 10
4105.3356889452061296
 20
124.6665228214775993
 30
0.0
 40
0.0079481168241145
 50
269.8275300819497033
 51
353.8848341013406866
  0
LINE
  5
70B2
  8
0
 10
4105.567774009612549
 20
124.6589311702401943
 30
0.0
 11
4105.6659075127117831
 21
124.6593567514402991
 31
0.0
  0
LINE
  5
70B3
  8
0
 10
4105.7400054873123736
 20
124.6589311702401943
 30
0.0
 11
4105.8321460958131865
 21
124.6589311702401943
 31
0.0
  0
ARC
  5
70B4
  8
0
 10
4105.9504072106756212
 20
125.3201898511074006
 30
0.0
 40
0.662867374463363
 50
265.8250010654195989
 51
273.9984991928228055
  0
LINE
  5
70B5
  8
0
 10
4106.2001060439115463
 20
124.6589311702401943
 30
0.0
 11
4106.3265107559045646
 21
124.6587618786515037
 31
0.0
  0
ARC
  5
70B6
  8
0
 10
4106.6135422838187878
 20
125.4654206071115965
 30
0.0
 40
0.8081029087489392
 50
266.9621462628243762
 51
273.4063693727678128
  0
ARC
  5
70B7
  8
0
 10
4103.5375112429037472
 20
124.6664710014972002
 30
0.0
 40
0.0080194202129495
 50
270.2995343143875857
 51
350.867962829904684
  0
ARC
  5
70B8
  8
0
 10
4103.6051856285630492
 20
124.667579076903607
 30
0.0
 40
0.0086737336171573
 50
274.4226136852382183
 51
347.2493857056093134
  0
ARC
  5
70B9
  8
0
 10
4103.6259781821636352
 20
124.6662805919457071
 30
0.0
 40
0.00736371180812
 50
184.1183744348068956
 51
273.5700736187602047
  0
ARC
  5
70BA
  8
0
 10
4103.7180792921290049
 20
124.667375999906497
 30
0.0
 40
0.008458671596724
 50
273.2782654865649192
 51
348.9291980129085005
  0
ARC
  5
70BB
  8
0
 10
4103.8095724061859073
 20
124.6695096525634057
 30
0.0
 40
0.0112661638709633
 50
266.2366632024812816
 51
337.7708574931738781
  0
ARC
  5
70BC
  8
0
 10
4103.8337847980583319
 20
124.6662759991791063
 30
0.0
 40
0.0073593791802063
 50
184.0849547592517013
 51
273.6034932943063041
  0
ARC
  5
70BD
  8
0
 10
4103.925983016909413
 20
124.6672671886778971
 30
0.0
 40
0.0083468888554187
 50
272.9244592714098872
 51
349.5395177896098176
  0
ARC
  5
70BE
  8
0
 10
4103.9391213489770962
 20
124.6687006731901022
 30
0.0
 40
0.009908993108251
 50
279.625104182560392
 51
342.686447763911417
  0
ARC
  5
70BF
  8
0
 10
4103.9879953513200235
 20
124.6708279716039982
 30
0.0
 40
0.0119651000654981
 50
200.7933610961987938
 51
252.8877463081601888
  0
ARC
  5
70C0
  8
0
 10
4104.0759677243686383
 20
124.6667107901229059
 30
0.0
 40
0.0087193048293065
 50
280.1405733157744748
 51
348.3400367880312274
  0
ARC
  5
70C1
  8
0
 10
4104.0991398051673968
 20
124.6657571892060048
 30
0.0
 40
0.0071555283071459
 50
276.5870735411463102
 51
356.3281979895548943
  0
ARC
  5
70C2
  8
0
 10
4104.1313573457800885
 20
124.6661272704572951
 30
0.0
 40
0.0072199129228841
 50
265.3452596321913006
 51
356.3267404862982062
  0
ARC
  5
70C3
  8
0
 10
4104.1856017380123376
 20
124.6659811751591036
 30
0.0
 40
0.007087550140117
 50
264.0999078118198895
 51
358.1450017142416868
  0
ARC
  5
70C4
  8
0
 10
4104.2873805889148571
 20
124.6675397798150016
 30
0.0
 40
0.0086313841666927
 50
274.1631134765394222
 51
348.0443507491473838
  0
ARC
  5
70C5
  8
0
 10
4104.3596975335003663
 20
124.667818465353804
 30
0.0
 40
0.0089312275674521
 50
275.6852945228254725
 51
346.6202968171248813
  0
ARC
  5
70C6
  8
0
 10
4104.4217013403467718
 20
124.6670679365700067
 30
0.0
 40
0.008140006837931
 50
189.3052097947249877
 51
268.3832375312113072
  0
ARC
  5
70C7
  8
0
 10
4104.5137906715917779
 20
124.6665982024920964
 30
0.0
 40
0.0076716839309976
 50
268.0046499559168183
 51
353.6653929821075053
  0
ARC
  5
70C8
  8
0
 10
4104.5706978601647279
 20
124.6663652153592068
 30
0.0
 40
0.0074439853333655
 50
184.7271570166523986
 51
272.961291036908392
  0
ARC
  5
70C9
  8
0
 10
4104.6026745971794298
 20
124.6683530991375051
 30
0.0
 40
0.0089507119036204
 50
192.7027596349072098
 51
263.5545166059130793
  0
ARC
  5
70CA
  8
0
 10
4104.694663691140704
 20
124.6654199190370065
 30
0.0
 40
0.0069874048628191
 50
277.5750235165633057
 51
357.7262406709750167
  0
ARC
  5
70CB
  8
0
 10
4104.7004010371374534
 20
124.6673509138628049
 30
0.0
 40
0.0090228960452188
 50
291.0682114286667002
 51
347.5602163031869054
  0
ARC
  5
70CC
  8
0
 10
4104.7121618639976077
 20
124.6668376367786948
 30
0.0
 40
0.0079320142338975
 50
274.5997940581052035
 51
351.4963848163421858
  0
ARC
  5
70CD
  8
0
 10
4104.7315928138759773
 20
124.6657962151266048
 30
0.0
 40
0.0069894085764664
 50
280.8245607709582146
 51
359.6354935226693215
  0
ARC
  5
70CE
  8
0
 10
4104.7693982996688646
 20
124.6659955240612021
 30
0.0
 40
0.0070662236151081
 50
271.3181062638038838
 51
358.0229892180083766
  0
ARC
  5
70CF
  8
0
 10
4104.8562686736504475
 20
124.6681746733704017
 30
0.0
 40
0.0093206882861509
 50
277.3787141975349186
 51
344.9328377489130162
  0
ARC
  5
70D0
  8
0
 10
4104.9226135805647573
 20
124.666311667946502
 30
0.0
 40
0.0069598378700921
 50
182.1030861970043873
 51
258.2235546422940047
  0
ARC
  5
70D1
  8
0
 10
4104.9374695944143241
 20
124.6692355803647985
 30
0.0
 40
0.0098726280040659
 50
200.6634304595013134
 51
261.2467150575985784
  0
ARC
  5
70D2
  8
0
 10
4105.0004869733329542
 20
124.6680742539156057
 30
0.0
 40
0.0087436738412625
 50
195.403859958381986
 51
263.2979988406025882
  0
ARC
  5
70D3
  8
0
 10
4105.0347929902591204
 20
124.6729320150419937
 30
0.0
 40
0.0136666763748703
 50
196.0127736845784909
 51
263.8652421153676073
  0
ARC
  5
70D4
  8
0
 10
4105.1213335039683443
 20
124.668257956045295
 30
0.0
 40
0.0090362613694729
 50
269.3179750203181015
 51
5.7420863164445013
  0
ARC
  5
70D5
  8
0
 10
4105.345056766345806
 20
124.6658672897304001
 30
0.0
 40
0.0069410256654899
 50
272.1543830428088881
 51
359.0462147216811104
  0
ARC
  5
70D6
  8
0
 10
4105.3594184153143942
 20
124.669635370964798
 30
0.0
 40
0.0107046310680536
 50
270.5137606927590923
 51
338.7278563518365218
  0
ARC
  5
70D7
  8
0
 10
4105.4210005207451104
 20
124.6735658056076943
 30
0.0
 40
0.0148413895490368
 50
279.5748718128323276
 51
342.739178933055598
  0
ARC
  5
70D8
  8
0
 10
4105.6643021842137387
 20
124.6655533180227025
 30
0.0
 40
0.0064011340400843
 50
284.5241551305953749
 51
0.2399667777787624
  0
ARC
  5
70D9
  8
0
 10
4105.6592560774206504
 20
124.6684368569594028
 30
0.0
 40
0.0091607868912445
 50
276.3515644371107101
 51
342.9558341960585039
  0
ARC
  5
70DA
  8
0
 10
4105.5684330708172638
 20
124.6671975771432983
 30
0.0
 40
0.0082926379855516
 50
190.0408748419139897
 51
265.4415842865918194
  0
ARC
  5
70DB
  8
0
 10
4105.7416829885751213
 20
124.6687243671692045
 30
0.0
 40
0.0099358299389979
 50
197.4084531342886919
 51
260.2799949192792042
  0
ARC
  5
70DC
  8
0
 10
4105.8310200559390069
 20
124.6680934559861953
 30
0.0
 40
0.009231221256444
 50
277.0064847675263877
 51
345.3050671788852242
  0
ARC
  5
70DD
  8
0
 10
4105.9049357204303305
 20
124.6700755517852031
 30
0.0
 40
0.0113418653567998
 50
201.2028580262260107
 51
255.7739062106350048
  0
ARC
  5
70DE
  8
0
 10
4105.9951648005671814
 20
124.6656859432497981
 30
0.0
 40
0.0069069855062379
 50
282.240422636041103
 51
358.8921258216818728
  0
ARC
  5
70DF
  8
0
 10
4106.2012108616272599
 20
124.6680691763226037
 30
0.0
 40
0.0092045519903625
 50
194.5822527977881009
 51
263.1061952557802215
  0
ARC
  5
70E0
  8
0
 10
4106.3270864815413006
 20
124.6660742641905983
 30
0.0
 40
0.0073350148111823
 50
265.4982213033165976
 51
357.0716976521176207
  0
ARC
  5
70E1
  8
0
 10
4106.3234557867826879
 20
124.6669990890438982
 30
0.0
 40
0.0082780132293568
 50
275.8936507403853966
 51
351.3336078984510209
  0
ARC
  5
70E2
  8
0
 10
4106.3160517451342457
 20
124.6676684983113006
 30
0.0
 40
0.0093160335952716
 50
287.2641588801112107
 51
348.1267536673863106
  0
ARC
  5
70E3
  8
0
 10
4106.2899152352119927
 20
124.6696803493774013
 30
0.0
 40
0.010869451015683
 50
269.8905693097963763
 51
338.8116528733128234
  0
ARC
  5
70E4
  8
0
 10
4106.5712680707965774
 20
124.6690247937918059
 30
0.0
 40
0.0105858907254507
 50
198.5064262706630132
 51
267.0121782529848247
  0
LINE
  5
70E5
  8
0
 10
4112.2913491407116453
 20
124.6675447360402984
 30
0.0
 11
4112.2963175853119537
 21
124.7179862883401995
 31
0.0
  0
LINE
  5
70E6
  8
0
 10
4112.4764789816026678
 20
124.669762967534794
 30
0.0
 11
4112.4811759783124216
 21
124.7179862883401995
 31
0.0
  0
LINE
  5
70E7
  8
0
 10
4112.5881587773119463
 20
124.6676391237465964
 30
0.0
 11
4112.5930291897120696
 21
124.7179862883401995
 31
0.0
  0
LINE
  5
70E8
  8
0
 10
4112.6304705484117221
 20
124.7179862883401995
 30
0.0
 11
4112.6256124815090516
 21
124.6676510362070047
 31
0.0
  0
LINE
  5
70E9
  8
0
 10
4111.7126126714119891
 20
124.6673607719402952
 30
0.0
 11
4111.7177732726122485
 21
124.7179862883401995
 31
0.0
  0
LINE
  5
70EA
  8
0
 10
4112.0357256421120837
 20
124.6674634674402995
 30
0.0
 11
4112.0407787966123578
 21
124.7179862883401995
 31
0.0
  0
LINE
  5
70EB
  8
0
 10
4112.1836969159121509
 20
124.6639963968403038
 30
0.0
 11
4112.1747578493123001
 21
124.7179862883401995
 31
0.0
  0
LINE
  5
70EC
  8
0
 10
4112.3686202640128613
 20
124.6639386243340937
 30
0.0
 11
4112.3596117553115619
 21
124.7179862883401995
 31
0.0
  0
LINE
  5
70ED
  8
0
 10
4112.4803839469595914
 20
124.6646734860683949
 30
0.0
 11
4112.4776022732112324
 21
124.6812956244402955
 31
0.0
  0
LINE
  5
70EE
  8
0
 10
4111.8244781561115815
 20
124.6666899393403014
 30
0.0
 11
4111.8304302566120896
 21
124.7179862883401995
 31
0.0
  0
LINE
  5
70EF
  8
0
 10
4111.88873681061159
 20
124.6667015566403052
 30
0.0
 11
4111.8946763779122193
 21
124.7179862883401995
 31
0.0
  0
LINE
  5
70F0
  8
0
 10
4111.3260734445111666
 20
124.6672379622403071
 30
0.0
 11
4111.3313631293121944
 21
124.7179862883401995
 31
0.0
  0
LINE
  5
70F1
  8
0
 10
4111.567852094312002
 20
124.6648605602402995
 30
0.0
 11
4111.5598511899115692
 21
124.7179862883401995
 31
0.0
  0
LINE
  5
70F2
  8
0
 10
4111.716764112112287
 20
124.664833883938698
 30
0.0
 11
4111.7141312027270033
 21
124.6822575696332933
 31
0.0
  0
LINE
  5
70F3
  8
0
 10
4111.6049492362117235
 20
124.6641773514403013
 30
0.0
 11
4111.5962266421120148
 21
124.7179862883401995
 31
0.0
  0
LINE
  5
70F4
  8
0
 10
4111.9280683162123751
 20
124.6640762960403066
 30
0.0
 11
4111.9192250244122988
 21
124.7179862883401995
 31
0.0
  0
LINE
  5
70F5
  8
0
 10
4111.4444485332123804
 20
124.6666212453402949
 30
0.0
 11
4111.4504748644121719
 21
124.7179862883401995
 31
0.0
  0
LINE
  5
70F6
  8
0
 10
4110.8809687864122679
 20
124.667096608140298
 30
0.0
 11
4110.8864078479118689
 21
124.7179862883401995
 31
0.0
  0
LINE
  5
70F7
  8
0
 10
4111.1914791803119442
 20
124.6649280029403002
 30
0.0
 11
4111.1835565148121532
 21
124.7179862883401995
 31
0.0
  0
LINE
  5
70F8
  8
0
 10
4111.3367322596122904
 20
124.6649019717402069
 30
0.0
 11
4111.330303060024562
 21
124.7078161659486994
 31
0.0
  0
LINE
  5
70F9
  8
0
 10
4111.4623619789117583
 20
124.6648794604403037
 30
0.0
 11
4111.4543830216116476
 21
124.7179862883401995
 31
0.0
  0
LINE
  5
70FA
  8
0
 10
4111.2184031978122221
 20
124.664298332340195
 30
0.0
 11
4111.2098244605112995
 21
124.7179862883401995
 31
0.0
  0
LINE
  5
70FB
  8
0
 10
4111.1486321855109054
 20
124.6656647154403004
 30
0.0
 11
4111.1562911927121604
 21
124.7179862883401995
 31
0.0
  0
LINE
  5
70FC
  8
0
 10
4110.7520566363118633
 20
124.666496138240305
 30
0.0
 11
4110.7582186903118782
 21
124.7179862883401995
 31
0.0
  0
LINE
  5
70FD
  8
0
 10
4111.1349175853119959
 20
124.666565308740303
 30
0.0
 11
4111.1410045144111791
 21
124.7179862883401995
 31
0.0
  0
LINE
  5
70FE
  8
0
 10
4110.382896009513388
 20
124.6669385157402985
 30
0.0
 11
4110.3885031566123871
 21
124.7179862883401995
 31
0.0
  0
LINE
  5
70FF
  8
0
 10
4110.9407286041123371
 20
124.6656647154403004
 30
0.0
 11
4110.9330695969119915
 21
124.7179862883401995
 31
0.0
  0
LINE
  5
7100
  8
0
 10
4110.6443367390120329
 20
124.6650260934403036
 30
0.0
 11
4110.6365274893123569
 21
124.7179862883401995
 31
0.0
  0
LINE
  5
7101
  8
0
 10
4111.0271996218116328
 20
124.6649574487402958
 30
0.0
 11
4111.0193110495119981
 21
124.7179862883401995
 31
0.0
  0
LINE
  5
7102
  8
0
 10
4110.773291367211641
 20
124.6644377605402951
 30
0.0
 11
4110.7648775616116836
 21
124.7179862883401995
 31
0.0
  0
LINE
  5
7103
  8
0
 10
4110.5593623159120398
 20
124.6656647154403004
 30
0.0
 11
4110.5670213231123853
 21
124.7179862883401995
 31
0.0
  0
LINE
  5
7104
  8
0
 10
4110.4290115330122717
 20
124.6657517499402985
 30
0.0
 11
4110.4360013824134512
 21
124.7175284125403039
 31
0.0
  0
LINE
  5
7105
  8
0
 10
4110.3987383071125805
 20
124.6657517499402985
 30
0.0
 11
4110.405789969811849
 21
124.7179862883401995
 31
0.0
  0
LINE
  5
7106
  8
0
 10
4110.1944302560123106
 20
124.6651067932401986
 30
0.0
 11
4110.186713980411696
 21
124.7179862883401995
 31
0.0
  0
LINE
  5
7107
  8
0
 10
4110.4515248164116201
 20
124.6656647154403004
 30
0.0
 11
4110.4438658092112746
 21
124.7179862883401995
 31
0.0
  0
LINE
  5
7108
  8
0
 10
4110.2752114164122759
 20
124.6645939266402934
 30
0.0
 11
4110.2669812535123128
 21
124.7179862883401995
 31
0.0
  0
LINE
  5
7109
  8
0
 10
4110.1811526143119409
 20
124.6656647154403004
 30
0.0
 11
4110.1877611451118355
 21
124.7108100874401941
 31
0.0
  0
LINE
  5
710A
  8
0
 10
4109.983389315812019
 20
124.6657517499402985
 30
0.0
 11
4109.9904409785131065
 21
124.7179862883401995
 31
0.0
  0
LINE
  5
710B
  8
0
 10
4109.8381185318121425
 20
124.6667657037402961
 30
0.0
 11
4109.8439102195115993
 21
124.7179824514403066
 31
0.0
  0
LINE
  5
710C
  8
0
 10
4110.0221746180122864
 20
124.6657517499402985
 30
0.0
 11
4110.0151229553121084
 21
124.7179862883401995
 31
0.0
  0
LINE
  5
710D
  8
0
 10
4109.8756422475107684
 20
124.6657517499402985
 30
0.0
 11
4109.8685905848124094
 21
124.7179862883401995
 31
0.0
  0
LINE
  5
710E
  8
0
 10
4109.6848676749123115
 20
124.6651982380403041
 30
0.0
 11
4109.6772563893118786
 21
124.7179862883401995
 31
0.0
  0
LINE
  5
710F
  8
0
 10
4110.0733151147123863
 20
124.6656647154403004
 30
0.0
 11
4110.0656561075111313
 21
124.7179862883401995
 31
0.0
  0
LINE
  5
7110
  8
0
 10
4109.6166512261115713
 20
124.6656647154403004
 30
0.0
 11
4109.6089922189121353
 21
124.7179862883401995
 31
0.0
  0
LINE
  5
7111
  8
0
 10
4109.7304271231123494
 20
124.6647649083403024
 30
0.0
 11
4109.7223967136123974
 21
124.7179862883401995
 31
0.0
  0
LINE
  5
7112
  8
0
 10
4109.6116632087123435
 20
124.6657517499402985
 30
0.0
 11
4109.6140502098924117
 21
124.6834332402918051
 31
0.0
  0
LINE
  5
7113
  8
0
 10
4109.4038525784117155
 20
124.6657517499402985
 30
0.0
 11
4109.410904241110984
 21
124.7179862883401995
 31
0.0
  0
LINE
  5
7114
  8
0
 10
4109.5039161403119579
 20
124.6657517499402985
 30
0.0
 11
4109.4968644777109148
 21
124.7179862883401995
 31
0.0
  0
LINE
  5
7115
  8
0
 10
4109.2961055101122838
 20
124.6657517499402985
 30
0.0
 11
4109.2890538474121058
 21
124.7179862883401995
 31
0.0
  0
LINE
  5
7116
  8
0
 10
4109.2817153237119783
 20
124.6657517499402985
 30
0.0
 11
4109.2747080799117612
 21
124.7176572597403066
 31
0.0
  0
LINE
  5
7117
  8
0
 10
4109.1240160486122477
 20
124.6652989407402998
 30
0.0
 11
4109.1165199372117058
 21
124.7179862883401995
 31
0.0
  0
LINE
  5
7118
  8
0
 10
4109.4102954442123519
 20
124.6652475313402988
 30
0.0
 11
4109.4069434482107681
 21
124.6886470818403012
 31
0.0
  0
LINE
  5
7119
  8
0
 10
4109.1457895936109708
 20
124.6649485925402985
 30
0.0
 11
4109.1379722588108052
 21
124.7179862883401995
 31
0.0
  0
LINE
  5
711A
  8
0
 10
4108.8166282459133072
 20
124.6657517499402985
 30
0.0
 11
4108.8236799086125757
 21
124.7179862883401995
 31
0.0
  0
LINE
  5
711B
  8
0
 10
4109.2534871173120337
 20
124.6665803773402956
 30
0.0
 11
4109.2594790546108925
 21
124.7179862883401995
 31
0.0
  0
LINE
  5
711C
  8
0
 10
4109.0376111197119826
 20
124.6657517499421033
 30
0.0
 11
4109.0305594570118046
 21
124.7179862883401995
 31
0.0
  0
LINE
  5
711D
  8
0
 10
4108.9344719504124441
 20
124.6657517499402985
 30
0.0
 11
4108.9274202877122661
 21
124.7179862883401995
 31
0.0
  0
LINE
  5
711E
  8
0
 10
4108.86191034471085
 20
124.6657517499402985
 30
0.0
 11
4108.8548586820115815
 21
124.7179862883401995
 31
0.0
  0
LINE
  5
711F
  8
0
 10
4108.708881177612966
 20
124.6657517499319994
 30
0.0
 11
4108.7018295149118785
 21
124.7179862883401995
 31
0.0
  0
LINE
  5
7120
  8
0
 10
4109.0917342673119492
 20
124.6656647154403004
 30
0.0
 11
4109.0840752601116037
 21
124.7179862883401995
 31
0.0
  0
LINE
  5
7121
  8
0
 10
4108.6670174976115959
 20
124.6657517499402985
 30
0.0
 11
4108.6740691603108644
 21
124.7179862883401995
 31
0.0
  0
LINE
  5
7122
  8
0
 10
4108.3020646156119255
 20
124.6657517499402985
 30
0.0
 11
4108.3091162783121035
 21
124.7179862883401995
 31
0.0
  0
LINE
  5
7123
  8
0
 10
4108.3146382629120126
 20
124.6660562590403032
 30
0.0
 11
4108.3212788405116953
 21
124.7179536877403052
 31
0.0
  0
LINE
  5
7124
  8
0
 10
4108.6363537303122939
 20
124.6663848985403007
 30
0.0
 11
4108.6425580609120516
 21
124.7179862883401995
 31
0.0
  0
LINE
  5
7125
  8
0
 10
4108.4917146126108491
 20
124.6657517499402985
 30
0.0
 11
4108.4846629499115807
 21
124.7179862883401995
 31
0.0
  0
LINE
  5
7126
  8
0
 10
4108.4538363765122995
 20
124.6657517499402985
 30
0.0
 11
4108.4467847139121659
 21
124.7179862883401995
 31
0.0
  0
LINE
  5
7127
  8
0
 10
4108.3650277604119765
 20
124.6657517499402985
 30
0.0
 11
4108.357976097710889
 21
124.7179862883401995
 31
0.0
  0
LINE
  5
7128
  8
0
 10
4108.5210845915116806
 20
124.6654072608401975
 30
0.0
 11
4108.513711847112063
 21
124.7179862883401995
 31
0.0
  0
LINE
  5
7129
  8
0
 10
4108.5286510990108582
 20
124.6651426995401977
 30
0.0
 11
4108.5210572315118043
 21
124.7179862883401995
 31
0.0
  0
LINE
  5
712A
  8
0
 10
4108.5102900157107797
 20
124.6656647154403004
 30
0.0
 11
4108.5026048863119286
 21
124.718164738740299
 31
0.0
  0
LINE
  5
712B
  8
0
 10
4112.6180496839006082
 20
124.6605382565392972
 30
0.0
 11
4112.5260078214014356
 21
124.657324083840507
 31
0.0
  0
LINE
  5
712C
  8
0
 10
4108.2382392996123599
 20
124.6657517499402985
 30
0.0
 11
4108.2452909623134474
 21
124.7179862883401995
 31
0.0
  0
LINE
  5
712D
  8
0
 10
4108.208640115711205
 20
124.6691620397402005
 30
0.0
 11
4108.2152313893111568
 21
124.7179862883401995
 31
0.0
  0
LINE
  5
712E
  8
0
 10
4107.9944790859108252
 20
124.6661817550402986
 30
0.0
 11
4108.0009059240110219
 21
124.7179862883401995
 31
0.0
  0
LINE
  5
712F
  8
0
 10
4108.099972269112186
 20
124.6691620397402005
 30
0.0
 11
4108.0933809956122786
 21
124.7179862883401995
 31
0.0
  0
LINE
  5
7130
  8
0
 10
4107.8782998633123498
 20
124.6657517499402985
 30
0.0
 11
4107.8712482006121718
 21
124.7179862883401995
 31
0.0
  0
LINE
  5
7131
  8
0
 10
4107.8609029781118807
 20
124.6657517499402985
 30
0.0
 11
4107.8538513154107932
 21
124.7179862883401995
 31
0.0
  0
LINE
  5
7132
  8
0
 10
4107.7951231813121922
 20
124.6691620397402005
 30
0.0
 11
4107.7885319077122404
 21
124.7179862883401995
 31
0.0
  0
LINE
  5
7133
  8
0
 10
4107.886772611212109
 20
124.6653448108402955
 30
0.0
 11
4107.8794095839120928
 21
124.7179862883401995
 31
0.0
  0
LINE
  5
7134
  8
0
 10
4111.8810377412119124
 20
124.6597351493403067
 30
0.0
 11
4111.7900397894109119
 21
124.6581523868402996
 31
0.0
  0
LINE
  5
7135
  8
0
 10
4107.6700292476116374
 20
124.6657517499402985
 30
0.0
 11
4107.6770809103118154
 21
124.7179862883401995
 31
0.0
  0
LINE
  5
7136
  8
0
 10
4107.498094436212341
 20
124.6657517499402985
 30
0.0
 11
4107.5051460989116094
 21
124.7179862883401995
 31
0.0
  0
LINE
  5
7137
  8
0
 10
4107.5622821793122057
 20
124.6657517499402985
 30
0.0
 11
4107.5552305166120277
 21
124.7179862883401995
 31
0.0
  0
LINE
  5
7138
  8
0
 10
4107.3903473679119998
 20
124.6657517499402985
 30
0.0
 11
4107.3832957052109123
 21
124.7179862883401995
 31
0.0
  0
LINE
  5
7139
  8
0
 10
4107.2282261987120364
 20
124.6655523977402993
 30
0.0
 11
4107.2210983231116188
 21
124.7179862883401995
 31
0.0
  0
LINE
  5
713A
  8
0
 10
4107.5595934315133491
 20
124.6655801272403039
 30
0.0
 11
4107.5523818013116397
 21
124.718239347740294
 31
0.0
  0
LINE
  5
713B
  8
0
 10
4107.0379938796122588
 20
124.6657517499402985
 30
0.0
 11
4107.0450455423133462
 21
124.7179862883401995
 31
0.0
  0
LINE
  5
713C
  8
0
 10
4107.3359350596110744
 20
124.6659735271402951
 30
0.0
 11
4107.3425918762122819
 21
124.7179862883401995
 31
0.0
  0
LINE
  5
713D
  8
0
 10
4106.8958847750118366
 20
124.6656995456402939
 30
0.0
 11
4106.8888090778109472
 21
124.7182325640403064
 31
0.0
  0
LINE
  5
713E
  8
0
 10
4106.9302468113119176
 20
124.6657517499402985
 30
0.0
 11
4106.9231951486117396
 21
124.7179862883401995
 31
0.0
  0
LINE
  5
713F
  8
0
 10
4106.9051282299133163
 20
124.6657517499402985
 30
0.0
 11
4106.8980765672122288
 21
124.7179862883401995
 31
0.0
  0
LINE
  5
7140
  8
0
 10
4106.8986574083110099
 20
124.6657517499402985
 30
0.0
 11
4106.8916057457108764
 21
124.7179862883401995
 31
0.0
  0
LINE
  5
7141
  8
0
 10
4106.6690670966108883
 20
124.6656647154403004
 30
0.0
 11
4106.6767261038121433
 21
124.7179862883401995
 31
0.0
  0
ARC
  5
7142
  8
0
 10
4112.52573302221208
 20
124.6651933029402954
 30
0.0
 40
0.0078740157
 50
238.3368213190076972
 51
272.0000000216946887
  0
ARC
  5
7143
  8
0
 10
4112.617774884712162
 20
124.6684074756401941
 30
0.0
 40
0.0078740157
 50
272.0000000216946887
 51
354.4872181820616106
  0
ARC
  5
7144
  8
0
 10
4112.580353397239378
 20
124.6683787615646963
 30
0.0
 40
0.0078403457949986
 50
269.7516196139280851
 51
354.5868157863225179
  0
ARC
  5
7145
  8
0
 10
4112.4886377557231754
 20
124.6656590575847048
 30
0.0
 40
0.0083124431014178
 50
186.8093383993004863
 51
271.2936787300156993
  0
LINE
  5
7146
  8
0
 10
4112.488825426040421
 20
124.6573487332728973
 30
0.0
 11
4112.5803194090121906
 21
124.6605384894401993
 31
0.0
  0
LINE
  5
7147
  8
0
 10
4112.3766561990132686
 20
124.6573634816959952
 30
0.0
 11
4112.4675669775142524
 21
124.6605384894402988
 31
0.0
  0
LINE
  5
7148
  8
0
 10
4112.2831478180560225
 20
124.6603255601196025
 30
0.0
 11
4112.191725225803566
 21
124.6574138809936017
 31
0.0
  0
LINE
  5
7149
  8
0
 10
4112.0293620419006402
 20
124.6604815562308062
 30
0.0
 11
4111.9360859402067945
 21
124.6574828222162949
 31
0.0
  0
LINE
  5
714A
  8
0
 10
4111.8162198864120001
 20
124.6597351493403067
 30
0.0
 11
4111.7252692813108297
 21
124.6581271920402969
 31
0.0
  0
LINE
  5
714B
  8
0
 10
4111.7050117142089221
 20
124.6602893808776003
 30
0.0
 11
4111.6129544575969703
 21
124.6575702183108945
 31
0.0
  0
LINE
  5
714C
  8
0
 10
4111.5759271113120121
 20
124.6581443426402984
 30
0.0
 11
4111.6094757695509543
 21
124.6584847853013969
 31
0.0
  0
LINE
  5
714D
  8
0
 10
4111.5711706260526626
 20
124.6597764643629063
 30
0.0
 11
4111.4729831489121352
 21
124.6581261082401966
 31
0.0
  0
LINE
  5
714E
  8
0
 10
4111.4359748150200176
 20
124.6595891340710978
 30
0.0
 11
4111.344644910263014
 21
124.6581966115702045
 31
0.0
  0
LINE
  5
714F
  8
0
 10
4111.3191669411626208
 20
124.6601513496279949
 30
0.0
 11
4111.2256357411233694
 21
124.657605663093193
 31
0.0
  0
LINE
  5
7150
  8
0
 10
4111.1986232280269178
 20
124.658229441145096
 30
0.0
 11
4111.2230081771322148
 21
124.6582478130817009
 31
0.0
  0
LINE
  5
7151
  8
0
 10
4111.1408403705117962
 20
124.6589311702401943
 30
0.0
 11
4111.0835275388826631
 21
124.6589311702401943
 31
0.0
  0
LINE
  5
7152
  8
0
 10
4111.126840400133915
 20
124.6595466525613034
 30
0.0
 11
4111.03510560655468
 21
124.6582430872451965
 31
0.0
  0
LINE
  5
7153
  8
0
 10
4110.9485195893121272
 20
124.6589311702401943
 30
0.0
 11
4111.0318860875249811
 21
124.6589311702401943
 31
0.0
  0
LINE
  5
7154
  8
0
 10
4110.8729101924309361
 20
124.6598348894977022
 30
0.0
 11
4110.7812640396869028
 21
124.6577947205856987
 31
0.0
  0
LINE
  5
7155
  8
0
 10
4110.7442483688755601
 20
124.6594931347987938
 30
0.0
 11
4110.6515422651737026
 21
124.6594931347987938
 31
0.0
  0
LINE
  5
7156
  8
0
 10
4110.7506227366120584
 20
124.6589311702401943
 30
0.0
 11
4110.7772451808050391
 21
124.6589311702401943
 31
0.0
  0
LINE
  5
7157
  8
0
 10
4110.5515713307122496
 20
124.6589311702401943
 30
0.0
 11
4110.459317081811605
 21
124.6589311702401943
 31
0.0
  0
LINE
  5
7158
  8
0
 10
4110.4369058350257546
 20
124.6582061474281033
 30
0.0
 11
4110.4849747092266625
 21
124.6582061474281033
 31
0.0
  0
LINE
  5
7159
  8
0
 10
4110.4212083031134171
 20
124.6589311702401943
 30
0.0
 11
4110.3717127082127263
 21
124.6589311702401943
 31
0.0
  0
LINE
  5
715A
  8
0
 10
4110.374950939687551
 20
124.6597857852931952
 30
0.0
 11
4110.2831645431942889
 21
124.6579289110339062
 31
0.0
  0
LINE
  5
715B
  8
0
 10
4110.279711212841903
 20
124.6588094057731979
 30
0.0
 11
4110.2011906914030988
 21
124.658415139753501
 31
0.0
  0
LINE
  5
715C
  8
0
 10
4110.1739264414118225
 20
124.6589311702401943
 30
0.0
 11
4110.0811061000122208
 21
124.6589311702401943
 31
0.0
  0
LINE
  5
715D
  8
0
 10
4110.0291063591294005
 20
124.6587729693250992
 30
0.0
 11
4110.0785081151161648
 21
124.659362569255407
 31
0.0
  0
LINE
  5
715E
  8
0
 10
4109.9755860860122993
 20
124.6589311702401943
 30
0.0
 11
4109.883445477413261
 21
124.6589311702401943
 31
0.0
  0
LINE
  5
715F
  8
0
 10
4110.0265511546658672
 20
124.6593317306247997
 30
0.0
 11
4109.9835603202091079
 21
124.6581699868271045
 31
0.0
  0
LINE
  5
7160
  8
0
 10
4109.8304406097258834
 20
124.6597861990359064
 30
0.0
 11
4109.7383589917417339
 21
124.6580750923174037
 31
0.0
  0
ARC
  5
7161
  8
0
 10
4112.4674688318646076
 20
124.6695506069903985
 30
0.0
 40
0.009012651957403
 50
270.6239498267486283
 51
1.3501563289016949
  0
ARC
  5
7162
  8
0
 10
4112.3762684693438132
 20
124.6650878168773033
 30
0.0
 40
0.0077340602719575
 50
188.5451378894290997
 51
272.8735992445446072
  0
ARC
  5
7163
  8
0
 10
4112.2844470302015907
 20
124.6671177258282057
 30
0.0
 40
0.0069153067332389
 50
259.1712118003870273
 51
3.5401838611794552
  0
ARC
  5
7164
  8
0
 10
4112.1921281559070849
 20
124.6660923994140973
 30
0.0
 40
0.0086878670939893
 50
193.9606994093971082
 51
267.341755075721494
  0
ARC
  5
7165
  8
0
 10
4112.028776419218957
 20
124.6674062954699025
 30
0.0
 40
0.0069494580692208
 50
274.8339809119121924
 51
0.4713676267197648
  0
ARC
  5
7166
  8
0
 10
4111.935784776370383
 20
124.6652880367008009
 30
0.0
 40
0.0078110225198749
 50
188.9244601769609062
 51
272.2096588400352744
  0
ARC
  5
7167
  8
0
 10
4111.8812046390394244
 20
124.6672882954491968
 30
0.0
 40
0.0075549898099531
 50
268.7341718107485917
 51
355.5457857375614026
  0
ARC
  5
7168
  8
0
 10
4111.8156776760024513
 20
124.6687594018318066
 30
0.0
 40
0.0090405268186575
 50
273.4384083495157824
 51
346.7671219219071759
  0
ARC
  5
7169
  8
0
 10
4111.789990200711145
 20
124.6603781404305948
 30
0.0
 40
0.0022263059277502
 50
210.8166695336861949
 51
271.2763107763628909
  0
ARC
  5
716A
  8
0
 10
4111.7243686767133113
 20
124.6657313903468065
 30
0.0
 40
0.0076573442216347
 50
186.7310287570340108
 51
276.7543722992837729
  0
ARC
  5
716B
  8
0
 10
4111.7048409794479085
 20
124.6680936881358974
 30
0.0
 40
0.0078061746162555
 50
271.253259348652989
 51
354.6126048984551744
  0
ARC
  5
716C
  8
0
 10
4111.6133711216170923
 20
124.6662281907494929
 30
0.0
 40
0.0086679925965247
 50
193.6859034305807938
 51
267.2447723183718722
  0
ARC
  5
716D
  8
0
 10
4111.576199023154004
 20
124.666683737188194
 30
0.0
 40
0.0085437225667065
 50
192.3213088531985875
 51
268.1762010497758979
  0
ARC
  5
716E
  8
0
 10
4111.4719342843263803
 20
124.668205301203102
 30
0.0
 40
0.0101336196743002
 50
199.1594800856321115
 51
275.9409506985423945
  0
ARC
  5
716F
  8
0
 10
4111.4366693477941226
 20
124.6673737050707018
 30
0.0
 40
0.0078154923977567
 50
264.9016187148221206
 51
354.4751207944987073
  0
ARC
  5
7170
  8
0
 10
4111.3441879722977319
 20
124.6656787386915965
 30
0.0
 40
0.0074960668729853
 50
185.9478529748170956
 51
273.4947470420303262
  0
ARC
  5
7171
  8
0
 10
4111.3181321692181882
 20
124.6680686145315065
 30
0.0
 40
0.0079845999604948
 50
277.446245367154404
 51
354.0286128146752844
  0
ARC
  5
7172
  8
0
 10
4111.2261529776333191
 20
124.6654189414326055
 30
0.0
 40
0.0078303800683747
 50
188.2278738961763054
 51
266.212564084256428
  0
ARC
  5
7173
  8
0
 10
4111.1983442050959638
 20
124.6650907230455942
 30
0.0
 40
0.0068669529715453
 50
181.3578144541170047
 51
272.3287240715400799
  0
ARC
  5
7174
  8
0
 10
4111.1399717815193071
 20
124.667811245882703
 30
0.0
 40
0.0089224542730252
 50
275.586515008027618
 51
346.0794473857059756
  0
ARC
  5
7175
  8
0
 10
4111.1261957485276071
 20
124.6684455352372964
 30
0.0
 40
0.0089222020025957
 50
274.1433750091866841
 51
347.8345302995800807
  0
ARC
  5
7176
  8
0
 10
4111.0351443526496951
 20
124.6663004354533939
 30
0.0
 40
0.0080574413686423
 50
189.5946438603070021
 51
269.724478755536893
  0
ARC
  5
7177
  8
0
 10
4110.9484438229692387
 20
124.666717521214494
 30
0.0
 40
0.0077867195938013
 50
187.7704916716641037
 51
270.5575082098611119
  0
ARC
  5
7178
  8
0
 10
4110.872758105900175
 20
124.6681059825894948
 30
0.0
 40
0.0082724912357989
 50
271.0534199442145109
 51
352.9915468651512924
  0
ARC
  5
7179
  8
0
 10
4110.7814487483574339
 20
124.6661221377355986
 30
0.0
 40
0.0083294653898972
 50
191.6667574516951902
 51
268.7293428478333794
  0
ARC
  5
717A
  8
0
 10
4110.7445779974696052
 20
124.6669801681831018
 30
0.0
 40
0.0074942860839961
 50
267.479089807434093
 51
356.2968867528613828
  0
ARC
  5
717B
  8
0
 10
4110.7504050017651025
 20
124.6619353767490992
 30
0.0
 40
0.0030120865212645
 50
213.7379348162660904
 51
274.1453584018780134
  0
ARC
  5
717C
  8
0
 10
4110.6512809640944397
 20
124.666611172376804
 30
0.0
 40
0.0071228321064858
 50
192.8579653320778959
 51
272.1023672884113012
  0
ARC
  5
717D
  8
0
 10
4110.5503709832973982
 20
124.6681940366452039
 30
0.0
 40
0.0093403173368476
 50
277.3836431118784276
 51
344.2883570065881145
  0
ARC
  5
717E
  8
0
 10
4110.4591972767238985
 20
124.666668025183796
 30
0.0
 40
0.0077377824780123
 50
187.4501610397302045
 51
270.8871534229256781
  0
ARC
  5
717F
  8
0
 10
4110.4208901745623734
 20
124.6671691477794042
 30
0.0
 40
0.0082441178854761
 50
272.2115100998850039
 51
350.1000418465609982
  0
ARC
  5
7180
  8
0
 10
4110.4366924820205895
 20
124.6690867416436959
 30
0.0
 40
0.0108826857893889
 50
215.6341228330500996
 51
271.1233449381697937
  0
ARC
  5
7181
  8
0
 10
4110.4849531308218502
 20
124.6610871377496039
 30
0.0
 40
0.0028810711307026
 50
270.4291331235673965
 51
311.554809338374298
  0
ARC
  5
7182
  8
0
 10
4110.3910755056685957
 20
124.6662998057299063
 30
0.0
 40
0.0076823753556905
 50
286.4309972952614203
 51
355.9090803905497182
  0
ARC
  5
7183
  8
0
 10
4110.3747918585713705
 20
124.667951443804796
 30
0.0
 40
0.00816720795191
 50
271.116079456820728
 51
352.8756157461402267
  0
ARC
  5
7184
  8
0
 10
4110.3715995330203441
 20
124.6608045058698053
 30
0.0
 40
0.0018767511835626
 50
216.5264521599964951
 51
273.4572497064153254
  0
ARC
  5
7185
  8
0
 10
4110.2834816505555864
 20
124.6663849038938991
 30
0.0
 40
0.008461936677037
 50
192.2191218939723001
 51
267.8523629470138872
  0
ARC
  5
7186
  8
0
 10
4110.2013320548767297
 20
124.665318745156398
 30
0.0
 40
0.0069050525841669
 50
181.7589812544960921
 51
268.826931980422728
  0
ARC
  5
7187
  8
0
 10
4110.1727717122912509
 20
124.6674145728831036
 30
0.0
 40
0.0085616306706562
 50
277.7512512163569909
 51
348.2065783119874141
  0
ARC
  5
7188
  8
0
 10
4110.0810722848164005
 20
124.666766060507598
 30
0.0
 40
0.0078349632397514
 50
188.0807149471825142
 51
270.2472856619879735
  0
ARC
  5
7189
  8
0
 10
4110.0293326530518243
 20
124.6659296375948998
 30
0.0
 40
0.0071602450840651
 50
181.4235910183022042
 51
268.1889103002033039
  0
ARC
  5
718A
  8
0
 10
4109.9763235521650131
 20
124.6659614720074956
 30
0.0
 40
0.0070688753889891
 50
264.0116749936893257
 51
358.2998776803880219
  0
ARC
  5
718B
  8
0
 10
4109.9829668086076708
 20
124.6632263540531937
 30
0.0
 40
0.0050910809799474
 50
225.4864414600648956
 51
276.6946904096561184
  0
ARC
  5
718C
  8
0
 10
4109.8834484530616464
 20
124.666808590371005
 30
0.0
 40
0.0078774206927326
 50
187.7100911958563927
 51
269.9783568577194046
  0
ARC
  5
718D
  8
0
 10
4109.8300304289377891
 20
124.6679502916593947
 30
0.0
 40
0.0081743902918882
 50
272.8762391844746844
 51
351.667670213678889
  0
ARC
  5
718E
  8
0
 10
4109.7393982537560078
 20
124.6673544773920952
 30
0.0
 40
0.0093374007570716
 50
196.1010921082728942
 51
263.6096822258202224
  0
LINE
  5
718F
  8
0
 10
4109.7370906244223079
 20
124.6583067207775031
 30
0.0
 11
4109.6927435265042732
 21
124.6584516908715017
 31
0.0
  0
LINE
  5
7190
  8
0
 10
4109.6244422114123154
 20
124.6589311702401943
 30
0.0
 11
4109.6900537762940075
 21
124.6589311702401943
 31
0.0
  0
LINE
  5
7191
  8
0
 10
4109.6038599788107604
 20
124.6589311702401943
 30
0.0
 11
4109.5117336897119458
 21
124.6589311702401943
 31
0.0
  0
LINE
  5
7192
  8
0
 10
4109.4214637466120621
 20
124.6582677822342049
 30
0.0
 11
4109.5108234617164271
 21
124.6590329754504012
 31
0.0
  0
LINE
  5
7193
  8
0
 10
4109.3960493485119514
 20
124.6589311702401943
 30
0.0
 11
4109.2895185536117424
 21
124.6589311702401943
 31
0.0
  0
ARC
  5
7194
  8
0
 10
4109.1878831689282379
 20
125.499020654507305
 30
0.0
 40
0.8416247605651868
 50
267.6105089896091727
 51
273.9474584057825268
  0
ARC
  5
7195
  8
0
 10
4109.1455502957505814
 20
124.8557227015509028
 30
0.0
 40
0.1976602073513116
 50
265.5854807686450272
 51
272.0158087205601873
  0
LINE
  5
7196
  8
0
 10
4109.0995252525117394
 20
124.6589311702401943
 30
0.0
 11
4109.129010484387436
 21
124.6589311702401943
 31
0.0
  0
LINE
  5
7197
  8
0
 10
4109.0983534431761655
 20
124.6589311702401943
 30
0.0
 11
4109.0454235142133257
 21
124.6589311702401943
 31
0.0
  0
LINE
  5
7198
  8
0
 10
4109.0439663970119
 20
124.6589311702401943
 30
0.0
 11
4108.9422894997123876
 21
124.6589311702401943
 31
0.0
  0
LINE
  5
7199
  8
0
 10
4108.9422894997123876
 20
124.6589311702401943
 30
0.0
 11
4108.8697143938115914
 21
124.6589311702401943
 31
0.0
  0
LINE
  5
719A
  8
0
 10
4108.8088250161117685
 20
124.6589311702401943
 30
0.0
 11
4108.7167731377066957
 21
124.6589311702401943
 31
0.0
  0
LINE
  5
719B
  8
0
 10
4108.6592142677118318
 20
124.6589311702401943
 30
0.0
 11
4108.621328266148339
 21
124.6589311702401943
 31
0.0
  0
ARC
  5
719C
  8
0
 10
4108.5744897267886699
 20
125.3573688128185069
 30
0.0
 40
0.7000064209273122
 50
266.7424150879343188
 51
274.4355750986082967
  0
ARC
  5
719D
  8
0
 10
4108.5343898599921886
 20
124.7060997736101058
 30
0.0
 40
0.0477990571342735
 50
260.6839224534983828
 51
273.0744412019486731
  0
LINE
  5
719E
  8
0
 10
4108.5266521136118172
 20
124.6589311702401943
 30
0.0
 11
4108.3728309903108311
 21
124.6589311702401943
 31
0.0
  0
LINE
  5
719F
  8
0
 10
4108.3091035715387989
 20
124.6594983250895012
 30
0.0
 11
4108.1090707509883941
 21
124.6592223348659019
 31
0.0
  0
LINE
  5
71A0
  8
0
 10
4107.8068275110108516
 20
124.6589311702401943
 30
0.0
 11
4107.8922541570027533
 21
124.6589311702401943
 31
0.0
  0
ARC
  5
71A1
  8
0
 10
4107.9865238914499059
 20
124.6671922920994007
 30
0.0
 40
0.0080191211654799
 50
270.5736241865354259
 51
352.7605707048301156
  0
ARC
  5
71A2
  8
0
 10
4107.9360781508839864
 20
125.3561217726788044
 30
0.0
 40
0.6987772694915236
 50
266.5996277836082982
 51
274.1464663210006734
  0
ARC
  5
71A3
  8
0
 10
4107.8946077484160924
 20
124.6665228214775993
 30
0.0
 40
0.0079481168241145
 50
186.1151658986591997
 51
270.1724699180504103
  0
LINE
  5
71A4
  8
0
 10
4107.6625226840105825
 20
124.6589311702401943
 30
0.0
 11
4107.5643891809122579
 21
124.6593567514402991
 31
0.0
  0
LINE
  5
71A5
  8
0
 10
4107.4902912063107578
 20
124.6589311702401943
 30
0.0
 11
4107.3981505978117639
 21
124.6589311702401943
 31
0.0
  0
ARC
  5
71A6
  8
0
 10
4107.2798894829466008
 20
125.3201898511074006
 30
0.0
 40
0.662867374463363
 50
266.0015008071771945
 51
274.1749989345802874
  0
LINE
  5
71A7
  8
0
 10
4107.0301906497115851
 20
124.6589311702401943
 30
0.0
 11
4106.9037859377203858
 21
124.6587618786515037
 31
0.0
  0
ARC
  5
71A8
  8
0
 10
4109.6927854507193842
 20
124.6664710014972002
 30
0.0
 40
0.0080194202129495
 50
189.1320371700952876
 51
269.7004656856123006
  0
ARC
  5
71A9
  8
0
 10
4109.6251110650619012
 20
124.667579076903607
 30
0.0
 40
0.0086737336171573
 50
192.7506142943898908
 51
265.5773863147617817
  0
ARC
  5
71AA
  8
0
 10
4109.6043185114585867
 20
124.6662805919457071
 30
0.0
 40
0.00736371180812
 50
266.4299263812396816
 51
355.881625565193076
  0
ARC
  5
71AB
  8
0
 10
4109.512217401495036
 20
124.667375999906497
 30
0.0
 40
0.008458671596724
 50
191.0708019870914995
 51
266.7217345134350808
  0
ARC
  5
71AC
  8
0
 10
4109.4207242874381336
 20
124.6695096525634057
 30
0.0
 40
0.0112661638709633
 50
202.2291425068260935
 51
273.7633367975186047
  0
ARC
  5
71AD
  8
0
 10
4109.396511895565709
 20
124.6662759991791063
 30
0.0
 40
0.0073593791802063
 50
266.3965067056936959
 51
355.9150452407483272
  0
ARC
  5
71AE
  8
0
 10
4109.3043136767164469
 20
124.6672671886778971
 30
0.0
 40
0.0083468888554187
 50
190.4604822103902109
 51
267.0755407285901128
  0
ARC
  5
71AF
  8
0
 10
4109.2911753446469447
 20
124.6687006731901022
 30
0.0
 40
0.009908993108251
 50
197.3135522360886114
 51
260.374895817439608
  0
ARC
  5
71B0
  8
0
 10
4109.242301342303108
 20
124.6708279716039982
 30
0.0
 40
0.0119651000654981
 50
287.1122536918397827
 51
339.2066389038013199
  0
ARC
  5
71B1
  8
0
 10
4109.1543289692563121
 20
124.6667107901229059
 30
0.0
 40
0.0087193048293065
 50
191.659963211968801
 51
259.8594266842255252
  0
ARC
  5
71B2
  8
0
 10
4109.1311568884575536
 20
124.6657571892060048
 30
0.0
 40
0.0071555283071459
 50
183.671802010444992
 51
263.4129264588536898
  0
ARC
  5
71B3
  8
0
 10
4109.0989393478439524
 20
124.6661272704572951
 30
0.0
 40
0.0072199129228841
 50
183.6732595137017938
 51
274.6547403678086994
  0
ARC
  5
71B4
  8
0
 10
4109.0446949556117033
 20
124.6659811751591036
 30
0.0
 40
0.007087550140117
 50
181.8549982857581995
 51
275.9000921881801105
  0
ARC
  5
71B5
  8
0
 10
4108.9429161047091839
 20
124.6675397798150016
 30
0.0
 40
0.0086313841666927
 50
191.9556492508525878
 51
265.8368865234605778
  0
ARC
  5
71B6
  8
0
 10
4108.8705991601227652
 20
124.667818465353804
 30
0.0
 40
0.0089312275674521
 50
193.3797031828750903
 51
264.3147054771745275
  0
ARC
  5
71B7
  8
0
 10
4108.8085953532772692
 20
124.6670679365700067
 30
0.0
 40
0.008140006837931
 50
271.6167624687886928
 51
350.6947902052750123
  0
ARC
  5
71B8
  8
0
 10
4108.7165060220313535
 20
124.6665982024920964
 30
0.0
 40
0.0076716839309976
 50
186.3346070178924947
 51
271.9953500440831817
  0
ARC
  5
71B9
  8
0
 10
4108.6595988334584035
 20
124.6663652153592068
 30
0.0
 40
0.0074439853333655
 50
267.038708963091608
 51
355.2728429833475161
  0
ARC
  5
71BA
  8
0
 10
4108.6276220964437016
 20
124.6683530991375051
 30
0.0
 40
0.0089507119036204
 50
276.4454833940869207
 51
347.2972403650920228
  0
ARC
  5
71BB
  8
0
 10
4108.5356330024824274
 20
124.6654199190370065
 30
0.0
 40
0.0069874048628191
 50
182.2737593290250118
 51
262.4249764834368079
  0
ARC
  5
71BC
  8
0
 10
4108.5298956564847686
 20
124.6673509138628049
 30
0.0
 40
0.0090228960452188
 50
192.4397836968130946
 51
248.9317885713332998
  0
ARC
  5
71BD
  8
0
 10
4108.5181348296246142
 20
124.6668376367786948
 30
0.0
 40
0.0079320142338975
 50
188.5036151836577858
 51
265.4002059418947965
  0
ARC
  5
71BE
  8
0
 10
4108.4987038797480636
 20
124.6657962151266048
 30
0.0
 40
0.0069894085764664
 50
180.3645064773305933
 51
259.1754392290416718
  0
ARC
  5
71BF
  8
0
 10
4108.4608983939542668
 20
124.6659955240612021
 30
0.0
 40
0.0070662236151081
 50
181.977010781991595
 51
268.6818937361960025
  0
ARC
  5
71C0
  8
0
 10
4108.374028019972684
 20
124.6681746733704017
 30
0.0
 40
0.0093206882861509
 50
195.0671622510870122
 51
262.6212858024650814
  0
ARC
  5
71C1
  8
0
 10
4108.3076831130601931
 20
124.666311667946502
 30
0.0
 40
0.0069598378700921
 50
281.776445357706109
 51
357.8969138029955843
  0
ARC
  5
71C2
  8
0
 10
4108.2928270992097168
 20
124.6692355803647985
 30
0.0
 40
0.0098726280040659
 50
278.7532849424014216
 51
339.336569540498715
  0
ARC
  5
71C3
  8
0
 10
4108.2298097202910867
 20
124.6680742539156057
 30
0.0
 40
0.0087436738412625
 50
276.7020011593974118
 51
344.596140041618014
  0
ARC
  5
71C4
  8
0
 10
4108.1955037033649205
 20
124.6729320150419937
 30
0.0
 40
0.0136666763748703
 50
276.1347578846323927
 51
343.9872263154214806
  0
ARC
  5
71C5
  8
0
 10
4108.1089631896538776
 20
124.668257956045295
 30
0.0
 40
0.0090362613694729
 50
174.2579136835555005
 51
270.6820249796820121
  0
ARC
  5
71C6
  8
0
 10
4107.8852399272773255
 20
124.6658672897304001
 30
0.0
 40
0.0069410256654899
 50
180.9537852783180085
 51
267.8456169571911119
  0
ARC
  5
71C7
  8
0
 10
4107.8708782783096467
 20
124.669635370964798
 30
0.0
 40
0.0107046310680536
 50
201.2721436481635919
 51
269.486239307240794
  0
ARC
  5
71C8
  8
0
 10
4107.8092961728771115
 20
124.6735658056076943
 30
0.0
 40
0.0148413895490368
 50
197.260821066944402
 51
260.4251281871676724
  0
ARC
  5
71C9
  8
0
 10
4107.5659945094103023
 20
124.6655533180227025
 30
0.0
 40
0.0064011340400843
 50
179.7600332222212103
 51
255.4758448694045967
  0
ARC
  5
71CA
  8
0
 10
4107.5710406162015715
 20
124.6684368569594028
 30
0.0
 40
0.0091607868912445
 50
197.0441658039407002
 51
263.6484355628891763
  0
ARC
  5
71CB
  8
0
 10
4107.6618636228067771
 20
124.6671975771432983
 30
0.0
 40
0.0082926379855516
 50
274.5584157134081806
 51
349.9591251580860103
  0
ARC
  5
71CC
  8
0
 10
4107.4886137050489197
 20
124.6687243671692045
 30
0.0
 40
0.0099358299389979
 50
279.7200050807206821
 51
342.5915468657112797
  0
ARC
  5
71CD
  8
0
 10
4107.3992766376850341
 20
124.6680934559861953
 30
0.0
 40
0.009231221256444
 50
194.6949328211146906
 51
262.9935152324736123
  0
ARC
  5
71CE
  8
0
 10
4107.3253609731928009
 20
124.6700755517852031
 30
0.0
 40
0.0113418653567998
 50
284.2260937893649952
 51
338.7971419737738756
  0
ARC
  5
71CF
  8
0
 10
4107.2351318930568596
 20
124.6656859432497981
 30
0.0
 40
0.0069069855062379
 50
181.1078741783180988
 51
257.7595773639587833
  0
ARC
  5
71D0
  8
0
 10
4107.0290858319976905
 20
124.6680691763226037
 30
0.0
 40
0.0092045519903625
 50
276.8938047442197785
 51
345.4177472022117854
  0
ARC
  5
71D1
  8
0
 10
4106.9032102120836498
 20
124.6660742641905983
 30
0.0
 40
0.0073350148111823
 50
182.9283023478824077
 51
274.5017786966834024
  0
ARC
  5
71D2
  8
0
 10
4106.9068409068422625
 20
124.6669990890438982
 30
0.0
 40
0.0082780132293568
 50
188.6663921015490075
 51
264.1063492596146034
  0
ARC
  5
71D3
  8
0
 10
4106.9142449484897952
 20
124.6676684983113006
 30
0.0
 40
0.0093160335952716
 50
191.8732463326136894
 51
252.7358411198887893
  0
ARC
  5
71D4
  8
0
 10
4106.9403814584120482
 20
124.6696803493774013
 30
0.0
 40
0.010869451015683
 50
201.1883471266870913
 51
270.1094306902036237
  0
ARC
  5
71D5
  8
0
 10
4106.659028622828373
 20
124.6690247937918059
 30
0.0
 40
0.0105858907254507
 50
283.8217395276844854
 51
341.4935737293370153
  0
LINE
  5
71D6
  8
0
 10
4105.926171968862036
 20
125.741608335540306
 30
0.0
 11
4105.926171968862036
 21
126.2140492804403067
 31
0.0
  0
LINE
  5
71D7
  8
0
 10
4106.1604239373618839
 20
126.4910445277402999
 30
0.0
 11
4106.1604239373618839
 21
126.9896398316403037
 31
0.0
  0
LINE
  5
71D8
  8
0
 10
4107.0698727562621571
 20
126.9896398316403037
 30
0.0
 11
4107.1112113389617662
 21
127.0309784143402965
 31
0.0
  0
LINE
  5
71D9
  8
0
 10
4107.3336522837607845
 20
125.741608335540306
 30
0.0
 11
4107.3041247247620049
 21
125.741608335540306
 31
0.0
  0
LINE
  5
71DA
  8
0
 10
4105.926171968862036
 20
125.741608335540306
 30
0.0
 11
4105.8966444098623469
 21
125.741608335540306
 31
0.0
  0
LINE
  5
71DB
  8
0
 10
4107.0698727562621571
 20
126.9896398316403037
 30
0.0
 11
4107.0698727562621571
 21
126.4910445277402999
 31
0.0
  0
LINE
  5
71DC
  8
0
 10
4106.1190853546622748
 20
127.0309784143402965
 30
0.0
 11
4106.1604239373618839
 21
126.9896398316403037
 31
0.0
  0
LINE
  5
71DD
  8
0
 10
4107.3041247247620049
 20
126.2140492804403067
 30
0.0
 11
4107.3041247247620049
 21
125.741608335540306
 31
0.0
  0
LINE
  5
71DE
  8
0
 10
4105.8966444098623469
 20
125.741608335540306
 30
0.0
 11
4105.8966444098623469
 21
125.151057154440295
 31
0.0
  0
LINE
  5
71DF
  8
0
 10
4106.1190853547614097
 20
127.1389311702402978
 30
0.0
 11
4106.1190853547614097
 21
127.0309784142402947
 31
0.0
  0
LINE
  5
71E0
  8
0
 10
4107.3041247247620049
 20
126.2140492804403067
 30
0.0
 11
4105.926171968862036
 21
126.2140492804403067
 31
0.0
  0
LINE
  5
71E1
  8
0
 10
4107.0912104264625668
 20
127.1589311702402938
 30
0.0
 11
4106.1390862671623836
 21
127.1589311702402938
 31
0.0
  0
ARC
  5
71E2
  8
0
 10
4106.3474318111702814
 20
126.6220794822029063
 30
0.0
 40
0.2283464564082713
 50
215.0186282508747979
 51
248.0877877553934923
  0
ARC
  5
71E3
  8
0
 10
4106.2360932287574542
 20
126.3452865485356966
 30
0.0
 40
0.0700000000063294
 50
309.370992636370886
 51
68.0877877300576699
  0
ARC
  5
71E4
  8
0
 10
4106.1406922732112434
 20
127.1373241785047981
 30
0.0
 40
0.02166659519367
 50
94.2508681506556911
 51
175.7465180754940945
  0
ARC
  5
71E5
  8
0
 10
4106.6151483468620427
 20
125.8833406190402968
 30
0.0
 40
0.5275590551000001
 50
129.370989124881703
 51
141.1807458173556995
  0
LINE
  5
71E6
  8
0
 10
4107.3336522837607845
 20
125.741608335540306
 30
0.0
 11
4107.3336522837607845
 21
125.151057154440295
 31
0.0
  0
LINE
  5
71E7
  8
0
 10
4107.1112113388608122
 20
127.1389311702402978
 30
0.0
 11
4107.1112113388608122
 21
127.0309784142402947
 31
0.0
  0
ARC
  5
71E8
  8
0
 10
4106.88286488245285
 20
126.6220794822029063
 30
0.0
 40
0.2283464564082713
 50
291.9122122446065077
 51
324.9813717491277885
  0
ARC
  5
71E9
  8
0
 10
4106.9942034648665867
 20
126.3452865485356966
 30
0.0
 40
0.0700000000063294
 50
111.9122122699426001
 51
230.6290073636290003
  0
ARC
  5
71EA
  8
0
 10
4107.089604420413707
 20
127.1373241785047981
 30
0.0
 40
0.02166659519367
 50
4.253481924505806
 51
85.7491318493442947
  0
ARC
  5
71EB
  8
0
 10
4106.6151483467619983
 20
125.8833406190402968
 30
0.0
 40
0.5275590551000001
 50
38.8192541826443076
 51
50.6290108751177499
  0
ENDSEC
  0
EOF
