  0
SECTION
  2
HEADER
  9
$ACADVER
  1
AC1009
  9
$INSBASE
 10
281.2451952217624012
 20
26.3847048268720989
 30
0.0
  9
$EXTMIN
 10
280.3088222198123844
 20
21.7442608732646896
 30
0.0
  9
$EXTMAX
 10
282.8554444230622948
 20
27.3911860032028187
 30
0.0
  9
$LIMMIN
 10
0.0
 20
0.0
  9
$LIMMAX
 10
11.6929133858000007
 20
8.2677165353999982
  9
$ORTHOMODE
 70
     0
  9
$REGENMODE
 70
     1
  9
$FILLMODE
 70
     1
  9
$QTEXTMODE
 70
     0
  9
$MIRRTEXT
 70
     0
  9
$DRAGMODE
 70
     2
  9
$LTSCALE
 40
0.6431102362
  9
$OSMODE
 70
  4095
  9
$ATTMODE
 70
     1
  9
$TEXTSIZE
 40
0.2
  9
$TRACEWID
 40
0.05
  9
$TEXTSTYLE
  7
STANDARD
  9
$CLAYER
  8
0
  9
$CELTYPE
  6
BYLAYER
  9
$CECOLOR
 62
   256
  9
$DIMSCALE
 40
1.0
  9
$DIMASZ
 40
0.1875
  9
$DIMEXO
 40
0.0625
  9
$DIMDLI
 40
0.4443307087
  9
$DIMRND
 40
0.0
  9
$DIMDLE
 40
0.0
  9
$DIMEXE
 40
0.125
  9
$DIMTP
 40
0.01
  9
$DIMTM
 40
0.01
  9
$DIMTXT
 40
1.0
  9
$DIMCEN
 40
0.1052362205
  9
$DIMTSZ
 40
0.0
  9
$DIMTOL
 70
     1
  9
$DIMLIM
 70
     0
  9
$DIMTIH
 70
     0
  9
$DIMTOH
 70
     1
  9
$DIMSE1
 70
     0
  9
$DIMSE2
 70
     0
  9
$DIMTAD
 70
     0
  9
$DIMZIN
 70
     0
  9
$DIMBLK
  1

  9
$DIMASO
 70
     1
  9
$DIMSHO
 70
     1
  9
$DIMPOST
  1
\X
  9
$DIMAPOST
  1

  9
$DIMALT
 70
     1
  9
$DIMALTD
 70
     2
  9
$DIMALTF
 40
25.3999999999999986
  9
$DIMLFAC
 40
1.0
  9
$DIMTOFL
 70
     0
  9
$DIMTVP
 40
0.0
  9
$DIMTIX
 70
     0
  9
$DIMSOXD
 70
     0
  9
$DIMSAH
 70
     0
  9
$DIMBLK1
  1

  9
$DIMBLK2
  1

  9
$DIMSTYLE
  2
STANDARD
  9
$DIMCLRD
 70
     0
  9
$DIMCLRE
 70
     0
  9
$DIMCLRT
 70
     0
  9
$DIMTFAC
 40
1.0
  9
$DIMGAP
 40
0.09
  9
$LUNITS
 70
     2
  9
$LUPREC
 70
     4
  9
$SKETCHINC
 40
0.1
  9
$FILLETRAD
 40
0.0
  9
$AUNITS
 70
     0
  9
$AUPREC
 70
     0
  9
$MENU
  1
.
  9
$ELEVATION
 40
0.0
  9
$PELEVATION
 40
0.0
  9
$THICKNESS
 40
0.0
  9
$LIMCHECK
 70
     0
  9
$BLIPMODE
 70
     0
  9
$CHAMFERA
 40
0.0
  9
$CHAMFERB
 40
0.0
  9
$SKPOLY
 70
     0
  9
$TDCREATE
 40
2458172.5207638889551163
  9
$TDUPDATE
 40
2459034.609375
  9
$TDINDWG
 40
0.0820945833
  9
$TDUSRTIMER
 40
0.0820945833
  9
$USRTIMER
 70
     1
  9
$ANGBASE
 50
0.0
  9
$ANGDIR
 70
     0
  9
$PDMODE
 70
     0
  9
$PDSIZE
 40
0.3125
  9
$PLINEWID
 40
0.0
  9
$COORDS
 70
     1
  9
$SPLFRAME
 70
     0
  9
$SPLINETYPE
 70
     6
  9
$SPLINESEGS
 70
     8
  9
$ATTDIA
 70
     1
  9
$ATTREQ
 70
     1
  9
$HANDLING
 70
     1
  9
$HANDSEED
  5
29C6
  9
$SURFTAB1
 70
     6
  9
$SURFTAB2
 70
     6
  9
$SURFTYPE
 70
     6
  9
$SURFU
 70
     6
  9
$SURFV
 70
     6
  9
$UCSNAME
  2

  9
$UCSORG
 10
0.0
 20
0.0
 30
0.0
  9
$UCSXDIR
 10
1.0
 20
0.0
 30
0.0
  9
$UCSYDIR
 10
0.0
 20
1.0
 30
0.0
  9
$PUCSNAME
  2

  9
$PUCSORG
 10
0.0
 20
0.0
 30
0.0
  9
$PUCSXDIR
 10
1.0
 20
0.0
 30
0.0
  9
$PUCSYDIR
 10
0.0
 20
1.0
 30
0.0
  9
$USERI1
 70
     0
  9
$USERI2
 70
     0
  9
$USERI3
 70
     0
  9
$USERI4
 70
     0
  9
$USERI5
 70
     0
  9
$USERR1
 40
0.0
  9
$USERR2
 40
0.0
  9
$USERR3
 40
0.0
  9
$USERR4
 40
0.0
  9
$USERR5
 40
0.0
  9
$WORLDVIEW
 70
     1
  9
$SHADEDGE
 70
     3
  9
$SHADEDIF
 70
    70
  9
$TILEMODE
 70
     1
  9
$MAXACTVP
 70
    64
  9
$PLIMCHECK
 70
     0
  9
$PEXTMIN
 10
1.0000000000000000E+20
 20
1.0000000000000000E+20
 30
1.0000000000000000E+20
  9
$PEXTMAX
 10
-1.0000000000000000E+20
 20
-1.0000000000000000E+20
 30
-1.0000000000000000E+20
  9
$PLIMMIN
 10
0.0
 20
0.0
  9
$PLIMMAX
 10
12.0
 20
9.0
  9
$UNITMODE
 70
     0
  9
$VISRETAIN
 70
     1
  9
$PLINEGEN
 70
     0
  9
$PSLTSCALE
 70
     1
  0
ENDSEC
  0
SECTION
  2
TABLES
  0
TABLE
  2
VPORT
 70
     1
  0
VPORT
  2
*ACTIVE
 70
     0
 10
0.0
 20
0.0
 11
1.0
 21
1.0
 12
6.9333453659552342
 22
0.0951474115883393
 13
0.0
 23
0.0
 14
1.0
 24
1.0
 15
0.0
 25
0.0
 16
0.0
 26
0.0
 36
17.9105434647580992
 17
274.656326185832711
 27
24.472601382838981
 37
0.0
 40
5.6861328991762017
 41
2.005224660397074
 42
50.0
 43
0.0
 44
0.0
 50
0.0
 51
0.0
 71
     0
 72
   100
 73
     1
 74
     1
 75
     0
 76
     0
 77
     0
 78
     0
  0
ENDTAB
  0
TABLE
  2
LTYPE
 70
     2
  0
LTYPE
  2
CONTINUOUS
 70
     0
  3
Solid line
 72
    65
 73
     0
 40
0.0
  0
LTYPE
  2
PHANTOM2
 70
     0
  3
___ _ _ ___ _ _ ___ _ _ ___ _ _
 72
    65
 73
     6
 40
1.25
 49
0.625
 49
-0.125
 49
0.125
 49
-0.125
 49
0.125
 49
-0.125
  0
ENDTAB
  0
TABLE
  2
LAYER
 70
     2
  0
LAYER
  2
0
 70
     0
 62
   255
  6
CONTINUOUS
  0
LAYER
  2
DEFPOINTS
 70
     0
 62
     7
  6
CONTINUOUS
  0
ENDTAB
  0
TABLE
  2
STYLE
 70
     1
  0
STYLE
  2
STANDARD
 70
     0
 40
0.0
 41
0.8
 50
0.0
 71
     0
 42
0.2
  3
txt
  4

  0
ENDTAB
  0
TABLE
  2
VIEW
 70
     0
  0
ENDTAB
  0
TABLE
  2
UCS
 70
     0
  0
ENDTAB
  0
TABLE
  2
APPID
 70
    10
  0
APPID
  2
ACAD
 70
     0
  0
APPID
  2
ACAD_MLEADERVER
 70
     0
  0
APPID
  2
ACAD_EXEMPT_FROM_CAD_STANDARDS
 70
     0
  0
APPID
  2
ACAD_DSTYLE_DIMJAG
 70
     0
  0
APPID
  2
ACAD_DSTYLE_DIMTALN
 70
     0
  0
APPID
  2
ACAD_NAV_VCDISPLAY
 70
     0
  0
APPID
  2
ACAECLAYERSTANDARD
 70
     0
  0
APPID
  2
ACCMTRANSPARENCY
 70
     0
  0
APPID
  2
DCO15
 70
     0
  0
APPID
  2
ACDBATTR
 70
     0
  0
ENDTAB
  0
TABLE
  2
DIMSTYLE
 70
     1
  0
DIMSTYLE
  2
STANDARD
 70
     0
  3

  4

  5

  6

  7

 40
1.0
 41
0.1875
 42
0.0625
 43
0.38
 44
0.125
 45
0.0
 46
0.0
 47
0.01
 48
0.01
140
0.15625
141
0.09
142
0.0
143
25.3999999999999986
144
1.0
145
0.0
146
1.0
147
0.09
 71
     1
 72
     0
 73
     1
 74
     1
 75
     0
 76
     0
 77
     0
 78
     4
170
     0
171
     2
172
     0
173
     0
174
     0
175
     0
176
     0
177
     0
178
     0
  0
ENDTAB
  0
ENDSEC
  0
SECTION
  2
BLOCKS
  0
BLOCK
  8
0
  2
$MODEL_SPACE
 70
     0
 10
0.0
 20
0.0
 30
0.0
  3
$MODEL_SPACE
  1

  0
ENDBLK
  5
21
  8
0
  0
BLOCK
 67
     1
  8
0
  2
$PAPER_SPACE
 70
     0
 10
0.0
 20
0.0
 30
0.0
  3
$PAPER_SPACE
  1

  0
ENDBLK
  5
1D
 67
     1
  8
0
  0
ENDSEC
  0
SECTION
  2
ENTITIES
  0
ATTDEF
  5
829
  8
DEFPOINTS
 10
281.2422150686667806
 20
26.3905987881966304
 30
0.0
 40
0.001
  1
K-16027T-B4
  3

  2
MODELNUMBER
 70
     0
1001
ACDBATTR
1070
     0
1070
     1
  0
ATTDEF
  5
82A
  8
DEFPOINTS
 10
281.2422150686667806
 20
26.3889321215299688
 30
0.0
 40
0.001
  1
JULY
  3

  2
TRADENAME
 70
     0
1001
ACDBATTR
1070
     0
1070
     1
  0
ATTDEF
  5
82B
  8
DEFPOINTS
 10
281.2422150686667806
 20
26.3872654548633001
 30
0.0
 40
0.001
  1
BATHROOM SINK FAUCET
  3

  2
PRODUCT
 70
     0
1001
ACDBATTR
1070
     0
1070
     1
  0
ARC
  5
28D5
  8
0
 10
281.2452263849124279
 20
22.3697010916883201
 30
0.0
 40
0.6254402192000001
 50
185.3319336866996991
 51
269.9971451836377128
  0
ARC
  5
28D6
  8
0
 10
-3071.1189403411917738
 20
-90.9975700646954095
 30
0.0
 40
3353.6561534961219877
 50
1.936206841907552
 51
1.979228113145556
  0
ARC
  5
28D7
  8
0
 10
275.8628811103362182
 20
24.6790159626422501
 30
0.0
 40
4.675968767400553
 50
1.8288820945252739
 51
16.0002215649431214
  0
ARC
  5
28D8
  8
0
 10
282.6373746138635852
 20
26.4495899181039817
 30
0.0
 40
2.3300022057788961
 50
182.0213326470303912
 51
191.9308796303338056
  0
ARC
  5
28D9
  8
0
 10
281.2345579837997889
 20
26.4710210859137014
 30
0.0
 40
0.9117806711215026
 50
135.588820890389087
 51
165.2544442294401108
  0
ARC
  5
28DA
  8
0
 10
281.2531884841558849
 20
26.4616898314839197
 30
0.0
 40
0.9316409395966037
 50
110.1849527580370989
 51
135.9807023905457868
  0
ARC
  5
28DB
  8
0
 10
281.2604488128586127
 20
26.3847048268720989
 30
0.0
 40
1.0065967565760421
 50
90.8682720647387043
 51
109.0607400695833036
  0
ARC
  5
28DC
  8
0
 10
281.243087189731682
 20
22.9095236196037497
 30
0.0
 40
0.5737866985728479
 50
183.4316765534491935
 51
270.2104991461853842
  0
ARC
  5
28DD
  8
0
 10
-10684.2976135399694613
 20
-578.6072804871480457
 30
0.0
 40
10981.4526878865908657
 50
3.1398087300006901
 51
3.150057339228022
  0
ARC
  5
28DE
  8
0
 10
275.1401534974633023
 20
24.42306874784191
 30
0.0
 40
5.4381497750307144
 50
4.3600077236238191
 51
13.7253463989747306
  0
ARC
  5
28DF
  8
0
 10
281.971375433080425
 20
26.3202929491838695
 30
0.0
 40
1.663220647888102
 50
166.6937201041239121
 51
178.3767643003122885
  0
ARC
  5
28E0
  8
0
 10
281.2451640586123744
 20
22.3697010916883201
 30
0.0
 40
0.6254402192000001
 50
270.0028548163622872
 51
354.6680663133000735
  0
ARC
  5
28E1
  8
0
 10
3633.6093307847168035
 20
-90.9975700646954095
 30
0.0
 40
3353.6561534961219877
 50
178.0207718868543907
 51
178.0637931580924089
  0
ARC
  5
28E2
  8
0
 10
286.6275093331885273
 20
24.6790159626422501
 30
0.0
 40
4.675968767400553
 50
163.9997784350568963
 51
178.1711179054746879
  0
ARC
  5
28E3
  8
0
 10
279.8530158296612171
 20
26.4495899181039817
 30
0.0
 40
2.3300022057788961
 50
348.0691203696661091
 51
357.9786673529695804
  0
ARC
  5
28E4
  8
0
 10
281.2558324597248998
 20
26.4710210859137014
 30
0.0
 40
0.9117806711215026
 50
14.7455557705598395
 51
44.4111791096108632
  0
ARC
  5
28E5
  8
0
 10
281.2372019593688037
 20
26.4616898314839197
 30
0.0
 40
0.9316409395966037
 50
44.019297609454199
 51
69.8150472419629438
  0
ARC
  5
28E6
  8
0
 10
281.229941630666076
 20
26.3847048268720989
 30
0.0
 40
1.0065967565760421
 50
70.9392599304166396
 51
89.1317279352645642
  0
ARC
  5
28E7
  8
0
 10
281.247303253792893
 20
22.9095236196037497
 30
0.0
 40
0.5737866985728479
 50
269.7895008538146158
 51
356.5683234465504938
  0
ARC
  5
28E8
  8
0
 10
11246.788003983490853
 20
-578.6072804871480457
 30
0.0
 40
10981.4526878865908657
 50
176.8499426607720011
 51
176.8601912699994898
  0
ARC
  5
28E9
  8
0
 10
287.3502369460613863
 20
24.42306874784191
 30
0.0
 40
5.4381497750307144
 50
166.274653601025193
 51
175.639992276376006
  0
ARC
  5
28EA
  8
0
 10
280.5190150104443774
 20
26.3202929491838695
 30
0.0
 40
1.663220647888102
 50
1.62323569968773
 51
13.3062798958760897
  0
ARC
  5
28EB
  8
0
 10
282.7017620009871166
 20
26.8208854104459213
 30
0.0
 40
0.2323030804149728
 50
130.3362995291369089
 51
229.7645991110721866
  0
ARC
  5
28EC
  8
0
 10
282.6615327742562158
 20
26.773340167679109
 30
0.0
 40
0.1700219372565257
 50
229.7645991110719024
 51
298.0671168151650932
  0
ARC
  5
28ED
  8
0
 10
282.6424222679530089
 20
26.8091804566118412
 30
0.0
 40
0.2106389012241689
 50
298.0671168151652068
 51
330.7025122652149776
  0
ARC
  5
28EE
  8
0
 10
282.5933698904535163
 20
26.8266894280876897
 30
0.0
 40
0.2621304873483689
 50
332.6119386593397849
 51
358.8161272407170941
  0
ARC
  5
28EF
  8
0
 10
282.6183936260890164
 20
26.8206699171481198
 30
0.0
 40
0.2370515655212682
 50
0.1458988340057717
 51
38.2269871385583215
  0
ARC
  5
28F0
  8
0
 10
282.6630825556367199
 20
26.8591988345200008
 30
0.0
 40
0.1781238062240123
 50
37.38598869414826
 51
128.8292990152833113
  0
ARC
  5
28F1
  8
0
 10
282.5437879622379
 20
26.7681897298810902
 30
0.0
 40
0.2183723104756007
 50
236.6111077422580991
 51
296.9900140876732735
  0
ARC
  5
28F2
  8
0
 10
282.5812121914657951
 20
26.8158577731748196
 30
0.0
 40
0.278813325118295
 50
179.0708963342648019
 51
235.580495251874197
  0
ARC
  5
28F3
  8
0
 10
282.5880410410892978
 20
26.8239251762583883
 30
0.0
 40
0.2856275347689998
 50
180.7114098434383891
 51
180.7114098434398102
  0
ARC
  5
28F4
  8
0
 10
282.5411003356874744
 20
26.88640273038747
 30
0.0
 40
0.2083127244028132
 50
60.7479048338708481
 51
136.7256332305070998
  0
ARC
  5
28F5
  8
0
 10
282.410562000706193
 20
26.8203922675689483
 30
0.0
 40
0.1586106219314953
 50
117.410391736742298
 51
242.8324159360392116
  0
ARC
  5
28F6
  8
0
 10
282.3399653521843788
 20
26.8286617123433295
 30
0.0
 40
0.1397711303636729
 50
89.3123799150557858
 51
183.3043771833343953
  0
ARC
  5
28F7
  8
0
 10
282.3421926504062185
 20
26.8140279809534192
 30
0.0
 40
0.1419185428975319
 50
177.3436484820331032
 51
270.048184722203473
  0
LINE
  5
28F8
  8
0
 10
282.1263729192394862
 20
26.7421360072646799
 30
0.0
 11
282.2198308224641892
 21
26.7421360072646799
 31
0.0
  0
LINE
  5
28F9
  8
0
 10
282.0605995786443145
 20
26.8996163221646789
 30
0.0
 11
282.2195435425807091
 21
26.8996163221646789
 31
0.0
  0
LINE
  5
28FA
  8
0
 10
282.7345377679976082
 20
26.6197897523840687
 30
0.0
 11
282.6428930039729153
 21
26.5736013009204086
 31
0.0
  0
LINE
  5
28FB
  8
0
 10
282.7297444773629991
 20
27.0243783687713304
 30
0.0
 11
282.6428930038716771
 21
27.0681510284599405
 31
0.0
  0
ARC
  5
28FC
  8
0
 10
282.5878498501605236
 20
26.82400482808821
 30
0.0
 40
0.2854373593288294
 50
134.0380434660658011
 51
180.7278736083231081
  0
ENDSEC
  0
EOF
