  0
SECTION
  2
HEADER
  9
$ACADVER
  1
AC1009
  9
$INSBASE
 10
4102.2995989061091677
 20
126.3497035640381938
 30
0.0
  9
$EXTMIN
 10
4101.1028607036087124
 20
122.960703564038198
 30
0.0
  9
$EXTMAX
 10
4103.4963371086096231
 20
126.3550665407233993
 30
0.0
  9
$LIMMIN
 10
0.0
 20
0.0
  9
$LIMMAX
 10
11.6929133858000007
 20
8.2677165353999982
  9
$ORTHOMODE
 70
     1
  9
$REGENMODE
 70
     1
  9
$FILLMODE
 70
     1
  9
$QTEXTMODE
 70
     0
  9
$MIRRTEXT
 70
     0
  9
$DRAGMODE
 70
     2
  9
$LTSCALE
 40
0.6431102362
  9
$OSMODE
 70
  4095
  9
$ATTMODE
 70
     1
  9
$TEXTSIZE
 40
0.2
  9
$TRACEWID
 40
0.05
  9
$TEXTSTYLE
  7
STANDARD
  9
$CLAYER
  8
0
  9
$CELTYPE
  6
BYLAYER
  9
$CECOLOR
 62
   256
  9
$DIMSCALE
 40
1.0
  9
$DIMASZ
 40
0.1875
  9
$DIMEXO
 40
0.0625
  9
$DIMDLI
 40
0.4443307087
  9
$DIMRND
 40
0.0
  9
$DIMDLE
 40
0.0
  9
$DIMEXE
 40
0.125
  9
$DIMTP
 40
0.01
  9
$DIMTM
 40
0.01
  9
$DIMTXT
 40
2.0
  9
$DIMCEN
 40
0.1052362205
  9
$DIMTSZ
 40
0.0
  9
$DIMTOL
 70
     1
  9
$DIMLIM
 70
     0
  9
$DIMTIH
 70
     1
  9
$DIMTOH
 70
     1
  9
$DIMSE1
 70
     0
  9
$DIMSE2
 70
     0
  9
$DIMTAD
 70
     0
  9
$DIMZIN
 70
     0
  9
$DIMBLK
  1

  9
$DIMASO
 70
     1
  9
$DIMSHO
 70
     1
  9
$DIMPOST
  1
\X
  9
$DIMAPOST
  1

  9
$DIMALT
 70
     1
  9
$DIMALTD
 70
     2
  9
$DIMALTF
 40
25.3999999999999986
  9
$DIMLFAC
 40
1.0
  9
$DIMTOFL
 70
     0
  9
$DIMTVP
 40
0.0
  9
$DIMTIX
 70
     0
  9
$DIMSOXD
 70
     0
  9
$DIMSAH
 70
     0
  9
$DIMBLK1
  1

  9
$DIMBLK2
  1

  9
$DIMSTYLE
  2
STANDARD
  9
$DIMCLRD
 70
     0
  9
$DIMCLRE
 70
     0
  9
$DIMCLRT
 70
     0
  9
$DIMTFAC
 40
1.0
  9
$DIMGAP
 40
0.09
  9
$LUNITS
 70
     2
  9
$LUPREC
 70
     4
  9
$SKETCHINC
 40
0.1
  9
$FILLETRAD
 40
0.0
  9
$AUNITS
 70
     0
  9
$AUPREC
 70
     0
  9
$MENU
  1
.
  9
$ELEVATION
 40
0.0
  9
$PELEVATION
 40
0.0
  9
$THICKNESS
 40
0.0
  9
$LIMCHECK
 70
     0
  9
$BLIPMODE
 70
     0
  9
$CHAMFERA
 40
0.0
  9
$CHAMFERB
 40
0.0
  9
$SKPOLY
 70
     0
  9
$TDCREATE
 40
2458060.468368056230247
  9
$TDUPDATE
 40
2459787.6152199069038033
  9
$TDINDWG
 40
0.3025996528
  9
$TDUSRTIMER
 40
0.3025996528
  9
$USRTIMER
 70
     1
  9
$ANGBASE
 50
0.0
  9
$ANGDIR
 70
     0
  9
$PDMODE
 70
     0
  9
$PDSIZE
 40
0.3125
  9
$PLINEWID
 40
0.0
  9
$COORDS
 70
     1
  9
$SPLFRAME
 70
     0
  9
$SPLINETYPE
 70
     6
  9
$SPLINESEGS
 70
     8
  9
$ATTDIA
 70
     1
  9
$ATTREQ
 70
     1
  9
$HANDLING
 70
     1
  9
$HANDSEED
  5
697C
  9
$SURFTAB1
 70
     6
  9
$SURFTAB2
 70
     6
  9
$SURFTYPE
 70
     6
  9
$SURFU
 70
     6
  9
$SURFV
 70
     6
  9
$UCSNAME
  2

  9
$UCSORG
 10
0.0
 20
0.0
 30
0.0
  9
$UCSXDIR
 10
1.0
 20
0.0
 30
0.0
  9
$UCSYDIR
 10
0.0
 20
1.0
 30
0.0
  9
$PUCSNAME
  2

  9
$PUCSORG
 10
0.0
 20
0.0
 30
0.0
  9
$PUCSXDIR
 10
1.0
 20
0.0
 30
0.0
  9
$PUCSYDIR
 10
0.0
 20
1.0
 30
0.0
  9
$USERI1
 70
     0
  9
$USERI2
 70
     0
  9
$USERI3
 70
     0
  9
$USERI4
 70
     0
  9
$USERI5
 70
     0
  9
$USERR1
 40
0.0
  9
$USERR2
 40
0.0
  9
$USERR3
 40
0.0
  9
$USERR4
 40
0.0
  9
$USERR5
 40
0.0
  9
$WORLDVIEW
 70
     1
  9
$SHADEDGE
 70
     3
  9
$SHADEDIF
 70
    70
  9
$TILEMODE
 70
     1
  9
$MAXACTVP
 70
    64
  9
$PLIMCHECK
 70
     0
  9
$PEXTMIN
 10
1.0000000000000000E+20
 20
1.0000000000000000E+20
 30
1.0000000000000000E+20
  9
$PEXTMAX
 10
-1.0000000000000000E+20
 20
-1.0000000000000000E+20
 30
-1.0000000000000000E+20
  9
$PLIMMIN
 10
0.0
 20
0.0
  9
$PLIMMAX
 10
12.0
 20
9.0
  9
$UNITMODE
 70
     0
  9
$VISRETAIN
 70
     1
  9
$PLINEGEN
 70
     0
  9
$PSLTSCALE
 70
     1
  0
ENDSEC
  0
SECTION
  2
TABLES
  0
TABLE
  2
VPORT
 70
     1
  0
VPORT
  2
*ACTIVE
 70
     0
 10
0.0
 20
0.0
 11
1.0
 21
1.0
 12
0.0
 22
0.2977775725240623
 13
0.0
 23
0.0
 14
1.0
 24
1.0
 15
0.0
 25
0.0
 16
0.0
 26
0.0
 36
15.2490919813958907
 17
4102.299560546875
 27
124.6578837647464013
 37
0.0
 40
4.7500300054931772
 41
2.5251322751322749
 42
50.0
 43
0.0
 44
0.0
 50
0.0
 51
0.0
 71
     0
 72
   100
 73
     1
 74
     1
 75
     0
 76
     0
 77
     0
 78
     0
  0
ENDTAB
  0
TABLE
  2
LTYPE
 70
     2
  0
LTYPE
  2
CONTINUOUS
 70
     0
  3
Solid line
 72
    65
 73
     0
 40
0.0
  0
LTYPE
  2
PHANTOM2
 70
     0
  3
___ _ _ ___ _ _ ___ _ _ ___ _ _
 72
    65
 73
     6
 40
1.25
 49
0.625
 49
-0.125
 49
0.125
 49
-0.125
 49
0.125
 49
-0.125
  0
ENDTAB
  0
TABLE
  2
LAYER
 70
     2
  0
LAYER
  2
0
 70
     0
 62
   255
  6
CONTINUOUS
  0
LAYER
  2
DEFPOINTS
 70
     0
 62
     7
  6
CONTINUOUS
  0
ENDTAB
  0
TABLE
  2
STYLE
 70
     1
  0
STYLE
  2
STANDARD
 70
     0
 40
0.0
 41
0.8
 50
0.0
 71
     0
 42
0.2
  3
txt
  4

  0
ENDTAB
  0
TABLE
  2
VIEW
 70
     0
  0
ENDTAB
  0
TABLE
  2
UCS
 70
     0
  0
ENDTAB
  0
TABLE
  2
APPID
 70
     9
  0
APPID
  2
ACAD
 70
     0
  0
APPID
  2
ACAD_MLEADERVER
 70
     0
  0
APPID
  2
ACAD_EXEMPT_FROM_CAD_STANDARDS
 70
     0
  0
APPID
  2
ACAD_NAV_VCDISPLAY
 70
     0
  0
APPID
  2
ACAECLAYERSTANDARD
 70
     0
  0
APPID
  2
ACCMTRANSPARENCY
 70
     0
  0
APPID
  2
ACAD_DSTYLE_DIMJAG
 70
     0
  0
APPID
  2
ACAD_DSTYLE_DIMTALN
 70
     0
  0
APPID
  2
ACDBATTR
 70
     0
  0
ENDTAB
  0
TABLE
  2
DIMSTYLE
 70
     1
  0
DIMSTYLE
  2
STANDARD
 70
     0
  3

  4

  5

  6

  7

 40
1.0
 41
0.1875
 42
0.0625
 43
0.38
 44
0.125
 45
0.0
 46
0.0
 47
0.01
 48
0.01
140
0.15625
141
0.09
142
0.0
143
25.3999999999999986
144
1.0
145
0.0
146
1.0
147
0.09
 71
     1
 72
     0
 73
     1
 74
     1
 75
     0
 76
     0
 77
     0
 78
     4
170
     0
171
     2
172
     0
173
     0
174
     0
175
     0
176
     0
177
     0
178
     0
  0
ENDTAB
  0
ENDSEC
  0
SECTION
  2
BLOCKS
  0
BLOCK
  8
0
  2
$MODEL_SPACE
 70
     0
 10
0.0
 20
0.0
 30
0.0
  3
$MODEL_SPACE
  1

  0
ENDBLK
  5
21
  8
0
  0
BLOCK
 67
     1
  8
0
  2
$PAPER_SPACE
 70
     0
 10
0.0
 20
0.0
 30
0.0
  3
$PAPER_SPACE
  1

  0
ENDBLK
  5
1D
 67
     1
  8
0
  0
ENDSEC
  0
SECTION
  2
ENTITIES
  0
ATTDEF
  5
3930
  8
DEFPOINTS
 10
4102.2966323837854361
 20
126.3540665407233945
 30
0.0
 40
0.001
  1
K-16086IN-4
  3

  2
MODELNUMBER
 70
     0
1001
ACDBATTR
1070
     0
1070
     1
  0
ATTDEF
  5
3931
  8
DEFPOINTS
 10
4102.2966323837854361
 20
126.3523998740567009
 30
0.0
 40
0.001
  1
JULY
  3

  2
TRADENAME
 70
     0
1001
ACDBATTR
1070
     0
1070
     1
  0
ATTDEF
  5
3932
  8
DEFPOINTS
 10
4102.2966323837854361
 20
126.3507332073899931
 30
0.0
 40
0.001
  1
ANGLE VALVE
  3

  2
PRODUCT
 70
     0
1001
ACDBATTR
1070
     0
1070
     1
  0
LINE
  5
688A
  8
0
 10
4101.1184965439097141
 20
126.1709850920381939
 30
0.0
 11
4101.1028607036087124
 21
126.3497035640381938
 31
0.0
  0
LINE
  5
688B
  8
0
 10
4101.6885057980089186
 20
123.0478958357382027
 30
0.0
 11
4101.6885057980089186
 21
124.3497035640381938
 31
0.0
  0
LINE
  5
688C
  8
0
 10
4101.6893626856099218
 20
124.3890736427381967
 30
0.0
 11
4101.6893626856099218
 21
126.1134830915381997
 31
0.0
  0
LINE
  5
688D
  8
0
 10
4102.9106920142094168
 20
124.3497035640381938
 30
0.0
 11
4101.6885057980089186
 21
124.3497035640381938
 31
0.0
  0
LINE
  5
688E
  8
0
 10
4101.6893626856099218
 20
124.3890736427381967
 30
0.0
 11
4102.9098351266093232
 21
124.3890736427381967
 31
0.0
  0
LINE
  5
688F
  8
0
 10
4102.1774213537091782
 20
124.7926169498382052
 30
0.0
 11
4102.4219632391077539
 21
124.7926169498382052
 31
0.0
  0
LINE
  5
6890
  8
0
 10
4102.4708587488094054
 20
124.8221445089381945
 30
0.0
 11
4102.1283390634089301
 21
124.8221445089381945
 31
0.0
  0
LINE
  5
6891
  8
0
 10
4102.0242301494090498
 20
124.9756878159382012
 30
0.0
 11
4102.5750558478866878
 21
124.9756878159382012
 31
0.0
  0
LINE
  5
6892
  8
0
 10
4102.5495679041587209
 20
125.1882862411382007
 30
0.0
 11
4102.0506014447091729
 21
125.1882862411382007
 31
0.0
  0
LINE
  5
6893
  8
0
 10
4101.1812489658095728
 20
126.1134830915381997
 30
0.0
 11
4103.4179488464087626
 21
126.1134830915381997
 31
0.0
  0
LINE
  5
6894
  8
0
 10
4103.4963371086096231
 20
126.3497035640381938
 30
0.0
 11
4101.1028607036087124
 21
126.3497035640381938
 31
0.0
  0
ARC
  5
6895
  8
0
 10
4102.2995989061091677
 20
125.0504909655382022
 30
0.0
 40
0.4527559055
 50
90.0
 51
270.0
  0
ARC
  5
6896
  8
0
 10
4102.2995989061091677
 20
125.0504909655382022
 30
0.0
 40
0.4133858268
 50
90.0
 51
270.0
  0
ARC
  5
6897
  8
0
 10
4102.2995989061091677
 20
125.0504909655382022
 30
0.0
 40
0.2854330709
 50
90.0
 51
270.0
  0
ARC
  5
6898
  8
0
 10
4101.1812489658095728
 20
126.1764752175381972
 30
0.0
 40
0.062992126
 50
184.9999999999982947
 51
270.0
  0
ARC
  5
6899
  8
0
 10
4101.7641658352085869
 20
124.3497035640381938
 30
0.0
 40
0.0393700787
 50
0.0
 51
90.0
  0
ARC
  5
689A
  8
0
 10
4102.4545389301702016
 20
128.1809076406339898
 30
0.0
 40
5.222502945175191
 50
261.9094014769665932
 51
268.2999124467464753
  0
ARC
  5
689B
  8
0
 10
4101.7299657500998364
 20
123.050601785744206
 30
0.0
 40
0.0415481623269197
 50
183.7342043577758091
 51
255.4534381867321997
  0
LINE
  5
689C
  8
0
 10
4101.7195302355594322
 20
123.0103854976381967
 30
0.0
 11
4102.8796675766598128
 21
123.0103854976381967
 31
0.0
  0
ARC
  5
689D
  8
0
 10
4101.8572711795177383
 20
123.0441693257644005
 30
0.0
 40
0.0382162468630828
 50
169.5761703515372858
 51
242.1308467125768118
  0
ARC
  5
689E
  8
0
 10
4101.9682627460178992
 20
123.0215025524927057
 30
0.0
 40
0.1514932391347172
 50
107.6890799024576069
 51
168.7398560576152136
  0
ARC
  5
689F
  8
0
 10
4102.1471727070365887
 20
122.5179419982528941
 30
0.0
 40
0.6858290739888633
 50
92.4064493570801915
 51
109.1464973439199042
  0
ARC
  5
68A0
  8
0
 10
4102.3012421590628946
 20
119.7265150077284943
 30
0.0
 40
3.4814571454291272
 50
90.0270436941704872
 51
93.0108889624003581
  0
ARC
  5
68A1
  8
0
 10
4102.2995989061091677
 20
125.0504909655382022
 30
0.0
 40
0.3740151571999999
 50
90.0
 51
270.0
  0
LINE
  5
68A2
  8
0
 10
4103.4807012683086214
 20
126.1709850920381939
 30
0.0
 11
4103.4963371086096231
 21
126.3497035640381938
 31
0.0
  0
LINE
  5
68A3
  8
0
 10
4102.9106920142094168
 20
123.0478958357382027
 30
0.0
 11
4102.9106920142094168
 21
124.3497035640381938
 31
0.0
  0
LINE
  5
68A4
  8
0
 10
4102.9098351266093232
 20
124.3890736427381967
 30
0.0
 11
4102.9098351266093232
 21
126.1134830915381997
 31
0.0
  0
ARC
  5
68A5
  8
0
 10
4102.2995989061091677
 20
125.0504909655382022
 30
0.0
 40
0.4527559055
 50
270.0
 51
90.0
  0
ARC
  5
68A6
  8
0
 10
4102.2995989061091677
 20
125.0504909655382022
 30
0.0
 40
0.4133858268
 50
270.0
 51
90.0
  0
ARC
  5
68A7
  8
0
 10
4102.2995989061091677
 20
125.0504909655382022
 30
0.0
 40
0.2854330709
 50
270.0
 51
90.0
  0
ARC
  5
68A8
  8
0
 10
4103.4179488464087626
 20
126.1764752175381972
 30
0.0
 40
0.062992126
 50
270.0
 51
355.0000000000017053
  0
ARC
  5
68A9
  8
0
 10
4102.8350319770097485
 20
124.3497035640381938
 30
0.0
 40
0.0393700787
 50
90.0
 51
180.0
  0
ARC
  5
68AA
  8
0
 10
4102.1446588820490433
 20
128.1809076406339898
 30
0.0
 40
5.2225029451752043
 50
271.7000875532535247
 51
278.0905985230334068
  0
ARC
  5
68AB
  8
0
 10
4102.8692320621194085
 20
123.050601785744206
 30
0.0
 40
0.0415481623269197
 50
284.5465618132677719
 51
356.2657956422241909
  0
ARC
  5
68AC
  8
0
 10
4102.7419266327005971
 20
123.0441693257644005
 30
0.0
 40
0.0382162468630828
 50
297.8691532874228187
 51
10.4238296484627
  0
ARC
  5
68AD
  8
0
 10
4102.6309350662004363
 20
123.0215025524927057
 30
0.0
 40
0.1514932391347172
 50
11.2601439423848309
 51
72.3109200975424073
  0
ARC
  5
68AE
  8
0
 10
4102.4520251051817468
 20
122.5179419982528941
 30
0.0
 40
0.6858290739888633
 50
70.8535026560800532
 51
87.5935506429197943
  0
ARC
  5
68AF
  8
0
 10
4102.2979556531563503
 20
119.7265150077284943
 30
0.0
 40
3.4814571454291272
 50
86.9891110375996277
 51
89.9729563058295412
  0
ARC
  5
68B0
  8
0
 10
4102.2995989061091677
 20
125.0504909655382022
 30
0.0
 40
0.3740151571999999
 50
270.0
 51
90.0
  0
ENDSEC
  0
EOF
