  0
SECTION
  2
HEADER
  9
$ACADVER
  1
AC1009
  9
$INSBASE
 10
4361.136409640286729
 20
206.7953555975751101
 30
0.0
  9
$EXTMIN
 10
4355.6449694219472804
 20
205.5986173951251033
 30
0.0
  9
$EXTMAX
 10
4361.1473314301483697
 20
209.2526790437628961
 30
0.0
  9
$LIMMIN
 10
0.0
 20
0.0
  9
$LIMMAX
 10
11.6929133858000007
 20
8.2677165353999982
  9
$ORTHOMODE
 70
     0
  9
$REGENMODE
 70
     1
  9
$FILLMODE
 70
     1
  9
$QTEXTMODE
 70
     0
  9
$MIRRTEXT
 70
     0
  9
$DRAGMODE
 70
     2
  9
$LTSCALE
 40
0.6431102362
  9
$OSMODE
 70
   575
  9
$ATTMODE
 70
     1
  9
$TEXTSIZE
 40
0.2
  9
$TRACEWID
 40
0.05
  9
$TEXTSTYLE
  7
STANDARD
  9
$CLAYER
  8
0
  9
$CELTYPE
  6
BYLAYER
  9
$CECOLOR
 62
   256
  9
$DIMSCALE
 40
1.0
  9
$DIMASZ
 40
0.1875
  9
$DIMEXO
 40
0.0625
  9
$DIMDLI
 40
0.4443307087
  9
$DIMRND
 40
0.0
  9
$DIMDLE
 40
0.0
  9
$DIMEXE
 40
0.125
  9
$DIMTP
 40
0.01
  9
$DIMTM
 40
0.01
  9
$DIMTXT
 40
2.0
  9
$DIMCEN
 40
0.1052362205
  9
$DIMTSZ
 40
0.0
  9
$DIMTOL
 70
     1
  9
$DIMLIM
 70
     0
  9
$DIMTIH
 70
     1
  9
$DIMTOH
 70
     1
  9
$DIMSE1
 70
     0
  9
$DIMSE2
 70
     0
  9
$DIMTAD
 70
     0
  9
$DIMZIN
 70
     0
  9
$DIMBLK
  1

  9
$DIMASO
 70
     1
  9
$DIMSHO
 70
     1
  9
$DIMPOST
  1
\X
  9
$DIMAPOST
  1

  9
$DIMALT
 70
     1
  9
$DIMALTD
 70
     2
  9
$DIMALTF
 40
25.3999999999999986
  9
$DIMLFAC
 40
1.0
  9
$DIMTOFL
 70
     0
  9
$DIMTVP
 40
0.0
  9
$DIMTIX
 70
     0
  9
$DIMSOXD
 70
     0
  9
$DIMSAH
 70
     0
  9
$DIMBLK1
  1

  9
$DIMBLK2
  1

  9
$DIMSTYLE
  2
STANDARD
  9
$DIMCLRD
 70
     0
  9
$DIMCLRE
 70
     0
  9
$DIMCLRT
 70
     0
  9
$DIMTFAC
 40
1.0
  9
$DIMGAP
 40
0.09
  9
$LUNITS
 70
     2
  9
$LUPREC
 70
     4
  9
$SKETCHINC
 40
0.1
  9
$FILLETRAD
 40
0.0
  9
$AUNITS
 70
     0
  9
$AUPREC
 70
     0
  9
$MENU
  1
.
  9
$ELEVATION
 40
0.0
  9
$PELEVATION
 40
0.0
  9
$THICKNESS
 40
0.0
  9
$LIMCHECK
 70
     0
  9
$BLIPMODE
 70
     0
  9
$CHAMFERA
 40
0.0
  9
$CHAMFERB
 40
0.0
  9
$SKPOLY
 70
     0
  9
$TDCREATE
 40
2458060.468368056230247
  9
$TDUPDATE
 40
2459542.5138078709132969
  9
$TDINDWG
 40
0.4654121528
  9
$TDUSRTIMER
 40
0.4654121528
  9
$USRTIMER
 70
     1
  9
$ANGBASE
 50
0.0
  9
$ANGDIR
 70
     0
  9
$PDMODE
 70
     0
  9
$PDSIZE
 40
0.3125
  9
$PLINEWID
 40
0.0
  9
$COORDS
 70
     1
  9
$SPLFRAME
 70
     0
  9
$SPLINETYPE
 70
     6
  9
$SPLINESEGS
 70
     8
  9
$ATTDIA
 70
     1
  9
$ATTREQ
 70
     1
  9
$HANDLING
 70
     1
  9
$HANDSEED
  5
1E612
  9
$SURFTAB1
 70
     6
  9
$SURFTAB2
 70
     6
  9
$SURFTYPE
 70
     6
  9
$SURFU
 70
     6
  9
$SURFV
 70
     6
  9
$UCSNAME
  2

  9
$UCSORG
 10
0.0
 20
0.0
 30
0.0
  9
$UCSXDIR
 10
1.0
 20
0.0
 30
0.0
  9
$UCSYDIR
 10
0.0
 20
1.0
 30
0.0
  9
$PUCSNAME
  2

  9
$PUCSORG
 10
0.0
 20
0.0
 30
0.0
  9
$PUCSXDIR
 10
1.0
 20
0.0
 30
0.0
  9
$PUCSYDIR
 10
0.0
 20
1.0
 30
0.0
  9
$USERI1
 70
     0
  9
$USERI2
 70
     0
  9
$USERI3
 70
     0
  9
$USERI4
 70
     0
  9
$USERI5
 70
     0
  9
$USERR1
 40
0.0
  9
$USERR2
 40
0.0
  9
$USERR3
 40
0.0
  9
$USERR4
 40
0.0
  9
$USERR5
 40
0.0
  9
$WORLDVIEW
 70
     1
  9
$SHADEDGE
 70
     3
  9
$SHADEDIF
 70
    70
  9
$TILEMODE
 70
     1
  9
$MAXACTVP
 70
    64
  9
$PLIMCHECK
 70
     0
  9
$PEXTMIN
 10
1.0000000000000000E+20
 20
1.0000000000000000E+20
 30
1.0000000000000000E+20
  9
$PEXTMAX
 10
-1.0000000000000000E+20
 20
-1.0000000000000000E+20
 30
-1.0000000000000000E+20
  9
$PLIMMIN
 10
0.0
 20
0.0
  9
$PLIMMAX
 10
12.0
 20
9.0
  9
$UNITMODE
 70
     0
  9
$VISRETAIN
 70
     1
  9
$PLINEGEN
 70
     0
  9
$PSLTSCALE
 70
     1
  0
ENDSEC
  0
SECTION
  2
TABLES
  0
TABLE
  2
VPORT
 70
     1
  0
VPORT
  2
*ACTIVE
 70
     0
 10
0.0
 20
0.0
 11
1.0
 21
1.0
 12
447.0307939688988199
 22
74.846043112605841
 13
0.0
 23
0.0
 14
1.0
 24
1.0
 15
0.0
 25
0.0
 16
0.0
 26
0.0
 36
60.4960186965801583
 17
3911.3653564453120453
 27
132.5796051025390057
 37
0.0
 40
5.4655432639966399
 41
2.7531083481349912
 42
50.0
 43
0.0
 44
0.0
 50
0.0
 51
0.0
 71
     0
 72
   100
 73
     1
 74
     1
 75
     0
 76
     0
 77
     0
 78
     0
  0
ENDTAB
  0
TABLE
  2
LTYPE
 70
     2
  0
LTYPE
  2
CONTINUOUS
 70
     0
  3
Solid line
 72
    65
 73
     0
 40
0.0
  0
LTYPE
  2
PHANTOM2
 70
     0
  3
___ _ _ ___ _ _ ___ _ _ ___ _ _
 72
    65
 73
     6
 40
1.25
 49
0.625
 49
-0.125
 49
0.125
 49
-0.125
 49
0.125
 49
-0.125
  0
ENDTAB
  0
TABLE
  2
LAYER
 70
     2
  0
LAYER
  2
0
 70
     0
 62
   255
  6
CONTINUOUS
  0
LAYER
  2
DEFPOINTS
 70
     0
 62
     7
  6
CONTINUOUS
  0
ENDTAB
  0
TABLE
  2
STYLE
 70
     1
  0
STYLE
  2
STANDARD
 70
     0
 40
0.0
 41
0.8
 50
0.0
 71
     0
 42
0.2
  3
txt
  4

  0
ENDTAB
  0
TABLE
  2
VIEW
 70
     0
  0
ENDTAB
  0
TABLE
  2
UCS
 70
     0
  0
ENDTAB
  0
TABLE
  2
APPID
 70
    11
  0
APPID
  2
ACAD
 70
     0
  0
APPID
  2
ACAD_MLEADERVER
 70
     0
  0
APPID
  2
ACAD_EXEMPT_FROM_CAD_STANDARDS
 70
     0
  0
APPID
  2
ACAD_NAV_VCDISPLAY
 70
     0
  0
APPID
  2
ACAECLAYERSTANDARD
 70
     0
  0
APPID
  2
ACCMTRANSPARENCY
 70
     0
  0
APPID
  2
ACAD_DSTYLE_DIMJAG
 70
     0
  0
APPID
  2
ACAD_DSTYLE_DIMTALN
 70
     0
  0
APPID
  2
ACDBATTR
 70
     0
  0
APPID
  2
ACADANNOTATIVE
 70
     0
  0
APPID
  2
DCO15
 70
     0
  0
ENDTAB
  0
TABLE
  2
DIMSTYLE
 70
     1
  0
DIMSTYLE
  2
STANDARD
 70
     0
  3

  4

  5

  6

  7

 40
1.0
 41
0.1875
 42
0.0625
 43
0.38
 44
0.125
 45
0.0
 46
0.0
 47
0.01
 48
0.01
140
0.15625
141
0.09
142
0.0
143
25.3999999999999986
144
1.0
145
0.0
146
1.0
147
0.09
 71
     1
 72
     0
 73
     1
 74
     1
 75
     0
 76
     0
 77
     0
 78
     4
170
     0
171
     2
172
     0
173
     0
174
     0
175
     0
176
     0
177
     0
178
     0
  0
ENDTAB
  0
ENDSEC
  0
SECTION
  2
BLOCKS
  0
BLOCK
  8
0
  2
$MODEL_SPACE
 70
     0
 10
0.0
 20
0.0
 30
0.0
  3
$MODEL_SPACE
  1

  0
ENDBLK
  5
21
  8
0
  0
BLOCK
 67
     1
  8
0
  2
$PAPER_SPACE
 70
     0
 10
0.0
 20
0.0
 30
0.0
  3
$PAPER_SPACE
  1

  0
ENDBLK
  5
1D
 67
     1
  8
0
  0
ENDSEC
  0
SECTION
  2
ENTITIES
  0
LINE
  5
1E3D8
  8
0
 10
4358.1442891865872298
 20
205.6339406127250982
 30
0.0
 11
4358.9316753068987964
 21
205.6339406127250982
 31
0.0
  0
LINE
  5
1E3D9
  8
0
 10
4358.1245986166859439
 20
205.6536360724250869
 30
0.0
 11
4358.9513702635867958
 21
205.6536360724250869
 31
0.0
  0
LINE
  5
1E3DA
  8
0
 10
4361.136409640286729
 20
205.5986173951251033
 30
0.0
 11
4360.9576911682870559
 21
205.6142532353250942
 31
0.0
  0
LINE
  5
1E3DB
  8
0
 10
4358.125042592587306
 20
205.7243299634251059
 30
0.0
 11
4358.1548907988699284
 21
205.7070705092378091
 31
0.0
  0
LINE
  5
1E3DC
  8
0
 10
4358.1250266122870016
 20
205.7957182715250894
 30
0.0
 11
4358.1548286778761394
 21
205.7784889455905954
 31
0.0
  0
LINE
  5
1E3DD
  8
0
 10
4358.0429545618871998
 20
206.0866965182250965
 30
0.0
 11
4359.0497934524873926
 21
206.0866965182250965
 31
0.0
  0
LINE
  5
1E3DE
  8
0
 10
4358.1250397064868594
 20
205.8670904456251094
 30
0.0
 11
4358.1547930859860571
 21
205.8498879617251021
 31
0.0
  0
LINE
  5
1E3DF
  8
0
 10
4358.125104476686829
 20
205.9384684488537971
 30
0.0
 11
4358.1549109373872852
 21
205.9212880683251115
 31
0.0
  0
LINE
  5
1E3E0
  8
0
 10
4358.1250792999871919
 20
206.0099298650251001
 30
0.0
 11
4358.1549304030204439
 21
205.9927226813908021
 31
0.0
  0
LINE
  5
1E3E1
  8
0
 10
4358.1245986166859439
 20
206.0818838052250896
 30
0.0
 11
4358.154900779601121
 21
206.0641553230884142
 31
0.0
  0
LINE
  5
1E3E2
  8
0
 10
4358.1442891865872298
 20
205.6339406127250982
 30
0.0
 11
4358.1245986166859439
 21
205.6536360724250869
 31
0.0
  0
LINE
  5
1E3E3
  8
0
 10
4358.125042592587306
 20
205.7243299634251059
 30
0.0
 11
4358.1245986166859439
 21
205.7247855100251002
 31
0.0
  0
LINE
  5
1E3E4
  8
0
 10
4360.9001891677871754
 20
206.1654411568250964
 30
0.0
 11
4359.2072748076870994
 21
206.1654378405251009
 31
0.0
  0
LINE
  5
1E3E5
  8
0
 10
4358.9508971340883363
 20
205.7970039260250985
 30
0.0
 11
4358.9211651459318091
 21
205.8141908544048135
 31
0.0
  0
LINE
  5
1E3E6
  8
0
 10
4358.9508627595869257
 20
205.7255779398250866
 30
0.0
 11
4358.9211080733866766
 21
205.7427814303250955
 31
0.0
  0
LINE
  5
1E3E7
  8
0
 10
4358.1250792999871919
 20
206.0099298650251001
 30
0.0
 11
4358.1245986166859439
 21
206.0104617207250897
 31
0.0
  0
LINE
  5
1E3E8
  8
0
 10
4358.1245986166250077
 20
205.9390412174076914
 30
0.0
 11
4358.125104399787233
 21
205.9384685359250966
 31
0.0
  0
LINE
  5
1E3E9
  8
0
 10
4358.1250265913868134
 20
205.7957008377250929
 30
0.0
 11
4358.1245986166859439
 21
205.7961918327696083
 31
0.0
  0
LINE
  5
1E3EA
  8
0
 10
4358.1250397064868594
 20
205.8670904456251094
 30
0.0
 11
4358.1245986166250077
 21
205.8676022437074948
 31
0.0
  0
LINE
  5
1E3EB
  8
0
 10
4358.9509343927857117
 20
205.8683818777251986
 30
0.0
 11
4358.9211730785873442
 21
205.8855855709250875
 31
0.0
  0
LINE
  5
1E3EC
  8
0
 10
4358.950899899587057
 20
205.9397918053250862
 30
0.0
 11
4358.9210410955856787
 21
205.957004378525113
 31
0.0
  0
LINE
  5
1E3ED
  8
0
 10
4358.9508705109856237
 20
206.0111914779251094
 30
0.0
 11
4358.9210458364868828
 21
206.0284388576251047
 31
0.0
  0
LINE
  5
1E3EE
  8
0
 10
4358.9508592172860517
 20
206.0826551476251041
 30
0.0
 11
4358.943869322685714
 21
206.0866965182250965
 31
0.0
  0
LINE
  5
1E3EF
  8
0
 10
4358.9508627595869257
 20
205.7255779398250866
 30
0.0
 11
4358.9513702701869988
 21
205.7250265644306069
 31
0.0
  0
LINE
  5
1E3F0
  8
0
 10
4358.9508971340883363
 20
205.7970039260250985
 30
0.0
 11
4358.9513702701869988
 21
205.7964576345250975
 31
0.0
  0
LINE
  5
1E3F1
  8
0
 10
4357.9080709264871984
 20
207.567703063625089
 30
0.0
 11
4357.9080709264871984
 21
207.7401940344250875
 31
0.0
  0
LINE
  5
1E3F2
  8
0
 10
4357.9080818544871363
 20
207.8386226915251029
 30
0.0
 11
4357.9080818544871363
 21
208.5815372893250981
 31
0.0
  0
LINE
  5
1E3F3
  8
0
 10
4358.950899899587057
 20
205.9397918053250862
 30
0.0
 11
4358.9513702701869988
 21
205.9392706662250987
 31
0.0
  0
LINE
  5
1E3F4
  8
0
 10
4358.9508705109856237
 20
206.0111914779251094
 30
0.0
 11
4358.9513702701869988
 21
206.0106885907250955
 31
0.0
  0
LINE
  5
1E3F5
  8
0
 10
4358.9508592172860517
 20
206.0826551476251041
 30
0.0
 11
4358.9513702701869988
 21
206.0821144258250968
 31
0.0
  0
LINE
  5
1E3F6
  8
0
 10
4358.9509343927857117
 20
205.8683818777251986
 30
0.0
 11
4358.9513702701869988
 21
205.8678769194251004
 31
0.0
  0
LINE
  5
1E3F7
  8
0
 10
4357.9966458607868844
 20
207.8189376522252019
 30
0.0
 11
4357.9966458607868844
 21
207.7874415892250965
 31
0.0
  0
LINE
  5
1E3F8
  8
0
 10
4358.1245986166859439
 20
206.0866965182250965
 30
0.0
 11
4358.1245986166859439
 21
206.0818838052250896
 31
0.0
  0
LINE
  5
1E3F9
  8
0
 10
4358.1245986166859439
 20
206.0464006751251986
 30
0.0
 11
4358.1245986166859439
 21
206.0104617207250897
 31
0.0
  0
LINE
  5
1E3FA
  8
0
 10
4358.1245986166859439
 20
205.9749785235250954
 30
0.0
 11
4358.1245986166250077
 21
205.9390412174076914
 31
0.0
  0
LINE
  5
1E3FB
  8
0
 10
4358.1245986166859439
 20
205.9035649130250931
 30
0.0
 11
4358.1245986166250077
 21
205.8676022437074948
 31
0.0
  0
LINE
  5
1E3FC
  8
0
 10
4358.1245986166859439
 20
205.8321688620250995
 30
0.0
 11
4358.1245986166859439
 21
205.7961918327696083
 31
0.0
  0
LINE
  5
1E3FD
  8
0
 10
4358.1245986166859439
 20
205.7607441173252028
 30
0.0
 11
4358.1245986166859439
 21
205.7247855100251002
 31
0.0
  0
LINE
  5
1E3FE
  8
0
 10
4358.1245986166859439
 20
205.6893157889250858
 30
0.0
 11
4358.1245986166859439
 21
205.6536360724250869
 31
0.0
  0
LINE
  5
1E3FF
  8
0
 10
4356.278932800885741
 20
207.1634234892250959
 30
0.0
 11
4357.5191220319866261
 21
207.1634234892250959
 31
0.0
  0
LINE
  5
1E400
  8
0
 10
4360.8624029556867754
 20
207.4252614954251044
 30
0.0
 11
4360.9001891677871754
 21
207.4252614954251044
 31
0.0
  0
LINE
  5
1E401
  8
0
 10
4361.136409640286729
 20
207.9920938000252022
 30
0.0
 11
4360.9576911682870559
 21
207.97645795972511
 31
0.0
  0
LINE
  5
1E402
  8
0
 10
4360.5064687146868891
 20
207.779567573425112
 30
0.0
 11
4357.9474425843882273
 21
207.779567573425112
 31
0.0
  0
LINE
  5
1E403
  8
0
 10
4357.9277738506871174
 20
207.8189376522252019
 30
0.0
 11
4359.1481762323874136
 21
207.8189376522252019
 31
0.0
  0
LINE
  5
1E404
  8
0
 10
4358.9513702701869988
 20
206.0821144258250968
 30
0.0
 11
4358.9513702701869988
 21
206.0461687914250888
 31
0.0
  0
LINE
  5
1E405
  8
0
 10
4358.9513702701869988
 20
206.0106885907250955
 30
0.0
 11
4358.9513702701869988
 21
205.9747524486251109
 31
0.0
  0
LINE
  5
1E406
  8
0
 10
4358.9513702701869988
 20
205.9392706662250987
 30
0.0
 11
4358.9513702701869988
 21
205.9033117531251094
 31
0.0
  0
LINE
  5
1E407
  8
0
 10
4358.9513702701869988
 20
205.8678769200251111
 30
0.0
 11
4358.9513702701869988
 21
205.8318957847251056
 31
0.0
  0
LINE
  5
1E408
  8
0
 10
4358.9513702701869988
 20
205.7964576345250975
 30
0.0
 11
4358.9513702701869988
 21
205.7604888042251048
 31
0.0
  0
LINE
  5
1E409
  8
0
 10
4359.0793230260869677
 20
207.8189376522252019
 30
0.0
 11
4359.0793230260869677
 21
207.7874415892250965
 31
0.0
  0
LINE
  5
1E40A
  8
0
 10
4359.1678870323867159
 20
207.8386226915251029
 30
0.0
 11
4359.1678870323867159
 21
208.5472841089251119
 31
0.0
  0
LINE
  5
1E40B
  8
0
 10
4359.1678870321857175
 20
208.9016136040251013
 30
0.0
 11
4359.1678870321857175
 21
209.1607754681251095
 31
0.0
  0
LINE
  5
1E40C
  8
0
 10
4358.1250471428247693
 20
205.8326950612226085
 30
0.0
 11
4358.1245986166859439
 21
205.8321688621250871
 31
0.0
  0
LINE
  5
1E40D
  8
0
 10
4358.1250943039867707
 20
205.7613074528250934
 30
0.0
 11
4358.1245986166859439
 21
205.7607441177250962
 31
0.0
  0
LINE
  5
1E40E
  8
0
 10
4358.1250530155857632
 20
205.9040713261250914
 30
0.0
 11
4358.1245986166859439
 21
205.9035649132250967
 31
0.0
  0
LINE
  5
1E40F
  8
0
 10
4358.1250848989857332
 20
205.9755166128250892
 30
0.0
 11
4358.1245986166859439
 21
205.9749785240250901
 31
0.0
  0
LINE
  5
1E410
  8
0
 10
4359.3815959037856373
 20
208.5757298212251101
 30
0.0
 11
4359.3726301126862381
 21
207.779567573425112
 31
0.0
  0
LINE
  5
1E411
  8
0
 10
4358.1251081510872609
 20
205.6898870791250999
 30
0.0
 11
4358.1245986166859439
 21
205.6893157891252031
 31
0.0
  0
LINE
  5
1E412
  8
0
 10
4358.1560035912716558
 20
206.0647912650580054
 30
0.0
 11
4358.1251075645859601
 21
206.0469749138250961
 31
0.0
  0
LINE
  5
1E413
  8
0
 10
4358.1559582681866232
 20
205.9933152503251108
 30
0.0
 11
4358.125084898924797
 21
205.9755166128225881
 31
0.0
  0
LINE
  5
1E414
  8
0
 10
4358.9509057970872163
 20
206.0456532254250988
 30
0.0
 11
4358.9513702701869988
 21
206.0461687914250888
 31
0.0
  0
LINE
  5
1E415
  8
0
 10
4358.1559350989873565
 20
205.9218803574250956
 30
0.0
 11
4358.1250530155257366
 21
205.9040713261225903
 31
0.0
  0
LINE
  5
1E416
  8
0
 10
4358.1557781089868513
 20
205.8504573830250877
 30
0.0
 11
4358.1250471428247693
 21
205.8326950612226085
 31
0.0
  0
LINE
  5
1E417
  8
0
 10
4358.1558289676868299
 20
205.7790669457251056
 30
0.0
 11
4358.125094303924925
 21
205.761307452822706
 31
0.0
  0
LINE
  5
1E418
  8
0
 10
4359.460342858086733
 20
208.6535833214250886
 30
0.0
 11
4360.3754685484873335
 21
208.6535833214250886
 31
0.0
  0
LINE
  5
1E419
  8
0
 10
4358.9509401566856468
 20
205.8313982366250912
 30
0.0
 11
4358.9513702701869988
 21
205.8318957847251056
 31
0.0
  0
LINE
  5
1E41A
  8
0
 10
4358.9509101417870625
 20
205.9027808796251122
 30
0.0
 11
4358.9513702701869988
 21
205.9033117531251094
 31
0.0
  0
LINE
  5
1E41B
  8
0
 10
4358.9509371358872158
 20
205.7599972635250936
 30
0.0
 11
4358.9513702701869988
 21
205.7604888042251048
 31
0.0
  0
LINE
  5
1E41C
  8
0
 10
4358.9508749863871344
 20
205.9742035472251018
 30
0.0
 11
4358.9513702701869988
 21
205.9747524486251109
 31
0.0
  0
LINE
  5
1E41D
  8
0
 10
4358.1559088670874189
 20
205.7076578950251076
 30
0.0
 11
4358.1251081510272343
 21
205.6898870791225988
 31
0.0
  0
LINE
  5
1E41E
  8
0
 10
4358.9200200260856946
 20
206.0278455928250878
 30
0.0
 11
4358.9509057970872163
 21
206.0456532254252124
 31
0.0
  0
LINE
  5
1E41F
  8
0
 10
4358.9210410955856787
 20
205.957004378525113
 30
0.0
 11
4358.9508749863871344
 21
205.9742035472251018
 31
0.0
  0
LINE
  5
1E420
  8
0
 10
4358.9316753068987964
 20
205.6339406127250982
 30
0.0
 11
4358.9513702635867958
 21
205.6536360724250869
 31
0.0
  0
LINE
  5
1E421
  8
0
 10
4358.9201870897859408
 20
205.8850155849250996
 30
0.0
 11
4358.9509101417870625
 21
205.9027808796251122
 31
0.0
  0
LINE
  5
1E422
  8
0
 10
4358.9201676569873598
 20
205.8136143920251016
 30
0.0
 11
4358.9509401566856468
 21
205.8313982366250912
 31
0.0
  0
LINE
  5
1E423
  8
0
 10
4358.9200929266871753
 20
205.7421944446251985
 30
0.0
 11
4358.9509371358872158
 21
205.7599972635250936
 31
0.0
  0
LINE
  5
1E424
  8
0
 10
4358.5379844433928156
 20
209.2526790191251109
 30
0.0
 11
4356.3726305435857284
 21
209.2523977530250932
 31
0.0
  0
LINE
  5
1E425
  8
0
 10
4360.4542155026865657
 20
208.5757298212251101
 30
0.0
 11
4360.4631812937868744
 21
207.779567573425112
 31
0.0
  0
LINE
  5
1E426
  8
0
 10
4360.5458464910880139
 20
207.7317465962250935
 30
0.0
 11
4360.5458464910880139
 21
207.740194034625091
 31
0.0
  0
LINE
  5
1E427
  8
0
 10
4360.9001891677871754
 20
207.9137055378251091
 30
0.0
 11
4360.9001891677871754
 21
205.6770056573251964
 31
0.0
  0
LINE
  5
1E428
  8
0
 10
4361.136409640286729
 20
205.5986173951251033
 30
0.0
 11
4361.136409640286729
 21
207.9920938000252022
 31
0.0
  0
ARC
  5
1E429
  8
0
 10
4356.2803724990208138
 20
202.297986818834687
 30
0.0
 40
4.8654368833960291
 50
90.016954002297652
 51
97.0942477736993368
  0
ARC
  5
1E42A
  8
0
 10
4356.3692028540090178
 20
207.1407313302348996
 30
0.0
 40
2.1116692047277792
 50
89.9069966867098884
 51
102.6250274225947976
  0
ARC
  5
1E42B
  8
0
 10
4357.8686756109646012
 20
205.9951110573649942
 30
0.0
 40
0.1968782602915788
 50
27.72240840799968
 51
84.445255330802965
  0
ARC
  5
1E42C
  8
0
 10
4357.9474588824978127
 20
207.7401796181480051
 30
0.0
 40
0.0393879586490343
 50
90.0237080829058272
 51
179.9790293307900129
  0
ARC
  5
1E42D
  8
0
 10
4355.9162745051189631
 20
209.1629207432328883
 30
0.0
 40
0.0393772118320748
 50
102.6421757467578999
 51
191.313245114812986
  0
ARC
  5
1E42E
  8
0
 10
4355.6843450180404034
 20
207.0871014333245057
 30
0.0
 40
0.0393755960929992
 50
97.0942762662552212
 51
182.1213327291285111
  0
ARC
  5
1E42F
  8
0
 10
4357.9278401037363437
 20
207.8386959261185893
 30
0.0
 40
0.0197583849723208
 50
180.2123676976524109
 51
269.8078776559769949
  0
ARC
  5
1E430
  8
0
 10
4358.0045198764855741
 20
207.7874415892250965
 30
0.0
 40
0.0078740157
 50
180.0
 51
270.0
  0
ARC
  5
1E431
  8
0
 10
4358.5383925262240155
 20
205.8730851484014863
 30
0.0
 40
3.3795938953614231
 50
79.824387116943484
 51
90.0069184122899202
  0
ARC
  5
1E432
  8
0
 10
4359.2072862109816924
 20
205.9685643071605909
 30
0.0
 40
0.1968735336947888
 50
90.0033186822082882
 51
143.1271589649001044
  0
ARC
  5
1E433
  8
0
 10
4360.3754803361398444
 20
208.5748431634536075
 30
0.0
 40
0.0787401588538659
 50
0.6451958786184016
 51
90.0085773606276547
  0
ARC
  5
1E434
  8
0
 10
4359.4603310703341776
 20
208.5748431634536075
 30
0.0
 40
0.0787401588538872
 50
89.9914225665743857
 51
179.3548041213767021
  0
ARC
  5
1E435
  8
0
 10
4360.9631812937868744
 20
205.6770056573251964
 30
0.0
 40
0.062992126
 50
180.0
 51
264.9999999999743068
  0
ARC
  5
1E436
  8
0
 10
4360.9631812937868744
 20
207.9137055378251091
 30
0.0
 40
0.062992126
 50
95.0000000000256932
 51
180.0
  0
ARC
  5
1E437
  8
0
 10
4360.5064585392301524
 20
207.740179620245101
 30
0.0
 40
0.0393879544943751
 50
0.0209679118388066
 51
89.9851982479118533
  0
ARC
  5
1E438
  8
0
 10
4359.1285444956283754
 20
209.1607895064385048
 30
0.0
 40
0.039342539063669
 50
359.9795555613507076
 51
79.8890967619622074
  0
ARC
  5
1E439
  8
0
 10
4359.1481768016874412
 20
207.8386334894250922
 30
0.0
 40
0.0196845216
 50
270.0417632572850835
 51
359.9686115588993971
  0
ARC
  5
1E43A
  8
0
 10
4359.0714490103882781
 20
207.7874415892250965
 30
0.0
 40
0.0078740157
 50
270.0
 51
0.0
  0
LINE
  5
1E43B
  8
0
 10
4358.9513702701869988
 20
205.7250265644306069
 30
0.0
 11
4358.9513702635867958
 21
205.6536360724250869
 31
0.0
  0
ARC
  5
1E43C
  8
0
 10
4360.8484143829082313
 20
207.9511133340278946
 30
0.0
 40
0.5260378658711679
 50
260.5311675706490178
 51
271.5238079343463937
  0
ARC
  5
1E43D
  8
0
 10
4360.8101689330742374
 20
207.6947357048530876
 30
0.0
 40
0.2668986645059497
 50
220.6451386677715902
 51
259.5752745378875943
  0
ARC
  5
1E43E
  8
0
 10
4360.7984369991909261
 20
207.683117905465906
 30
0.0
 40
0.2504321982920532
 50
189.6416280700678101
 51
220.3767132689062009
  0
ARC
  5
1E43F
  8
0
 10
4361.0400689644511658
 20
207.7173611648377971
 30
0.0
 40
0.4944317888385008
 50
178.3327511421082932
 51
188.8640137422707141
  0
ARC
  5
1E440
  8
0
 10
4359.7723034203409043
 20
208.7244488568163092
 30
0.0
 40
0.6298464240774591
 50
163.663239573353593
 51
196.3367604913256059
  0
ARC
  5
1E441
  8
0
 10
4357.169756952118405
 20
202.876428192070307
 30
0.0
 40
3.8689873979367508
 50
58.2220825259018469
 51
61.0605703177977901
  0
ARC
  5
1E442
  8
0
 10
4358.014775481500692
 20
204.4042154605778876
 30
0.0
 40
2.1230807117815012
 50
61.0667660381244914
 51
65.7045100412324246
  0
ARC
  5
1E443
  8
0
 10
4358.450555830932899
 20
205.3908497400097133
 30
0.0
 40
1.044565145640415
 50
65.2241364971715711
 51
77.9111805394588259
  0
ARC
  5
1E444
  8
0
 10
4358.5374094002536367
 20
205.7647366594746927
 30
0.0
 40
0.6608131610400734
 50
78.4856292850790851
 51
90.6774111131890379
  0
ARC
  5
1E445
  8
0
 10
4358.5390703877937995
 20
205.7622932682909038
 30
0.0
 40
0.6632780266765608
 50
90.8183865011297655
 51
100.1692671668847936
  0
ARC
  5
1E446
  8
0
 10
4358.5933214809228957
 20
205.4887431742133117
 30
0.0
 40
0.9421229854312915
 50
100.4795318344132937
 51
111.9768618491498984
  0
ARC
  5
1E447
  8
0
 10
4359.0340541841569575
 20
204.3631270119821863
 30
0.0
 40
2.1509191794514511
 50
111.6429590239428933
 51
116.9110444468252012
  0
ARC
  5
1E448
  8
0
 10
4360.8942151837782149
 20
200.6331719686980932
 30
0.0
 40
6.3189484250417109
 50
116.6437616400015003
 51
118.4106953951419001
  0
ARC
  5
1E449
  8
0
 10
4358.6550464782349081
 20
213.9101467089687958
 30
0.0
 40
7.757125476222952
 50
261.7707025157794192
 51
264.3231744394720977
  0
ARC
  5
1E44A
  8
0
 10
4351.9359063573538151
 20
167.8371679846887048
 30
0.0
 40
38.8032313069212407
 50
81.6890519858102948
 51
82.2474931642659755
  0
ARC
  5
1E44B
  8
0
 10
4356.3372934187036662
 20
200.1106485854045047
 30
0.0
 40
6.2310131805652578
 50
82.3178400455990698
 51
86.2809015069157965
  0
ARC
  5
1E44C
  8
0
 10
4357.5335948831207133
 20
207.5143839911094119
 30
0.0
 40
0.3512587896448677
 50
267.6385840894225225
 51
289.1138413307613746
  0
ARC
  5
1E44D
  8
0
 10
4357.5027518280639924
 20
207.5601637763965925
 30
0.0
 40
0.404861595314199
 50
291.1170687042392728
 51
323.5087197987949139
  0
ARC
  5
1E44E
  8
0
 10
4357.5373743955969985
 20
207.5487362337659931
 30
0.0
 40
0.3704064684942016
 50
321.7445982180017836
 51
356.8806286128639726
  0
ARC
  5
1E44F
  8
0
 10
4357.1216472698961297
 20
207.5649951953415098
 30
0.0
 40
0.786428318536385
 50
357.3459999286823177
 51
0.1972840080265496
  0
LINE
  5
1E450
  8
0
 10
4355.7500879816252564
 20
206.3323689513296131
 30
0.0
 11
4355.7133970877357569
 21
206.3718132047251004
 31
0.0
  0
LINE
  5
1E451
  8
0
 10
4355.7533381080083927
 20
206.501876527183498
 30
0.0
 11
4355.7133970877357569
 21
206.3718132047251004
 31
0.0
  0
LINE
  5
1E452
  8
0
 10
4356.0220872400368535
 20
206.4053425712251908
 30
0.0
 11
4355.9860761055360854
 21
206.288076468125098
 31
0.0
  0
LINE
  5
1E453
  8
0
 10
4355.8149424690373053
 20
206.3021566908250861
 30
0.0
 11
4356.4886173982367836
 21
206.0952785066251067
 31
0.0
  0
LINE
  5
1E454
  8
0
 10
4355.7500879816252564
 20
206.3323689513296131
 30
0.0
 11
4356.5592506058783329
 21
206.0838839815116046
 31
0.0
  0
LINE
  5
1E455
  8
0
 10
4355.7133970877357569
 20
206.3718132047251004
 30
0.0
 11
4355.9860761055360854
 21
206.288076468125098
 31
0.0
  0
LINE
  5
1E456
  8
0
 10
4356.3390767604369103
 20
206.1796738375250868
 30
0.0
 11
4356.6117557782372387
 21
206.0959371009251129
 31
0.0
  0
LINE
  5
1E457
  8
0
 10
4356.3750878949367689
 20
206.2969399405251067
 30
0.0
 11
4356.0220872400368535
 21
206.4053425712251908
 31
0.0
  0
LINE
  5
1E458
  8
0
 10
4356.3390767604369103
 20
206.1796738375250868
 30
0.0
 11
4356.3750878949367689
 21
206.2969399405251067
 31
0.0
  0
LINE
  5
1E459
  8
0
 10
4356.684472132994415
 20
206.3327295174238998
 30
0.0
 11
4356.6117557782372387
 21
206.0959371009251129
 31
0.0
  0
LINE
  5
1E45A
  8
0
 10
4356.5592506058783329
 20
206.0838839815116046
 30
0.0
 11
4356.6117557782372387
 21
206.0959371009251129
 31
0.0
  0
ARC
  5
1E45B
  8
0
 10
4355.8195654452356393
 20
206.3172108792250867
 30
0.0
 40
0.0157480315
 50
184.9531649932384028
 51
252.9288519354917071
  0
ARC
  5
1E45C
  8
0
 10
4356.4932403743359828
 20
206.1103326950251073
 30
0.0
 40
0.0157480315
 50
252.9288519354917071
 51
320.9045388894339794
  0
ARC
  5
1E45D
  8
0
 10
4355.9724834207618187
 20
205.6148591989037868
 30
0.0
 40
0.7920381940485678
 50
59.4483775348928987
 51
86.409326336219948
  0
ARC
  5
1E45E
  8
0
 10
4356.3886805796264525
 20
206.970157209796298
 30
0.0
 40
0.7920381939751563
 50
239.4483775408295116
 51
266.4093263367420832
  0
ARC
  5
1E45F
  8
0
 10
4356.2135278619643941
 20
197.4858492135016945
 30
0.0
 40
8.8584362823390972
 50
86.5832952749937022
 51
86.8656706724601548
  0
ARC
  5
1E460
  8
0
 10
4356.7180445843368943
 20
206.5443777716087084
 30
0.0
 40
0.2142944072734654
 50
260.9866215421005791
 51
264.6009796226039157
  0
ARC
  5
1E461
  8
0
 10
4356.847934002288639
 20
207.4043150838527083
 30
0.0
 40
1.0839812770391499
 50
257.9620272581065024
 51
261.3268434953214978
  0
ARC
  5
1E462
  8
0
 10
4359.1945357802023864
 20
217.3108685168978127
 30
0.0
 40
11.2644183385558208
 50
255.6274136433748936
 51
256.7977164307880003
  0
ARC
  5
1E463
  8
0
 10
4355.0033958152562263
 20
198.7357154235706957
 30
0.0
 40
7.7892263607659267
 50
79.6829337617688367
 51
82.1513057631158716
  0
ARC
  5
1E464
  8
0
 10
4328.3858030149558545
 20
33.4341035331358682
 30
0.0
 40
175.2182525486103088
 50
80.9102360960983162
 51
81.0249497517071831
  0
ARC
  5
1E465
  8
0
 10
4355.724270180968233
 20
206.5303857817210087
 30
0.0
 40
0.02362236011305
 50
200.7310192594123066
 51
261.0953883530402209
  0
ARC
  5
1E466
  8
0
 10
4356.5249112762749064
 20
206.7856563035423108
 30
0.0
 40
0.8639405188156722
 50
182.6597425371554095
 51
197.767254273140793
  0
ARC
  5
1E467
  8
0
 10
4364.9043844456109582
 20
207.3754619783275075
 30
0.0
 40
9.2639225689477271
 50
181.7927677629704135
 51
183.8988103615089074
  0
ARC
  5
1E468
  8
0
 10
4357.0670590421859742
 20
208.60931514405641
 30
0.0
 40
0.8414814198917125
 50
358.1082849866191964
 51
10.9278248760854897
  0
ARC
  5
1E469
  8
0
 10
4357.6271775033983431
 20
208.7127752372117868
 30
0.0
 40
0.2719454401416852
 50
11.89680963111328
 51
58.3723584002375091
  0
ARC
  5
1E46A
  8
0
 10
4357.5910069933888735
 20
208.6309910578960967
 30
0.0
 40
0.3607528585555123
 50
60.2927438271862499
 51
80.3444243185029734
  0
ARC
  5
1E46B
  8
0
 10
4357.510020247533248
 20
208.058408636468414
 30
0.0
 40
0.9389471863808683
 50
81.3328323448103419
 51
92.0376612676848254
  0
ARC
  5
1E46C
  8
0
 10
4356.9246108532188373
 20
220.8468943909859092
 30
0.0
 40
11.8629829980863697
 50
267.333083106208619
 51
272.6671251402866005
  0
ARC
  5
1E46D
  8
0
 10
4356.3315838776816236
 20
211.0368520596705082
 30
0.0
 40
2.040504845611228
 50
263.8455491222142086
 51
271.1526239055082783
  0
ARC
  5
1E46E
  8
0
 10
4356.1628937594159652
 20
209.4864172371715085
 30
0.0
 40
0.4809231765968167
 50
244.5256406853127942
 51
264.0239361591699208
  0
ARC
  5
1E46F
  8
0
 10
4356.0216269732691217
 20
209.1834975883056984
 30
0.0
 40
0.1467200486173041
 50
191.1217895955284121
 51
243.449573069146993
  0
ARC
  5
1E470
  8
0
 10
4358.1620624413026235
 20
205.9387411826336063
 30
0.0
 40
0.1479640110204712
 50
90.620450560605164
 51
104.6666874697052947
  0
ARC
  5
1E471
  8
0
 10
4358.8114889400849279
 20
196.5955955676573126
 30
0.0
 40
9.4918558879798525
 50
90.7254194110979171
 51
93.9598640825335849
  0
ARC
  5
1E472
  8
0
 10
4346.2450822660430276
 20
495.1231085767976197
 30
0.0
 40
289.3201445710732855
 50
272.3533333113867911
 51
272.5171109657587181
  0
LINE
  5
1E473
  8
0
 10
4358.1245986166859439
 20
206.0464006751251986
 30
0.0
 11
4358.1251075645859601
 21
206.0469749138250961
 31
0.0
  0
ARC
  5
1E474
  8
0
 10
4347.1870748916671801
 20
472.5453959026343114
 30
0.0
 40
266.7592558180317042
 50
272.3498703526415738
 51
272.5275093624597957
  0
ARC
  5
1E475
  8
0
 10
4356.1876782444087439
 20
258.0165134626221857
 30
0.0
 40
52.0604194997309193
 50
272.1667328747208785
 51
273.0084969589265143
  0
ARC
  5
1E476
  8
0
 10
4346.8555392408052285
 20
480.4512096268767891
 30
0.0
 40
274.7069506126225065
 50
272.3511551229369729
 51
272.523650041011706
  0
ARC
  5
1E477
  8
0
 10
4346.6820869220773602
 20
484.551453680491818
 30
0.0
 40
278.8472833871248895
 50
272.3517954067685878
 51
272.521727181074823
  0
ARC
  5
1E478
  8
0
 10
4356.5614638135721179
 20
249.0049310993609026
 30
0.0
 40
43.112545736853022
 50
272.1195063495068212
 51
273.1374024140026222
  0
ARC
  5
1E479
  8
0
 10
4347.314412274849019
 20
469.4044253215412823
 30
0.0
 40
263.7220250736273783
 50
272.3493589236633738
 51
272.5290460252235221
  0
ARC
  5
1E47A
  8
0
 10
4346.9555589695328308
 20
477.939559334638318
 30
0.0
 40
272.3011150949030252
 50
272.3507741019894866
 51
272.524798606516697
  0
ARC
  5
1E47B
  8
0
 10
4356.1955431617516297
 20
257.6812465815070254
 30
0.0
 40
51.867843891816463
 50
272.1658880392359947
 51
273.0111620610149998
  0
ARC
  5
1E47C
  8
0
 10
4347.0048385492837042
 20
476.736787847831522
 30
0.0
 40
271.1322307061619767
 50
272.3505865780805948
 51
272.525363802809693
  0
ARC
  5
1E47D
  8
0
 10
4346.2445926936716205
 20
494.871877403677388
 30
0.0
 40
289.3196960613315127
 50
272.3533331213369024
 51
272.51710310970401
  0
ARC
  5
1E47E
  8
0
 10
4356.1896890250300203
 20
257.7510821897063806
 30
0.0
 40
52.0091922144032992
 50
272.1665087497211175
 51
273.0094075864267893
  0
ARC
  5
1E47F
  8
0
 10
4347.5053048743538966
 20
464.648814213418575
 30
0.0
 40
259.1417026253815834
 50
272.3485649871772125
 51
272.5314328700814031
  0
ARC
  5
1E480
  8
0
 10
4356.1874431185033245
 20
257.7352979702133098
 30
0.0
 40
52.0648652086673422
 50
272.1667523044068844
 51
273.0085792748786275
  0
ARC
  5
1E481
  8
0
 10
4346.2451022280720281
 20
494.7655726500328797
 30
0.0
 40
289.3196960613315127
 50
272.3533331213369024
 51
272.5171109133373193
  0
ARC
  5
1E482
  8
0
 10
4346.4477294298567358
 20
489.9905550599704043
 30
0.0
 40
284.4690247561716774
 50
272.3526349495829209
 51
272.5192083060455843
  0
ATTDEF
  5
1E484
  8
DEFPOINTS
 10
4361.1366647634786204
 20
206.7988931585832972
 30
0.0
 40
0.001
  1
K-16094IN-4
  3

  2
MODELNUMBER
 70
     0
1001
ACDBATTR
1070
     0
1070
     1
  0
ATTDEF
  5
1E485
  8
DEFPOINTS
 10
4361.1365389538223098
 20
206.7972263182041104
 30
0.0
 40
0.001
  1
JULY
  3

  2
TRADENAME
 70
     0
1001
ACDBATTR
1070
     0
1070
     1
  0
ATTDEF
  5
1E486
  8
DEFPOINTS
 10
4361.1366647634786204
 20
206.7955598252499101
 30
0.0
 40
0.001
  1
BIB TAP
  3

  2
PRODUCT
 70
     0
1001
ACDBATTR
1070
     0
1070
     1
  0
ENDSEC
  0
EOF
