  0
SECTION
  2
HEADER
  9
$ACADVER
  1
AC1009
  9
$INSBASE
 10
3904.6199708501121677
 20
71.5011612395753815
 30
0.0
  9
$EXTMIN
 10
3896.1070553416880102
 20
67.0944661754455609
 30
0.0
  9
$EXTMAX
 10
3906.7919256665131797
 20
75.4666383922737225
 30
0.0
  9
$LIMMIN
 10
0.0
 20
0.0
  9
$LIMMAX
 10
11.6929133858000007
 20
8.2677165353999982
  9
$ORTHOMODE
 70
     0
  9
$REGENMODE
 70
     1
  9
$FILLMODE
 70
     1
  9
$QTEXTMODE
 70
     0
  9
$MIRRTEXT
 70
     0
  9
$DRAGMODE
 70
     2
  9
$LTSCALE
 40
0.6431102362
  9
$OSMODE
 70
  4095
  9
$ATTMODE
 70
     1
  9
$TEXTSIZE
 40
0.2
  9
$TRACEWID
 40
0.05
  9
$TEXTSTYLE
  7
STANDARD
  9
$CLAYER
  8
0
  9
$CELTYPE
  6
BYLAYER
  9
$CECOLOR
 62
   256
  9
$DIMSCALE
 40
1.0
  9
$DIMASZ
 40
0.1875
  9
$DIMEXO
 40
0.0625
  9
$DIMDLI
 40
0.4443307087
  9
$DIMRND
 40
0.0
  9
$DIMDLE
 40
0.0
  9
$DIMEXE
 40
0.125
  9
$DIMTP
 40
0.01
  9
$DIMTM
 40
0.01
  9
$DIMTXT
 40
2.0
  9
$DIMCEN
 40
0.1052362205
  9
$DIMTSZ
 40
0.0
  9
$DIMTOL
 70
     1
  9
$DIMLIM
 70
     0
  9
$DIMTIH
 70
     1
  9
$DIMTOH
 70
     1
  9
$DIMSE1
 70
     0
  9
$DIMSE2
 70
     0
  9
$DIMTAD
 70
     0
  9
$DIMZIN
 70
     0
  9
$DIMBLK
  1

  9
$DIMASO
 70
     1
  9
$DIMSHO
 70
     1
  9
$DIMPOST
  1
\X
  9
$DIMAPOST
  1

  9
$DIMALT
 70
     1
  9
$DIMALTD
 70
     2
  9
$DIMALTF
 40
25.3999999999999986
  9
$DIMLFAC
 40
1.0
  9
$DIMTOFL
 70
     0
  9
$DIMTVP
 40
0.0
  9
$DIMTIX
 70
     0
  9
$DIMSOXD
 70
     0
  9
$DIMSAH
 70
     0
  9
$DIMBLK1
  1

  9
$DIMBLK2
  1

  9
$DIMSTYLE
  2
STANDARD
  9
$DIMCLRD
 70
     0
  9
$DIMCLRE
 70
     0
  9
$DIMCLRT
 70
     0
  9
$DIMTFAC
 40
1.0
  9
$DIMGAP
 40
0.09
  9
$LUNITS
 70
     2
  9
$LUPREC
 70
     4
  9
$SKETCHINC
 40
0.1
  9
$FILLETRAD
 40
0.0
  9
$AUNITS
 70
     0
  9
$AUPREC
 70
     0
  9
$MENU
  1
.
  9
$ELEVATION
 40
0.0
  9
$PELEVATION
 40
0.0
  9
$THICKNESS
 40
0.0
  9
$LIMCHECK
 70
     0
  9
$BLIPMODE
 70
     0
  9
$CHAMFERA
 40
0.0
  9
$CHAMFERB
 40
0.0
  9
$SKPOLY
 70
     0
  9
$TDCREATE
 40
2458060.468368056230247
  9
$TDUPDATE
 40
2459068.9895138889551163
  9
$TDINDWG
 40
0.4164190972
  9
$TDUSRTIMER
 40
0.4164190972
  9
$USRTIMER
 70
     1
  9
$ANGBASE
 50
0.0
  9
$ANGDIR
 70
     0
  9
$PDMODE
 70
     0
  9
$PDSIZE
 40
0.3125
  9
$PLINEWID
 40
0.0
  9
$COORDS
 70
     1
  9
$SPLFRAME
 70
     0
  9
$SPLINETYPE
 70
     6
  9
$SPLINESEGS
 70
     8
  9
$ATTDIA
 70
     1
  9
$ATTREQ
 70
     1
  9
$HANDLING
 70
     1
  9
$HANDSEED
  5
73DE
  9
$SURFTAB1
 70
     6
  9
$SURFTAB2
 70
     6
  9
$SURFTYPE
 70
     6
  9
$SURFU
 70
     6
  9
$SURFV
 70
     6
  9
$UCSNAME
  2

  9
$UCSORG
 10
0.0
 20
0.0
 30
0.0
  9
$UCSXDIR
 10
1.0
 20
0.0
 30
0.0
  9
$UCSYDIR
 10
0.0
 20
1.0
 30
0.0
  9
$PUCSNAME
  2

  9
$PUCSORG
 10
0.0
 20
0.0
 30
0.0
  9
$PUCSXDIR
 10
1.0
 20
0.0
 30
0.0
  9
$PUCSYDIR
 10
0.0
 20
1.0
 30
0.0
  9
$USERI1
 70
     0
  9
$USERI2
 70
     0
  9
$USERI3
 70
     0
  9
$USERI4
 70
     0
  9
$USERI5
 70
     0
  9
$USERR1
 40
0.0
  9
$USERR2
 40
0.0
  9
$USERR3
 40
0.0
  9
$USERR4
 40
0.0
  9
$USERR5
 40
0.0
  9
$WORLDVIEW
 70
     1
  9
$SHADEDGE
 70
     3
  9
$SHADEDIF
 70
    70
  9
$TILEMODE
 70
     1
  9
$MAXACTVP
 70
    64
  9
$PLIMCHECK
 70
     0
  9
$PEXTMIN
 10
1.0000000000000000E+20
 20
1.0000000000000000E+20
 30
1.0000000000000000E+20
  9
$PEXTMAX
 10
-1.0000000000000000E+20
 20
-1.0000000000000000E+20
 30
-1.0000000000000000E+20
  9
$PLIMMIN
 10
0.0
 20
0.0
  9
$PLIMMAX
 10
12.0
 20
9.0
  9
$UNITMODE
 70
     0
  9
$VISRETAIN
 70
     1
  9
$PLINEGEN
 70
     0
  9
$PSLTSCALE
 70
     1
  0
ENDSEC
  0
SECTION
  2
TABLES
  0
TABLE
  2
VPORT
 70
     1
  0
VPORT
  2
*ACTIVE
 70
     0
 10
0.0
 20
0.0
 11
1.0
 21
1.0
 12
139.5643582046855897
 22
-51.8511911880404526
 13
0.0
 23
0.0
 14
1.0
 24
1.0
 15
0.0
 25
0.0
 16
0.0
 26
0.0
 36
5.1040778033513332
 17
3792.35791015625
 27
120.1806564331053977
 37
0.0
 40
54.3410929813512311
 41
2.005224660397074
 42
50.0
 43
0.0
 44
0.0
 50
0.0
 51
0.0
 71
     0
 72
   100
 73
     1
 74
     1
 75
     0
 76
     0
 77
     0
 78
     0
  0
ENDTAB
  0
TABLE
  2
LTYPE
 70
     2
  0
LTYPE
  2
CONTINUOUS
 70
     0
  3
Solid line
 72
    65
 73
     0
 40
0.0
  0
LTYPE
  2
PHANTOM2
 70
     0
  3
___ _ _ ___ _ _ ___ _ _ ___ _ _
 72
    65
 73
     6
 40
1.25
 49
0.625
 49
-0.125
 49
0.125
 49
-0.125
 49
0.125
 49
-0.125
  0
ENDTAB
  0
TABLE
  2
LAYER
 70
     2
  0
LAYER
  2
0
 70
     0
 62
   255
  6
CONTINUOUS
  0
LAYER
  2
DEFPOINTS
 70
     0
 62
     7
  6
CONTINUOUS
  0
ENDTAB
  0
TABLE
  2
STYLE
 70
     1
  0
STYLE
  2
STANDARD
 70
     0
 40
0.0
 41
0.8
 50
0.0
 71
     0
 42
0.2
  3
txt
  4

  0
ENDTAB
  0
TABLE
  2
VIEW
 70
     0
  0
ENDTAB
  0
TABLE
  2
UCS
 70
     0
  0
ENDTAB
  0
TABLE
  2
APPID
 70
     9
  0
APPID
  2
ACAD
 70
     0
  0
APPID
  2
ACAD_MLEADERVER
 70
     0
  0
APPID
  2
ACAD_EXEMPT_FROM_CAD_STANDARDS
 70
     0
  0
APPID
  2
ACAD_NAV_VCDISPLAY
 70
     0
  0
APPID
  2
ACAECLAYERSTANDARD
 70
     0
  0
APPID
  2
ACCMTRANSPARENCY
 70
     0
  0
APPID
  2
ACAD_DSTYLE_DIMJAG
 70
     0
  0
APPID
  2
ACAD_DSTYLE_DIMTALN
 70
     0
  0
APPID
  2
ACDBATTR
 70
     0
  0
ENDTAB
  0
TABLE
  2
DIMSTYLE
 70
     1
  0
DIMSTYLE
  2
STANDARD
 70
     0
  3

  4

  5

  6

  7

 40
1.0
 41
0.1875
 42
0.0625
 43
0.38
 44
0.125
 45
0.0
 46
0.0
 47
0.01
 48
0.01
140
0.15625
141
0.09
142
0.0
143
25.3999999999999986
144
1.0
145
0.0
146
1.0
147
0.09
 71
     1
 72
     0
 73
     1
 74
     1
 75
     0
 76
     0
 77
     0
 78
     4
170
     0
171
     2
172
     0
173
     0
174
     0
175
     0
176
     0
177
     0
178
     0
  0
ENDTAB
  0
ENDSEC
  0
SECTION
  2
BLOCKS
  0
BLOCK
  8
0
  2
$MODEL_SPACE
 70
     0
 10
0.0
 20
0.0
 30
0.0
  3
$MODEL_SPACE
  1

  0
ENDBLK
  5
21
  8
0
  0
BLOCK
 67
     1
  8
0
  2
$PAPER_SPACE
 70
     0
 10
0.0
 20
0.0
 30
0.0
  3
$PAPER_SPACE
  1

  0
ENDBLK
  5
1D
 67
     1
  8
0
  0
BLOCK
  8
0
  2
_FILLED
 70
     0
 10
0.0
 20
0.0
 30
0.0
  3
_FILLED
  1

  0
SOLID
  5
69B4
  8
0
  6
BYBLOCK
 62
     0
 10
0.0
 20
0.0
 30
0.0
 11
-1.0
 21
0.1666666667
 31
0.0
 12
-1.0
 22
-0.1666666667
 32
0.0
 13
-1.0
 23
-0.1666666667
 33
0.0
  0
ENDBLK
  5
69B5
  8
0
  6
BYBLOCK
 62
     0
  0
BLOCK
  8
0
  2
A$CDFAF6206
 70
     0
 10
0.0
 20
0.0
 30
0.0
  3
A$CDFAF6206
  1

  0
LINE
  5
6A0E
  8
0
 10
7.4646650085734834
 20
10.9287685970688493
 30
0.0
 11
7.4646650085734896
 21
10.8905784766688498
 31
0.0
  0
ARC
  5
6A0F
  8
0
 10
7.7269027075262349
 20
10.8926811525838598
 30
0.0
 40
0.2622461286616791
 50
180.4593995232625048
 51
217.0214027758331099
  0
LINE
  5
6A10
  8
0
 10
9.767814609867095
 20
10.9287685970688493
 30
0.0
 11
9.767814609867095
 21
10.8905433757650094
 31
0.0
  0
ARC
  5
6A11
  8
0
 10
9.5068669568548287
 20
10.8922438613003703
 30
0.0
 40
0.2609531936261092
 50
322.8847083717149076
 51
359.6266329125650145
  0
LINE
  5
6A12
  8
0
 10
7.517522606271406
 20
10.7347792678688396
 30
0.0
 11
9.7149570120691777
 21
10.7347792678688396
 31
0.0
  0
LINE
  5
6A13
  8
0
 10
7.4646650085734834
 20
10.9287685970688493
 30
0.0
 11
9.7678146123202936
 21
10.9287685970688493
 31
0.0
  0
ARC
  5
6A14
  8
0
 10
4.0826771419203629
 20
8.527951346868889
 30
0.0
 40
4.0826771653999172
 50
13.3117747050523896
 51
32.7200330051415591
  0
ARC
  5
6A15
  8
0
 10
4.0826771460567306
 20
8.5279513475907933
 30
0.0
 40
4.0826771612084691
 50
359.6656501984817851
 51
13.3117747085593798
  0
ARC
  5
6A16
  8
0
 10
13.1498041284835097
 20
8.5279508235212234
 30
0.0
 40
4.0826788382043553
 50
147.2799733478981068
 51
166.6882233021349862
  0
ARC
  5
6A17
  8
0
 10
13.1498064934207992
 20
8.5279506557033251
 30
0.0
 40
4.0826811782395342
 50
166.688228652086309
 51
180.3343397625230011
  0
LINE
  5
6A18
  8
0
 10
8.1652847935202928
 20
8.504127000268852
 30
0.0
 11
9.0671948248202892
 21
8.5041270002687881
 31
0.0
  0
LINE
  5
6A19
  8
0
 10
8.1652847935202786
 20
8.5041270002667204
 30
0.0
 11
8.1652847935202928
 21
8.3607006934688481
 31
0.0
  0
ARC
  5
6A1A
  8
0
 10
5.6196779630382627
 20
8.3631022096452732
 30
0.0
 40
2.545607963272567
 50
342.0511668832173768
 51
359.945947387132378
  0
LINE
  5
6A1B
  8
0
 10
9.0671948248202892
 20
8.5041270002687881
 30
0.0
 11
9.0671948248202892
 21
8.2885990108688503
 31
0.0
  0
ARC
  5
6A1C
  8
0
 10
9.4521885297801163
 20
7.9614488056228501
 30
0.0
 40
0.5052201595850959
 50
139.6436242991769916
 51
174.6757930071850069
  0
ARC
  5
6A1D
  8
0
 10
9.9238413395551746
 20
8.1492417579399508
 30
0.0
 40
0.9848265662939324
 50
188.2263441834095943
 51
209.5593615864376034
  0
ARC
  5
6A1E
  8
0
 10
8.0788764238271256
 20
7.5665710856463297
 30
0.0
 40
0.0393715937169877
 50
162.1669117288323037
 51
227.2023190037006088
  0
ARC
  5
6A1F
  8
0
 10
8.7223682141740682
 20
8.2079667397440517
 30
0.0
 40
0.947895137885075
 50
225.0018610752970858
 51
261.4598823366255829
  0
ARC
  5
6A20
  8
0
 10
8.6645157662702701
 20
8.1695128573935332
 30
0.0
 40
0.9027466462812931
 50
264.7303071214498118
 51
281.8608311947915013
  0
ARC
  5
6A21
  8
0
 10
8.6645157662698935
 20
8.1695128573999671
 30
0.0
 40
0.9027466462876658
 50
299.1741886792128753
 51
299.1743179154552195
  0
ARC
  5
6A22
  8
0
 10
9.0843330931590316
 20
7.4150554710086141
 30
0.0
 40
0.0393703053609601
 50
251.9700352025496954
 51
252.4698971938937859
  0
ARC
  5
6A23
  8
0
 10
9.0843330931590316
 20
7.4150554710086141
 30
0.0
 40
0.0393703053609601
 50
297.2453716727138726
 51
6.8376113572703074
  0
LINE
  5
6A24
  8
0
 10
9.0671948248202892
 20
7.663402160468852
 30
0.0
 11
9.1234233799329516
 21
7.419742732911689
 31
0.0
  0
ARC
  5
6A25
  8
0
 10
8.8843741880892395
 20
9.8961379890094676
 30
0.0
 40
2.5255097382132701
 50
263.792800240752797
 51
274.9514951129821156
  0
ARC
  5
6A26
  8
0
 10
8.8258167405968848
 20
9.2763025889666508
 30
0.0
 40
1.9029970832759311
 50
246.0108363320686067
 51
263.5276935074397215
  0
ARC
  5
6A27
  8
0
 10
8.607491361665744
 20
8.3225444804829642
 30
0.0
 40
1.064510137163637
 50
283.1717405874071005
 51
297.7022170607311864
  0
LINE
  5
6A28
  8
0
 10
9.0671948248202892
 20
8.2885990108688503
 30
0.0
 11
26.2014378595979593
 21
8.2885990108689942
 31
0.0
  0
LINE
  5
6A29
  8
0
 10
26.2014378595979913
 20
7.6634021604689053
 30
0.0
 11
9.0671948248202892
 21
7.6634021604688618
 31
0.0
  0
LINE
  5
6A2A
  8
0
 10
27.8039676758446994
 20
10.9287685970690802
 30
0.0
 11
27.8039676758446888
 21
10.8905784766690807
 31
0.0
  0
ARC
  5
6A2B
  8
0
 10
27.5417299768919399
 20
10.8926811525840801
 30
0.0
 40
0.2622461286616791
 50
322.9785972241680838
 51
359.5406004767386889
  0
LINE
  5
6A2C
  8
0
 10
25.5008180745510913
 20
10.9287685970690305
 30
0.0
 11
25.5008180745510913
 21
10.8905433757651799
 31
0.0
  0
ARC
  5
6A2D
  8
0
 10
25.7617657275633505
 20
10.8922438613005497
 30
0.0
 40
0.2609531936261092
 50
180.3733670874362929
 51
217.1152916282862861
  0
LINE
  5
6A2E
  8
0
 10
27.7511100781467803
 20
10.7347792678690706
 30
0.0
 11
25.5536756723490015
 21
10.7347792678690208
 31
0.0
  0
LINE
  5
6A2F
  8
0
 10
27.8039676758446888
 20
10.9287685970686006
 30
0.0
 11
25.5008180745510806
 21
10.9287685970686006
 31
0.0
  0
ARC
  5
6A30
  8
0
 10
31.1859555424978616
 20
8.5279513468691981
 30
0.0
 40
4.0826771653999172
 50
147.2799669948597057
 51
166.6882252949490066
  0
ARC
  5
6A31
  8
0
 10
31.185955538361501
 20
8.5279513475911024
 30
0.0
 40
4.0826771612084691
 50
166.6882252914419098
 51
180.3343498015194086
  0
ARC
  5
6A32
  8
0
 10
22.1188285559344706
 20
8.5279508235212251
 30
0.0
 40
4.0826788382046102
 50
13.3117766978667795
 51
32.7200266521023977
  0
ARC
  5
6A33
  8
0
 10
22.1188261909974315
 20
8.5279506557034264
 30
0.0
 40
4.0826811782395342
 50
359.665660237478221
 51
13.31177134791497
  0
LINE
  5
6A34
  8
0
 10
27.1033478908979397
 20
8.5041270002690652
 30
0.0
 11
26.2014378595979416
 21
8.5041270002689835
 31
0.0
  0
LINE
  5
6A35
  8
0
 10
27.1033478908979504
 20
8.5041270002669354
 30
0.0
 11
27.1033478908979397
 21
8.3607006934690649
 31
0.0
  0
ARC
  5
6A36
  8
0
 10
29.6489547213799689
 20
8.3631022096455467
 30
0.0
 40
2.545607963272567
 50
180.0540526128687873
 51
197.9488331167837032
  0
LINE
  5
6A37
  8
0
 10
26.2014378595979416
 20
8.5041270002689835
 30
0.0
 11
26.2014378595979487
 21
8.2885990108690457
 31
0.0
  0
ARC
  5
6A38
  8
0
 10
25.8164441546381305
 20
7.9614488056230366
 30
0.0
 40
0.5052201595850959
 50
5.324206992816312
 51
40.3563757008241879
  0
ARC
  5
6A39
  8
0
 10
25.3447913448601803
 20
8.149241757940846
 30
0.0
 40
0.9848265662968968
 50
330.4406384136033807
 51
351.7736558165743759
  0
ARC
  5
6A3A
  8
0
 10
27.1897562605911212
 20
7.5665710856465473
 30
0.0
 40
0.0393715937169877
 50
312.7976809963004143
 51
17.8330882711689185
  0
ARC
  5
6A3B
  8
0
 10
26.5462644702441715
 20
8.2079667397442542
 30
0.0
 40
0.947895137885075
 50
278.5401176633754972
 51
314.9981389247041079
  0
ARC
  5
6A3C
  8
0
 10
26.6041169181479695
 20
8.1695128573937392
 30
0.0
 40
0.9027466462812931
 50
258.139168805210204
 51
275.2696928785518935
  0
ARC
  5
6A3D
  8
0
 10
26.6041169181483497
 20
8.1695128574001732
 30
0.0
 40
0.9027466462876658
 50
240.8256820845460027
 51
240.8258113207880058
  0
ARC
  5
6A3E
  8
0
 10
26.1842995912592293
 20
7.4150554710088086
 30
0.0
 40
0.0393703053609601
 50
287.5301028061073794
 51
288.0299647974517825
  0
ARC
  5
6A3F
  8
0
 10
26.1842995912592293
 20
7.4150554710088086
 30
0.0
 40
0.0393703053609601
 50
173.1623886427310026
 51
242.7546283272870085
  0
LINE
  5
6A40
  8
0
 10
26.2014378595981192
 20
7.6634021604690448
 30
0.0
 11
26.1452093044853093
 21
7.4197427329118826
 31
0.0
  0
ARC
  5
6A41
  8
0
 10
26.384258496328961
 20
9.8961379890096666
 30
0.0
 40
2.5255097382132701
 50
265.0485048870193054
 51
276.2071997592482262
  0
ARC
  5
6A42
  8
0
 10
26.4428159438213299
 20
9.2763025889668516
 30
0.0
 40
1.9029970832759311
 50
276.4723064925619838
 51
293.9891636679327007
  0
ARC
  5
6A43
  8
0
 10
26.6611413227524885
 20
8.3225444804831703
 30
0.0
 40
1.064510137163637
 50
242.2977829392704052
 51
256.8282594125943774
  0
LINE
  5
6A44
  8
0
 62
     4
 10
17.9031473532159602
 20
10.9287685970686006
 30
0.0
 11
24.6329820359843588
 21
20.0952817181593808
 31
0.0
  0
LINE
  5
6A45
  8
0
 62
     4
 10
17.9031473532159602
 20
-0.0000000300842942
 30
0.0
 11
22.3963351323106608
 21
4.993614497796286
 31
0.0
  0
ENDBLK
  5
6A49
  8
0
  0
ENDSEC
  0
SECTION
  2
ENTITIES
  0
ATTDEF
  5
3930
  8
DEFPOINTS
 10
3904.6200023576161584
 20
71.5028434355390914
 30
0.0
 40
0.001
  1
K-16141T
  3

  2
MODELNUMBER
 70
     0
1001
ACDBATTR
1070
     0
1070
     1
  0
ATTDEF
  5
3931
  8
DEFPOINTS
 10
3904.6200023576161584
 20
71.5011767688724262
 30
0.0
 40
0.001
  1
REVIVAL
  3

  2
TRADENAME
 70
     0
1001
ACDBATTR
1070
     0
1070
     1
  0
ATTDEF
  5
3932
  8
DEFPOINTS
 10
3904.6200023576161584
 20
71.4995101022057611
 30
0.0
 40
0.001
  1
TOWEL RING
  3

  2
PRODUCT
 70
     0
1001
ACDBATTR
1070
     0
1070
     1
  0
ARC
  5
7308
  8
0
 10
3904.5599708501308669
 20
72.5911612395652242
 30
0.0
 40
0.0600000000191496
 50
89.9999860675282122
 51
179.9999999924212091
  0
ARC
  5
7309
  8
0
 10
3904.5599708500931229
 20
72.5911612395652242
 30
0.0
 40
0.0600000000191585
 50
0.0000000075804068
 51
89.9999860309468431
  0
ARC
  5
730A
  8
0
 10
3904.1523365126649878
 20
72.3363319559042282
 30
0.0
 40
0.0149999999729648
 50
199.7019329511701073
 51
271.7613145414758264
  0
ARC
  5
730B
  8
0
 10
3904.1411179097108288
 20
72.7011595082731503
 30
0.0
 40
0.3799999999999766
 50
271.7613146509850139
 51
286.1530948817330113
  0
ARC
  5
730C
  8
0
 10
3904.1411179097108288
 20
72.7011595082731219
 30
0.0
 40
0.3799999999999399
 50
286.1530948817077729
 51
307.8640716802393058
  0
ARC
  5
730D
  8
0
 10
3904.1411179096021442
 20
72.7011595083794049
 30
0.0
 40
0.3800000001516206
 50
307.864071683542079
 51
340.7953789212735956
  0
ARC
  5
730E
  8
0
 10
3904.1099708501460555
 20
72.3211612394615457
 30
0.0
 40
0.0300000001116234
 50
90.000000065763075
 51
153.3790100020603973
  0
ARC
  5
730F
  8
0
 10
3904.1099708501110399
 20
72.321161239573172
 30
0.0
 40
0.0299999999999997
 50
19.7019338420381906
 51
90.0
  0
ARC
  5
7310
  8
0
 10
3904.0697412935151078
 20
72.3413251377789948
 30
0.0
 40
0.0150000001333886
 50
248.8839975515674041
 51
333.3790098388420802
  0
ARC
  5
7311
  8
0
 10
3903.6609381530120118
 20
71.282502682172904
 30
0.0
 40
1.1200000000002761
 50
68.8888118899108406
 51
77.9055271046532454
  0
ARC
  5
7312
  8
0
 10
3903.6609381547668818
 20
71.2825026924324163
 30
0.0
 40
1.119999989600811
 50
77.9055253749180565
 51
86.9222411979463487
  0
ARC
  5
7313
  8
0
 10
3903.7108709400299631
 20
72.2111611900099035
 30
0.0
 40
0.1900000497260364
 50
86.922234344296669
 51
89.9999958265455575
  0
ARC
  5
7314
  8
0
 10
3903.7108709479948629
 20
72.2111612288739337
 30
0.0
 40
0.1900000108619918
 50
89.999998228278983
 51
103.9286122002191064
  0
ARC
  5
7315
  8
0
 10
3903.7108709460121645
 20
72.2111612395731441
 30
0.0
 40
0.1900000000000093
 50
103.9286123964248958
 51
128.145444838207311
  0
ARC
  5
7316
  8
0
 10
3903.7108709460121645
 20
72.2111612395730162
 30
0.0
 40
0.1900000000002165
 50
128.1454448382108069
 51
139.671817187480201
  0
ARC
  5
7317
  8
0
 10
3903.5545891770029812
 20
72.3438300327665331
 30
0.0
 40
0.0150000000936293
 50
236.8334970416252077
 51
319.6718168782372231
  0
ARC
  5
7318
  8
0
 10
3903.5299708494771949
 20
72.3061612382041261
 30
0.0
 40
0.0300000014932725
 50
56.8334974130572519
 51
89.999998787682074
  0
ARC
  5
7319
  8
0
 10
3903.5299708503639522
 20
72.3061612394180457
 30
0.0
 40
0.0300000002793395
 50
90.0000004821236246
 51
167.9040697772420003
  0
ARC
  5
731A
  8
0
 10
3903.4859699345120134
 20
72.3155909492731723
 30
0.0
 40
0.0149999999999995
 50
298.6699547737284206
 51
347.90406876265439
  0
ARC
  5
731B
  8
0
 10
3901.933935165227922
 20
75.1539730732958446
 30
0.0
 40
3.2500000009931642
 50
274.0440930403772199
 51
298.669953865184425
  0
ARC
  5
731C
  8
0
 10
3902.1620807812291787
 20
71.9270279878614929
 30
0.0
 40
0.0149999999995965
 50
200.6460827611574871
 51
274.044092947885872
  0
ARC
  5
731D
  8
0
 10
3902.1199708501148962
 20
71.9111612395759039
 30
0.0
 40
0.0299999999957622
 50
20.6460830370623896
 51
90.0000000066701062
  0
ARC
  5
731E
  8
0
 10
3902.1199708501098939
 20
71.9111612395742412
 30
0.0
 40
0.0299999999974237
 50
89.9999999951016463
 51
180.0000000020486084
  0
ARC
  5
731F
  8
0
 10
3902.0750037739971958
 20
71.9094401751449368
 30
0.0
 40
0.0149999999131642
 50
297.0746762265861776
 51
356.2031237981724985
  0
ARC
  5
7320
  8
0
 10
3901.2853160860968273
 20
73.4543085736518861
 30
0.0
 40
1.75000000371895
 50
284.1502462628528178
 51
297.0746762576044944
  0
ARC
  5
7321
  8
0
 10
3901.708241333101796
 20
71.7768002493033919
 30
0.0
 40
0.020000020246946
 50
216.8124977220826111
 51
284.1502287363900905
  0
ARC
  5
7322
  8
0
 10
3901.3399708602760256
 20
71.5011612769463341
 30
0.0
 40
0.4399999626253256
 50
36.8137647693481611
 51
90.0000013234950273
  0
ARC
  5
7323
  8
0
 10
3901.3399708501087844
 20
71.5011612395743441
 30
0.0
 40
0.4399999999973204
 50
89.9999999996612843
 51
180.0000000001531077
  0
ARC
  5
7324
  8
0
 10
3901.3399708501119676
 20
71.5011612395731646
 30
0.0
 40
0.4399999999999995
 50
180.0
 51
240.1398558164966062
  0
ARC
  5
7325
  8
0
 10
3904.5599708515392194
 20
70.4111612427033435
 30
0.0
 40
0.0600000031369885
 50
179.9863222854262972
 51
270.0000126494402934
  0
ARC
  5
7326
  8
0
 10
3904.5599708488930446
 20
70.4111612424943587
 30
0.0
 40
0.0600000029279929
 50
270.0000151758735001
 51
0.0136779141948816
  0
ARC
  5
7327
  8
0
 10
3904.15309904554897
 20
70.672909015809978
 30
0.0
 40
0.0157284190673275
 50
91.0983568498850644
 51
161.1449622874351917
  0
ARC
  5
7328
  8
0
 10
3904.1526548361721325
 20
70.4228140780545431
 30
0.0
 40
0.265820505229363
 50
70.3850973313662678
 51
89.9692387759693872
  0
ARC
  5
7329
  8
0
 10
3904.0318586480939302
 20
70.1292389627257222
 30
0.0
 40
0.5831094125291387
 50
54.0295746363384026
 51
68.8880248546341534
  0
ARC
  5
732A
  8
0
 10
3904.1411179103210998
 20
70.3011629714311397
 30
0.0
 40
0.3799999992556018
 50
19.2046210207742192
 51
52.1359283392280801
  0
ARC
  5
732B
  8
0
 10
3904.1069608345428605
 20
70.6830771743108954
 30
0.0
 40
0.0271491221289341
 50
208.71783537829441
 51
274.8904139303656962
  0
ARC
  5
732C
  8
0
 10
3904.1071924886900888
 20
70.688817521843589
 30
0.0
 40
0.0328567173982606
 50
273.6344639778761803
 51
340.7630701324367237
  0
ARC
  5
732D
  8
0
 10
3904.0712771234761931
 20
70.6631492130632211
 30
0.0
 40
0.0137246768557569
 50
30.0991788188401799
 51
120.373579167901994
  0
ARC
  5
732E
  8
0
 10
3903.6609381529988241
 20
71.7198197969828612
 30
0.0
 40
1.1200000000002761
 50
282.0944728985709276
 51
291.1111881133264205
  0
ARC
  5
732F
  8
0
 10
3903.6609381547541489
 20
71.7198197867233347
 30
0.0
 40
1.119999989600811
 50
273.0777588052629881
 51
282.0944746283058748
  0
ARC
  5
7330
  8
0
 10
3903.7108709452159019
 20
70.7911611614796357
 30
0.0
 40
0.1899999219648485
 50
270.0000026247651022
 51
273.0777661763318065
  0
ARC
  5
7331
  8
0
 10
3903.7108709468998313
 20
70.7911612441313309
 30
0.0
 40
0.1900000046165396
 50
256.0713876883775129
 51
270.0000021170292825
  0
ARC
  5
7332
  8
0
 10
3903.710870946050818
 20
70.7911612395854064
 30
0.0
 40
0.1900000000000093
 50
231.8545551650084917
 51
256.0713876067961792
  0
ARC
  5
7333
  8
0
 10
3903.710870946050818
 20
70.7911612395855485
 30
0.0
 40
0.1900000000002165
 50
220.3281828157396092
 51
231.8545551650045979
  0
ARC
  5
7334
  8
0
 10
3903.5545891771280367
 20
70.6584924465238942
 30
0.0
 40
0.0149999999432309
 50
40.32818290781222
 51
123.166503905132501
  0
ARC
  5
7335
  8
0
 10
3903.52997084997196
 20
70.6961612397856953
 30
0.0
 40
0.0300000002546428
 50
270.0000003574760967
 51
303.166503004751803
  0
ARC
  5
7336
  8
0
 10
3903.5299708502470821
 20
70.6961612396304275
 30
0.0
 40
0.0300000000993794
 50
192.0959301044360075
 51
269.9999998317101131
  0
ARC
  5
7337
  8
0
 10
3903.4859699345570334
 20
70.6867315298727732
 30
0.0
 40
0.0149999999999995
 50
12.0959312405654806
 51
61.330045229504222
  0
ARC
  5
7338
  8
0
 10
3901.9339351654339225
 20
67.8483494057629031
 30
0.0
 40
3.2500000009931642
 50
61.3300461380483171
 51
85.9559069628355559
  0
ARC
  5
7339
  8
0
 10
3902.1620807812528255
 20
71.075294491210073
 30
0.0
 40
0.0149999999995965
 50
85.9559070553269606
 51
159.3539172420558998
  0
ARC
  5
733A
  8
0
 10
3902.1199708503418151
 20
71.0911612393345536
 30
0.0
 40
0.0299999997495455
 50
269.9999996082614757
 51
339.3539171129535816
  0
ARC
  5
733B
  8
0
 10
3902.1199708499830194
 20
71.0911612394331058
 30
0.0
 40
0.0299999998481049
 50
179.9999998830556933
 51
270.0000002933284122
  0
ARC
  5
733C
  8
0
 10
3902.0750037740190237
 20
71.0928823039217264
 30
0.0
 40
0.0149999999131642
 50
3.796876205047278
 51
62.9253237766326592
  0
ARC
  5
733D
  8
0
 10
3901.2853160862059667
 20
69.5480139053704249
 30
0.0
 40
1.75000000371895
 50
62.9253237456143566
 51
75.8497537403713125
  0
ARC
  5
733E
  8
0
 10
3901.7082413331181669
 20
71.2255222297426656
 30
0.0
 40
0.020000020246946
 50
75.8497712668339688
 51
143.1875022811358917
  0
ARC
  5
733F
  8
0
 10
3901.3399709504828934
 20
71.5011611009803119
 30
0.0
 40
0.4399998298257994
 50
299.8820067720549787
 51
323.1862387346608898
  0
LINE
  5
7340
  8
0
 10
3904.6199708501121677
 20
72.5911612395731538
 30
0.0
 11
3904.6199708501121677
 21
70.4111755659731671
 31
0.0
  0
LINE
  5
7341
  8
0
 10
3904.4999708501118221
 20
72.5911612395731538
 30
0.0
 11
3904.4999708501118221
 21
70.4111755659731671
 31
0.0
  0
LINE
  5
7342
  8
0
 10
3902.148044137522902
 20
71.9217390717651881
 30
0.0
 11
3902.1480441375119881
 21
71.0805834073492662
 31
0.0
  0
LINE
  5
7343
  8
0
 10
3902.0899708501351597
 20
71.0911612394943404
 30
0.0
 11
3902.0899708501119676
 21
71.911161239571598
 31
0.0
  0
LINE
  5
7344
  8
0
 10
3903.5006369063107741
 20
70.6898747669876144
 30
0.0
 11
3903.5006369063789862
 21
72.312447712759834
 31
0.0
  0
LINE
  5
7345
  8
0
 10
3903.5463830680109822
 20
72.3312737682731637
 30
0.0
 11
3903.5463830680109822
 21
70.6710487107558123
 31
0.0
  0
LINE
  5
7346
  8
0
 10
3904.0831511458118257
 20
70.6700321156731661
 30
0.0
 11
3904.0831511457718079
 21
72.3346038383166814
 31
0.0
  0
LINE
  5
7347
  8
0
 10
3904.1382146251639824
 20
72.3312750504666155
 30
0.0
 11
3904.1382146251171434
 21
70.6779920458896527
 31
0.0
  0
LINE
  5
7348
  8
0
 10
3901.6922293031120716
 20
71.7648162722731655
 30
0.0
 11
3901.6922293031261688
 21
71.2375062067719966
 31
0.0
  0
ARC
  5
7349
  8
0
 10
3901.339959801257919
 20
71.5011788615165358
 30
0.0
 40
0.2792671791752031
 50
89.9977331647365446
 51
218.3573416158779992
  0
ARC
  5
734A
  8
0
 10
3901.3399847391410731
 20
71.5011833918083823
 30
0.0
 40
0.2792626490101751
 50
321.6428938420949066
 51
90.0028495854386534
  0
ARC
  5
734B
  8
0
 10
3901.3398869837378697
 20
71.5013164854593839
 30
0.0
 40
0.2388447688379274
 50
89.9798815383562811
 51
203.5714084766320866
  0
ARC
  5
734C
  8
0
 10
3901.340054716485156
 20
71.5013164854593839
 30
0.0
 40
0.2388447688379267
 50
336.4285915233679134
 51
90.0201184616437331
  0
ARC
  5
734D
  8
0
 10
3901.3416874326458128
 20
71.5004501869594264
 30
0.0
 40
0.2207177278821617
 50
90.445609543341746
 51
179.8154186134468091
  0
ARC
  5
734E
  8
0
 10
3901.3382543624861682
 20
71.5004502814368266
 30
0.0
 40
0.2207176326695083
 50
0.1845569407966697
 51
89.5544149024263163
  0
LINE
  5
734F
  8
0
 10
3901.1209708501119167
 20
71.5011612395731646
 30
0.0
 11
3901.1209708501119167
 21
67.9001612395731655
 31
0.0
  0
LINE
  5
7350
  8
0
 10
3901.5589708501120185
 20
71.5011612395731646
 30
0.0
 11
3901.5589708501120185
 21
67.9001612395731655
 31
0.0
  0
ARC
  5
7351
  8
0
 10
3901.3399708501119676
 20
67.5411612395731709
 30
0.0
 40
0.4400000000000007
 50
125.3226497762017999
 51
270.0
  0
ARC
  5
7352
  8
0
 10
3901.3399771927320216
 20
67.5411548969525626
 30
0.0
 40
0.4399936574251078
 50
269.9991740667534259
 51
54.6799442660753172
  0
ARC
  5
7353
  8
0
 10
3901.3399708501119676
 20
67.5411612395731709
 30
0.0
 40
0.4000000000000063
 50
116.168625234824205
 51
270.0
  0
ARC
  5
7354
  8
0
 10
3901.3399708501119676
 20
67.5411612395731709
 30
0.0
 40
0.4000000000000023
 50
270.0
 51
63.8313746979953507
  0
ARC
  5
7355
  8
0
 10
3901.3399708501119676
 20
67.5411612395731709
 30
0.0
 40
0.3493325909000008
 50
90.0
 51
270.0
  0
ARC
  5
7356
  8
0
 10
3901.3399708501119676
 20
67.5411612395731709
 30
0.0
 40
0.3493325909000016
 50
270.0
 51
90.0
  0
LINE
  5
7358
  8
0
 10
3901.0855715580810283
 20
67.900161239871494
 30
0.0
 11
3901.1635650684079337
 21
67.9001612398257777
 31
0.0
  0
LINE
  5
7359
  8
0
 10
3901.5163766322370975
 20
67.900161239618896
 30
0.0
 11
3901.5943565640109227
 21
67.9001612395731655
 31
0.0
  0
ARC
  5
735A
  8
0
 10
3901.3399708501119676
 20
67.5411612395732419
 30
0.0
 40
0.3999999999999321
 50
90.0
 51
116.1686252348245034
  0
ARC
  5
735B
  8
0
 10
3901.3399708501119676
 20
67.5411612395736967
 30
0.0
 40
0.399999999999473
 50
63.8313746979683714
 51
90.0
  0
ENDSEC
  0
EOF
