  0
SECTION
  2
HEADER
  9
$ACADVER
  1
AC1009
  9
$INSBASE
 10
4206.7200892970377026
 20
209.2451660358422885
 30
0.0
  9
$EXTMIN
 10
4205.5700892970371569
 20
205.5251660275231131
 30
0.0
  9
$EXTMAX
 10
4207.8700892970373388
 20
209.2504491801136908
 30
0.0
  9
$LIMMIN
 10
0.0
 20
0.0
  9
$LIMMAX
 10
11.6929133858000007
 20
8.2677165353999982
  9
$ORTHOMODE
 70
     0
  9
$REGENMODE
 70
     1
  9
$FILLMODE
 70
     1
  9
$QTEXTMODE
 70
     0
  9
$MIRRTEXT
 70
     0
  9
$DRAGMODE
 70
     2
  9
$LTSCALE
 40
0.6431102362
  9
$OSMODE
 70
  3839
  9
$ATTMODE
 70
     1
  9
$TEXTSIZE
 40
0.2
  9
$TRACEWID
 40
0.05
  9
$TEXTSTYLE
  7
STANDARD
  9
$CLAYER
  8
0
  9
$CELTYPE
  6
BYLAYER
  9
$CECOLOR
 62
   256
  9
$DIMSCALE
 40
1.0
  9
$DIMASZ
 40
0.1875
  9
$DIMEXO
 40
0.0625
  9
$DIMDLI
 40
0.4443307087
  9
$DIMRND
 40
0.0
  9
$DIMDLE
 40
0.0
  9
$DIMEXE
 40
0.125
  9
$DIMTP
 40
0.01
  9
$DIMTM
 40
0.01
  9
$DIMTXT
 40
2.0
  9
$DIMCEN
 40
0.1052362205
  9
$DIMTSZ
 40
0.0
  9
$DIMTOL
 70
     1
  9
$DIMLIM
 70
     0
  9
$DIMTIH
 70
     1
  9
$DIMTOH
 70
     1
  9
$DIMSE1
 70
     0
  9
$DIMSE2
 70
     0
  9
$DIMTAD
 70
     0
  9
$DIMZIN
 70
     0
  9
$DIMBLK
  1

  9
$DIMASO
 70
     1
  9
$DIMSHO
 70
     1
  9
$DIMPOST
  1
\X
  9
$DIMAPOST
  1

  9
$DIMALT
 70
     1
  9
$DIMALTD
 70
     2
  9
$DIMALTF
 40
25.3999999999999986
  9
$DIMLFAC
 40
1.0
  9
$DIMTOFL
 70
     0
  9
$DIMTVP
 40
0.0
  9
$DIMTIX
 70
     0
  9
$DIMSOXD
 70
     0
  9
$DIMSAH
 70
     0
  9
$DIMBLK1
  1

  9
$DIMBLK2
  1

  9
$DIMSTYLE
  2
STANDARD
  9
$DIMCLRD
 70
     0
  9
$DIMCLRE
 70
     0
  9
$DIMCLRT
 70
     0
  9
$DIMTFAC
 40
1.0
  9
$DIMGAP
 40
0.09
  9
$LUNITS
 70
     2
  9
$LUPREC
 70
     4
  9
$SKETCHINC
 40
0.1
  9
$FILLETRAD
 40
0.0
  9
$AUNITS
 70
     0
  9
$AUPREC
 70
     0
  9
$MENU
  1
.
  9
$ELEVATION
 40
0.0
  9
$PELEVATION
 40
0.0
  9
$THICKNESS
 40
0.0
  9
$LIMCHECK
 70
     0
  9
$BLIPMODE
 70
     0
  9
$CHAMFERA
 40
0.0
  9
$CHAMFERB
 40
0.0
  9
$SKPOLY
 70
     0
  9
$TDCREATE
 40
2458060.468368056230247
  9
$TDUPDATE
 40
2459034.3698379630222917
  9
$TDINDWG
 40
0.5472177083
  9
$TDUSRTIMER
 40
0.5472177083
  9
$USRTIMER
 70
     1
  9
$ANGBASE
 50
0.0
  9
$ANGDIR
 70
     0
  9
$PDMODE
 70
     0
  9
$PDSIZE
 40
0.3125
  9
$PLINEWID
 40
0.0
  9
$COORDS
 70
     1
  9
$SPLFRAME
 70
     0
  9
$SPLINETYPE
 70
     6
  9
$SPLINESEGS
 70
     8
  9
$ATTDIA
 70
     1
  9
$ATTREQ
 70
     1
  9
$HANDLING
 70
     1
  9
$HANDSEED
  5
92F4
  9
$SURFTAB1
 70
     6
  9
$SURFTAB2
 70
     6
  9
$SURFTYPE
 70
     6
  9
$SURFU
 70
     6
  9
$SURFV
 70
     6
  9
$UCSNAME
  2

  9
$UCSORG
 10
0.0
 20
0.0
 30
0.0
  9
$UCSXDIR
 10
1.0
 20
0.0
 30
0.0
  9
$UCSYDIR
 10
0.0
 20
1.0
 30
0.0
  9
$PUCSNAME
  2

  9
$PUCSORG
 10
0.0
 20
0.0
 30
0.0
  9
$PUCSXDIR
 10
1.0
 20
0.0
 30
0.0
  9
$PUCSYDIR
 10
0.0
 20
1.0
 30
0.0
  9
$USERI1
 70
     0
  9
$USERI2
 70
     0
  9
$USERI3
 70
     0
  9
$USERI4
 70
     0
  9
$USERI5
 70
     0
  9
$USERR1
 40
0.0
  9
$USERR2
 40
0.0
  9
$USERR3
 40
0.0
  9
$USERR4
 40
0.0
  9
$USERR5
 40
0.0
  9
$WORLDVIEW
 70
     1
  9
$SHADEDGE
 70
     3
  9
$SHADEDIF
 70
    70
  9
$TILEMODE
 70
     1
  9
$MAXACTVP
 70
    64
  9
$PLIMCHECK
 70
     0
  9
$PEXTMIN
 10
1.0000000000000000E+20
 20
1.0000000000000000E+20
 30
1.0000000000000000E+20
  9
$PEXTMAX
 10
-1.0000000000000000E+20
 20
-1.0000000000000000E+20
 30
-1.0000000000000000E+20
  9
$PLIMMIN
 10
0.0
 20
0.0
  9
$PLIMMAX
 10
12.0
 20
9.0
  9
$UNITMODE
 70
     0
  9
$VISRETAIN
 70
     1
  9
$PLINEGEN
 70
     0
  9
$PSLTSCALE
 70
     1
  0
ENDSEC
  0
SECTION
  2
TABLES
  0
TABLE
  2
VPORT
 70
     1
  0
VPORT
  2
*ACTIVE
 70
     0
 10
0.0
 20
0.0
 11
1.0
 21
1.0
 12
0.0
 22
0.0
 13
0.0
 23
0.0
 14
1.0
 24
1.0
 15
0.0
 25
0.0
 16
0.0
 26
0.0
 36
18.1689465332282616
 17
4206.72021484375
 27
207.3887286183770868
 37
0.0
 40
4.3764272415541088
 41
3.314341846758349
 42
50.0
 43
0.0
 44
0.0
 50
0.0
 51
0.0
 71
     0
 72
   100
 73
     1
 74
     1
 75
     0
 76
     0
 77
     0
 78
     0
  0
ENDTAB
  0
TABLE
  2
LTYPE
 70
     2
  0
LTYPE
  2
CONTINUOUS
 70
     0
  3
Solid line
 72
    65
 73
     0
 40
0.0
  0
LTYPE
  2
PHANTOM2
 70
     0
  3
___ _ _ ___ _ _ ___ _ _ ___ _ _
 72
    65
 73
     6
 40
1.25
 49
0.625
 49
-0.125
 49
0.125
 49
-0.125
 49
0.125
 49
-0.125
  0
ENDTAB
  0
TABLE
  2
LAYER
 70
     2
  0
LAYER
  2
0
 70
     0
 62
   255
  6
CONTINUOUS
  0
LAYER
  2
DEFPOINTS
 70
     0
 62
     7
  6
CONTINUOUS
  0
ENDTAB
  0
TABLE
  2
STYLE
 70
     1
  0
STYLE
  2
STANDARD
 70
     0
 40
0.0
 41
0.8
 50
0.0
 71
     0
 42
0.2
  3
txt
  4

  0
ENDTAB
  0
TABLE
  2
VIEW
 70
     0
  0
ENDTAB
  0
TABLE
  2
UCS
 70
     0
  0
ENDTAB
  0
TABLE
  2
APPID
 70
     9
  0
APPID
  2
ACAD
 70
     0
  0
APPID
  2
ACAD_MLEADERVER
 70
     0
  0
APPID
  2
ACAD_EXEMPT_FROM_CAD_STANDARDS
 70
     0
  0
APPID
  2
ACAD_NAV_VCDISPLAY
 70
     0
  0
APPID
  2
ACAECLAYERSTANDARD
 70
     0
  0
APPID
  2
ACCMTRANSPARENCY
 70
     0
  0
APPID
  2
ACAD_DSTYLE_DIMJAG
 70
     0
  0
APPID
  2
ACAD_DSTYLE_DIMTALN
 70
     0
  0
APPID
  2
ACDBATTR
 70
     0
  0
ENDTAB
  0
TABLE
  2
DIMSTYLE
 70
     1
  0
DIMSTYLE
  2
STANDARD
 70
     0
  3

  4

  5

  6

  7

 40
1.0
 41
0.1875
 42
0.0625
 43
0.38
 44
0.125
 45
0.0
 46
0.0
 47
0.01
 48
0.01
140
0.15625
141
0.09
142
0.0
143
25.3999999999999986
144
1.0
145
0.0
146
1.0
147
0.09
 71
     1
 72
     0
 73
     1
 74
     1
 75
     0
 76
     0
 77
     0
 78
     4
170
     0
171
     2
172
     0
173
     0
174
     0
175
     0
176
     0
177
     0
178
     0
  0
ENDTAB
  0
ENDSEC
  0
SECTION
  2
BLOCKS
  0
BLOCK
  8
0
  2
$MODEL_SPACE
 70
     0
 10
0.0
 20
0.0
 30
0.0
  3
$MODEL_SPACE
  1

  0
ENDBLK
  5
21
  8
0
  0
BLOCK
 67
     1
  8
0
  2
$PAPER_SPACE
 70
     0
 10
0.0
 20
0.0
 30
0.0
  3
$PAPER_SPACE
  1

  0
ENDBLK
  5
1D
 67
     1
  8
0
  0
BLOCK
  8
0
  2
_FILLED
 70
     0
 10
0.0
 20
0.0
 30
0.0
  3
_FILLED
  1

  0
SOLID
  5
6F59
  8
0
  6
BYBLOCK
 62
     0
 10
0.0
 20
0.0
 30
0.0
 11
-1.0
 21
0.1666666667
 31
0.0
 12
-1.0
 22
-0.1666666667
 32
0.0
 13
-1.0
 23
-0.1666666667
 33
0.0
  0
ENDBLK
  5
6F5A
  8
0
  6
BYBLOCK
 62
     0
  0
ENDSEC
  0
SECTION
  2
ENTITIES
  0
ATTDEF
  5
3930
  8
DEFPOINTS
 10
4206.721140981759163
 20
209.2494491801136007
 30
0.0
 40
0.001
  1
K-16146T
  3

  2
MODELNUMBER
 70
     0
1001
ACDBATTR
1070
     0
1070
     1
  0
ATTDEF
  5
3931
  8
DEFPOINTS
 10
4206.721140981759163
 20
209.2477825134469924
 30
0.0
 40
0.001
  1
REVIVAL
  3

  2
TRADENAME
 70
     0
1001
ACDBATTR
1070
     0
1070
     1
  0
ATTDEF
  5
3932
  8
DEFPOINTS
 10
4206.721140981759163
 20
209.2461158467802989
 30
0.0
 40
0.001
  1
ROBE HOOK
  3

  2
PRODUCT
 70
     0
1001
ACDBATTR
1070
     0
1070
     1
  0
LINE
  5
9151
  8
0
 10
4206.4638434684266031
 20
206.3383258270422971
 30
0.0
 11
4206.9763351256542592
 21
206.3383258270422971
 31
0.0
  0
LINE
  5
9152
  8
0
 10
4207.1300892970475616
 20
206.7151660358422873
 30
0.0
 11
4206.3100892970269342
 21
206.7151660358422873
 31
0.0
  0
LINE
  5
9153
  8
0
 10
4206.2995114648274466
 20
206.7732393232423078
 30
0.0
 11
4207.1406671292716055
 21
206.7732393232423078
 31
0.0
  0
LINE
  5
9154
  8
0
 10
4205.9088028238265906
 20
208.1258320920422875
 30
0.0
 11
4207.5313757699168491
 21
208.1258320920422875
 31
0.0
  0
LINE
  5
9155
  8
0
 10
4205.8899767682278252
 20
208.1715782537422967
 30
0.0
 11
4207.5502018258657699
 21
208.1715782537422967
 31
0.0
  0
LINE
  5
9156
  8
0
 10
4205.8866466982981365
 20
208.7083463314951075
 30
0.0
 11
4207.5535318958018252
 21
208.7083463315422875
 31
0.0
  0
LINE
  5
9157
  8
0
 10
4205.8899754860885878
 20
208.7634098108783007
 30
0.0
 11
4207.5502031080877714
 21
208.7634098108422904
 31
0.0
  0
LINE
  5
9158
  8
0
 10
4207.8100892970369387
 20
209.1251660358423123
 30
0.0
 11
4205.6300892970266432
 21
209.1251660358423123
 31
0.0
  0
LINE
  5
9159
  8
0
 10
4207.8100892970369387
 20
209.2451660358422885
 30
0.0
 11
4205.6300892970266432
 21
209.2451660358422885
 31
0.0
  0
ARC
  5
915A
  8
0
 10
4206.7200892970276982
 20
205.9651660358422873
 30
0.0
 40
0.2792848009
 50
39.7686185920876909
 51
140.2332813425942106
  0
ARC
  5
915B
  8
0
 10
4206.7200892970276982
 20
205.9651660358422873
 30
0.0
 40
0.2792848009
 50
220.637076352903307
 51
319.3675211476900131
  0
ARC
  5
915C
  8
0
 10
4206.719727973800218
 20
205.9663658906949024
 30
0.0
 40
0.2378082101227998
 50
55.2004275165799712
 51
124.7995724834199933
  0
ARC
  5
915D
  8
0
 10
4206.7200892970276982
 20
205.9651660358422873
 30
0.0
 40
0.239
 50
234.1199483051020138
 51
305.7068106584907241
  0
ARC
  5
915E
  8
0
 10
4206.9306727507473624
 20
208.2885410660846901
 30
0.0
 40
1.11159985583049
 50
158.8546718171168095
 51
177.5496435136176956
  0
ARC
  5
915F
  8
0
 10
4203.0672774642271179
 20
206.5591303514422918
 30
0.0
 40
3.25
 50
4.0440930332018761
 51
28.6699538651932215
  0
ARC
  5
9160
  8
0
 10
4204.7669419664271118
 20
205.9105112731423048
 30
0.0
 40
1.75
 50
14.1502462474056099
 51
27.0746762704998112
  0
ARC
  5
9161
  8
0
 10
4206.3100892970269342
 20
206.7451660358422885
 30
0.0
 40
0.03
 50
110.6460830396232069
 51
270.0
  0
ARC
  5
9162
  8
0
 10
4206.444450308427804
 20
206.3334365178423013
 30
0.0
 40
0.02
 50
306.8137106169174899
 51
14.1502462474056099
  0
ARC
  5
9163
  8
0
 10
4206.311810361427888
 20
206.7001989596423073
 30
0.0
 40
0.0150000000000003
 50
27.0746762717887499
 51
86.203123712183725
  0
ARC
  5
9164
  8
0
 10
4206.2942225486267489
 20
206.7872759669423033
 30
0.0
 40
0.015
 50
290.6460830401240969
 51
4.0440930332018761
  0
ARC
  5
9165
  8
0
 10
4205.5200910282273981
 20
208.7663130954423139
 30
0.0
 40
0.38
 50
1.7613146504003241
 51
70.7953789205139969
  0
ARC
  5
9166
  8
0
 10
4206.0100892970267523
 20
208.3360661317423137
 30
0.0
 40
0.1899999999999955
 50
180.0
 51
229.6718171933025872
  0
ARC
  5
9167
  8
0
 10
4205.6300892970366476
 20
209.1851660358422862
 30
0.0
 40
0.0600000000000005
 50
90.0000000100051665
 51
269.9999999899948193
  0
ARC
  5
9168
  8
0
 10
4205.9150892970274072
 20
208.1551660358423135
 30
0.0
 40
0.03
 50
146.8334968329135108
 51
180.0
  0
ARC
  5
9169
  8
0
 10
4205.9150892970274072
 20
208.1551660358423135
 30
0.0
 40
0.0299999999999998
 50
180.0
 51
257.9040699661190956
  0
ARC
  5
916A
  8
0
 10
4205.9000892970270797
 20
208.7351660358422976
 30
0.0
 40
0.03
 50
109.7019336377806979
 51
243.3790101033974054
  0
ARC
  5
916B
  8
0
 10
4205.9056595872270918
 20
208.1111651202423047
 30
0.0
 40
0.015
 50
28.6699538651932215
 51
77.9040699660127558
  0
ARC
  5
916C
  8
0
 10
4205.8774205038271248
 20
208.1797843627423106
 30
0.0
 40
0.015
 50
326.8334968318991969
 51
49.6718171922064613
  0
ARC
  5
916D
  8
0
 10
4205.8849185806266178
 20
208.7775316983423011
 30
0.0
 40
0.015
 50
289.70193363789042
 51
1.7613146504003241
  0
ARC
  5
916E
  8
0
 10
4205.8799253989272984
 20
208.6949364793422887
 30
0.0
 40
0.015
 50
338.8888118899089932
 51
63.3790101033973698
  0
ARC
  5
916F
  8
0
 10
4206.7065357823057639
 20
205.978661422713003
 30
0.0
 40
0.4210833556618815
 50
126.437598100614494
 51
159.7049197003248082
  0
ARC
  5
9170
  8
0
 10
4206.7201746048467612
 20
205.9625529873906089
 30
0.0
 40
0.4373869598674889
 50
201.7059884235094103
 51
338.2956253230890979
  0
ARC
  5
9171
  8
0
 10
4206.5535835283735651
 20
206.2102342607007017
 30
0.0
 40
0.0573308870590875
 50
279.0348445827702903
 51
302.0527970685316177
  0
ARC
  5
9172
  8
0
 10
4206.43571320609135
 20
206.7220794257719092
 30
0.0
 40
0.582450857253364
 50
276.8731051411687076
 51
282.5814101522067858
  0
ARC
  5
9173
  8
0
 10
4206.1579569565237762
 20
208.6770320892885877
 30
0.0
 40
2.5569356601648319
 50
273.444767685195302
 51
277.8100113118385934
  0
ARC
  5
9174
  8
0
 10
4205.6185971736367719
 20
218.450063954951105
 30
0.0
 40
12.3448142222909194
 50
270.4968571473410179
 51
273.2180854463016999
  0
ARC
  5
9175
  8
0
 10
4205.7295530319279351
 20
206.0478515687931917
 30
0.0
 40
0.0579939814826747
 50
93.8614278113163749
 51
147.0839029504838038
  0
ARC
  5
9176
  8
0
 10
4205.5298693282520617
 20
189.1557205525313918
 30
0.0
 40
16.6635177166554485
 50
87.3035367533054369
 51
89.326821524561467
  0
ARC
  5
9177
  8
0
 10
4205.7295530319279351
 20
205.8759504652902876
 30
0.0
 40
0.0579939814826747
 50
212.9160970495161962
 51
266.1385721886836109
  0
ARC
  5
9178
  8
0
 10
4206.0840431845517742
 20
205.9627284348258058
 30
0.0
 40
0.4278646868130445
 50
170.2672090541470027
 51
189.6087425928068058
  0
ARC
  5
9179
  8
0
 10
4205.7885709355932704
 20
206.0082878466027978
 30
0.0
 40
0.1290419613315979
 50
146.5770555223733993
 51
168.0257500918608002
  0
ARC
  5
917A
  8
0
 10
4205.8139126044015939
 20
205.9246404319775081
 30
0.0
 40
0.1553491731561995
 50
192.3893777942521979
 51
211.0834050134274946
  0
ARC
  5
917B
  8
0
 10
4206.1632237017420266
 20
203.0421726428432123
 30
0.0
 40
2.7627219897408239
 50
82.8278128957041133
 51
86.8756454211095104
  0
ARC
  5
917C
  8
0
 10
4206.3854011054481816
 20
204.8077801690677973
 30
0.0
 40
0.9831903841269864
 50
78.5834839240449412
 51
82.8278128957041133
  0
ARC
  5
917D
  8
0
 10
4206.5549043041473851
 20
206.2969788369460957
 30
0.0
 40
0.1384301096399058
 50
282.1369288317558244
 51
291.2576960958846257
  0
ARC
  5
917E
  8
0
 10
4206.7248248816022169
 20
205.8145117169908076
 30
0.0
 40
0.3731843652162892
 50
90.7270676001624992
 51
108.7134790536813966
  0
ARC
  5
917F
  8
0
 10
4206.6157781498231998
 20
214.1673118815608063
 30
0.0
 40
8.1105915112364482
 50
263.6991437857496976
 51
270.7369071982079731
  0
ARC
  5
9180
  8
0
 10
4206.6430631393159274
 20
205.8944696038905136
 30
0.0
 40
0.1381756057643295
 50
242.8514397850389912
 51
254.4573061146543864
  0
ARC
  5
9181
  8
0
 10
4206.7248543492396493
 20
206.1292526136429046
 30
0.0
 40
0.3866159436159583
 50
252.1019821930377134
 51
269.2938100522305263
  0
ARC
  5
9182
  8
0
 10
4206.6045779044379742
 20
198.3865897132257885
 30
0.0
 40
7.4832938937791482
 50
89.1155528267306778
 51
96.7450927185466441
  0
ARC
  5
9183
  8
0
 10
4206.5095058433289523
 20
208.2885410660846901
 30
0.0
 40
1.1115998558304829
 50
2.4503564863806151
 51
21.1453281828831585
  0
ARC
  5
9184
  8
0
 10
4210.3729011298482874
 20
206.5591303514422918
 30
0.0
 40
3.25
 50
151.3300461348067074
 51
175.9559069667980964
  0
ARC
  5
9185
  8
0
 10
4208.673236627649203
 20
205.9105112731423048
 30
0.0
 40
1.75
 50
152.9253237295002066
 51
165.8497537525944097
  0
ARC
  5
9186
  8
0
 10
4207.1300892970475616
 20
206.7451660358422885
 30
0.0
 40
0.03
 50
270.0
 51
69.3539169603767931
  0
ARC
  5
9187
  8
0
 10
4206.9957282856476013
 20
206.3334365178423013
 30
0.0
 40
0.02
 50
165.8497537525944097
 51
233.1862893830825101
  0
ARC
  5
9188
  8
0
 10
4207.1283682326484268
 20
206.7001989596423073
 30
0.0
 40
0.0150000000000003
 50
93.796876287816275
 51
152.9253237282111968
  0
ARC
  5
9189
  8
0
 10
4207.1459560454477469
 20
206.7872759669423033
 30
0.0
 40
0.015
 50
175.9559069667980964
 51
249.3539169598759031
  0
ARC
  5
918A
  8
0
 10
4207.9200875658480072
 20
208.7663130954423139
 30
0.0
 40
0.38
 50
109.2046210794860031
 51
178.2386853495997059
  0
ARC
  5
918B
  8
0
 10
4207.4300892970477435
 20
208.3360661317423137
 30
0.0
 40
0.1899999999999966
 50
310.3281828066973844
 51
359.9999999999984084
  0
ARC
  5
918C
  8
0
 10
4207.8100892970369387
 20
209.1851660358422862
 30
0.0
 40
0.0600000000000005
 50
270.0000000100051807
 51
89.9999999899948193
  0
ARC
  5
918D
  8
0
 10
4207.5250892970479981
 20
208.1551660358423135
 30
0.0
 40
0.03
 50
282.0959300338809044
 51
0.0
  0
ARC
  5
918E
  8
0
 10
4207.5250892970479981
 20
208.1551660358423135
 30
0.0
 40
0.0300000000000007
 50
0.0000000000016284
 51
33.1665031670864607
  0
ARC
  5
918F
  8
0
 10
4207.5400892970483255
 20
208.7351660358422976
 30
0.0
 40
0.03
 50
296.620989896602623
 51
70.2980663622192452
  0
ARC
  5
9190
  8
0
 10
4207.5345190068483134
 20
208.1111651202423047
 30
0.0
 40
0.015
 50
102.0959300339872016
 51
151.3300461348067074
  0
ARC
  5
9191
  8
0
 10
4207.5627580902482805
 20
208.1797843627423106
 30
0.0
 40
0.015
 50
130.3281828077934961
 51
213.1665031681006894
  0
ARC
  5
9192
  8
0
 10
4207.5552600134487875
 20
208.7775316983423011
 30
0.0
 40
0.015
 50
178.2386853495997059
 51
250.2980663621096085
  0
ARC
  5
9193
  8
0
 10
4207.5602531951481069
 20
208.6949364793422887
 30
0.0
 40
0.015
 50
116.6209898966025946
 51
201.1111881100910068
  0
ARC
  5
9194
  8
0
 10
4206.7336428117687319
 20
205.978661422713003
 30
0.0
 40
0.4210833556618815
 50
20.2950802996751705
 51
53.5624018993855486
  0
ARC
  5
9195
  8
0
 10
4206.8865950657018402
 20
206.2102342607007017
 30
0.0
 40
0.0573308870590875
 50
237.9472029314684107
 51
260.965155417229596
  0
ARC
  5
9196
  8
0
 10
4207.0044653879840553
 20
206.7220794257719092
 30
0.0
 40
0.582450857253364
 50
257.4185898477928163
 51
263.1268948588312924
  0
ARC
  5
9197
  8
0
 10
4207.2822216375516291
 20
208.6770320892885877
 30
0.0
 40
2.5569356601648319
 50
262.1899886881612929
 51
266.5552323148045843
  0
ARC
  5
9198
  8
0
 10
4207.8215814204377239
 20
218.450063954951105
 30
0.0
 40
12.3448142222909194
 50
266.7819145536983001
 51
269.5031428526589821
  0
ARC
  5
9199
  8
0
 10
4207.7106255621465607
 20
206.0478515687931917
 30
0.0
 40
0.0579939814826747
 50
32.9160970495161891
 51
86.1385721886836109
  0
ARC
  5
919A
  8
0
 10
4207.9103092658233436
 20
189.1557205525313918
 30
0.0
 40
16.6635177166554485
 50
90.673178475438533
 51
92.6964632466945631
  0
ARC
  5
919B
  8
0
 10
4207.7106255621465607
 20
205.8759504652902876
 30
0.0
 40
0.0579939814826747
 50
273.8614278113163891
 51
327.0839029504837754
  0
ARC
  5
919C
  8
0
 10
4207.3561354095254501
 20
205.9627284348258058
 30
0.0
 40
0.4278646868130397
 50
350.3912574071932227
 51
9.7327909458529973
  0
ARC
  5
919D
  8
0
 10
4207.6516076584821349
 20
206.0082878466027978
 30
0.0
 40
0.1290419613315979
 50
11.97424990813923
 51
33.4229444776265794
  0
ARC
  5
919E
  8
0
 10
4207.6262659896729019
 20
205.9246404319775081
 30
0.0
 40
0.1553491731561995
 50
328.916594986572477
 51
347.6106222057476884
  0
ARC
  5
919F
  8
0
 10
4207.2769548923351977
 20
203.0421726428432123
 30
0.0
 40
2.7627219897408239
 50
93.1243545788905038
 51
97.1721871042959151
  0
ARC
  5
91A0
  8
0
 10
4207.0547774886281331
 20
204.8077801690677973
 30
0.0
 40
0.9831903841269864
 50
97.1721871042959151
 51
101.416516075955002
  0
ARC
  5
91A1
  8
0
 10
4206.8852742899280202
 20
206.2969788369460957
 30
0.0
 40
0.1384301096399058
 50
248.7423039041154027
 51
257.8630711682441756
  0
ARC
  5
91A2
  8
0
 10
4206.7153537124731884
 20
205.8145117169908076
 30
0.0
 40
0.3731843652162892
 50
71.2865209463185749
 51
89.272932399837515
  0
ARC
  5
91A3
  8
0
 10
4206.824400444253115
 20
214.1673118815608063
 30
0.0
 40
8.1105915112364482
 50
269.2630928017920269
 51
276.3008562142501887
  0
ARC
  5
91A4
  8
0
 10
4206.7971154547585684
 20
205.8944696038905136
 30
0.0
 40
0.1381756057643295
 50
285.5426938853456136
 51
297.1485602149610941
  0
ARC
  5
91A5
  8
0
 10
4206.7153242448348465
 20
206.1292526136429046
 30
0.0
 40
0.3866159436159583
 50
270.7061899477694169
 51
287.8980178069622866
  0
ARC
  5
91A6
  8
0
 10
4206.8356006896374311
 20
198.3865897132257885
 30
0.0
 40
7.4832938937791482
 50
83.2549072814533844
 51
90.8844471732693222
  0
ENDSEC
  0
EOF
