  0
SECTION
  2
HEADER
  9
$ACADVER
  1
AC1009
  9
$INSBASE
 10
4199.5862001375016916
 20
206.4910849870126981
 30
0.0
  9
$EXTMIN
 10
4195.8662012837166913
 20
205.0410849870127095
 30
0.0
  9
$EXTMAX
 10
4199.5862005387607496
 20
208.6810849870126958
 30
0.0
  9
$LIMMIN
 10
0.0
 20
0.0
  9
$LIMMAX
 10
11.6929133858000007
 20
8.2677165353999982
  9
$ORTHOMODE
 70
     0
  9
$REGENMODE
 70
     1
  9
$FILLMODE
 70
     1
  9
$QTEXTMODE
 70
     0
  9
$MIRRTEXT
 70
     0
  9
$DRAGMODE
 70
     2
  9
$LTSCALE
 40
0.6431102362
  9
$OSMODE
 70
  3839
  9
$ATTMODE
 70
     1
  9
$TEXTSIZE
 40
0.2
  9
$TRACEWID
 40
0.05
  9
$TEXTSTYLE
  7
STANDARD
  9
$CLAYER
  8
0
  9
$CELTYPE
  6
BYLAYER
  9
$CECOLOR
 62
   256
  9
$DIMSCALE
 40
1.0
  9
$DIMASZ
 40
0.1875
  9
$DIMEXO
 40
0.0625
  9
$DIMDLI
 40
0.4443307087
  9
$DIMRND
 40
0.0
  9
$DIMDLE
 40
0.0
  9
$DIMEXE
 40
0.125
  9
$DIMTP
 40
0.01
  9
$DIMTM
 40
0.01
  9
$DIMTXT
 40
2.0
  9
$DIMCEN
 40
0.1052362205
  9
$DIMTSZ
 40
0.0
  9
$DIMTOL
 70
     1
  9
$DIMLIM
 70
     0
  9
$DIMTIH
 70
     1
  9
$DIMTOH
 70
     1
  9
$DIMSE1
 70
     0
  9
$DIMSE2
 70
     0
  9
$DIMTAD
 70
     0
  9
$DIMZIN
 70
     0
  9
$DIMBLK
  1

  9
$DIMASO
 70
     1
  9
$DIMSHO
 70
     1
  9
$DIMPOST
  1
\X
  9
$DIMAPOST
  1

  9
$DIMALT
 70
     1
  9
$DIMALTD
 70
     2
  9
$DIMALTF
 40
25.3999999999999986
  9
$DIMLFAC
 40
1.0
  9
$DIMTOFL
 70
     0
  9
$DIMTVP
 40
0.0
  9
$DIMTIX
 70
     0
  9
$DIMSOXD
 70
     0
  9
$DIMSAH
 70
     0
  9
$DIMBLK1
  1

  9
$DIMBLK2
  1

  9
$DIMSTYLE
  2
STANDARD
  9
$DIMCLRD
 70
     0
  9
$DIMCLRE
 70
     0
  9
$DIMCLRT
 70
     0
  9
$DIMTFAC
 40
1.0
  9
$DIMGAP
 40
0.09
  9
$LUNITS
 70
     2
  9
$LUPREC
 70
     4
  9
$SKETCHINC
 40
0.1
  9
$FILLETRAD
 40
0.0
  9
$AUNITS
 70
     0
  9
$AUPREC
 70
     0
  9
$MENU
  1
.
  9
$ELEVATION
 40
0.0
  9
$PELEVATION
 40
0.0
  9
$THICKNESS
 40
0.0
  9
$LIMCHECK
 70
     0
  9
$BLIPMODE
 70
     0
  9
$CHAMFERA
 40
0.0
  9
$CHAMFERB
 40
0.0
  9
$SKPOLY
 70
     0
  9
$TDCREATE
 40
2458060.468368056230247
  9
$TDUPDATE
 40
2459034.3704745369032025
  9
$TDINDWG
 40
0.547784838
  9
$TDUSRTIMER
 40
0.547784838
  9
$USRTIMER
 70
     1
  9
$ANGBASE
 50
0.0
  9
$ANGDIR
 70
     0
  9
$PDMODE
 70
     0
  9
$PDSIZE
 40
0.3125
  9
$PLINEWID
 40
0.0
  9
$COORDS
 70
     1
  9
$SPLFRAME
 70
     0
  9
$SPLINETYPE
 70
     6
  9
$SPLINESEGS
 70
     8
  9
$ATTDIA
 70
     1
  9
$ATTREQ
 70
     1
  9
$HANDLING
 70
     1
  9
$HANDSEED
  5
9371
  9
$SURFTAB1
 70
     6
  9
$SURFTAB2
 70
     6
  9
$SURFTYPE
 70
     6
  9
$SURFU
 70
     6
  9
$SURFV
 70
     6
  9
$UCSNAME
  2

  9
$UCSORG
 10
0.0
 20
0.0
 30
0.0
  9
$UCSXDIR
 10
1.0
 20
0.0
 30
0.0
  9
$UCSYDIR
 10
0.0
 20
1.0
 30
0.0
  9
$PUCSNAME
  2

  9
$PUCSORG
 10
0.0
 20
0.0
 30
0.0
  9
$PUCSXDIR
 10
1.0
 20
0.0
 30
0.0
  9
$PUCSYDIR
 10
0.0
 20
1.0
 30
0.0
  9
$USERI1
 70
     0
  9
$USERI2
 70
     0
  9
$USERI3
 70
     0
  9
$USERI4
 70
     0
  9
$USERI5
 70
     0
  9
$USERR1
 40
0.0
  9
$USERR2
 40
0.0
  9
$USERR3
 40
0.0
  9
$USERR4
 40
0.0
  9
$USERR5
 40
0.0
  9
$WORLDVIEW
 70
     1
  9
$SHADEDGE
 70
     3
  9
$SHADEDIF
 70
    70
  9
$TILEMODE
 70
     1
  9
$MAXACTVP
 70
    64
  9
$PLIMCHECK
 70
     0
  9
$PEXTMIN
 10
1.0000000000000000E+20
 20
1.0000000000000000E+20
 30
1.0000000000000000E+20
  9
$PEXTMAX
 10
-1.0000000000000000E+20
 20
-1.0000000000000000E+20
 30
-1.0000000000000000E+20
  9
$PLIMMIN
 10
0.0
 20
0.0
  9
$PLIMMAX
 10
12.0
 20
9.0
  9
$UNITMODE
 70
     0
  9
$VISRETAIN
 70
     1
  9
$PLINEGEN
 70
     0
  9
$PSLTSCALE
 70
     1
  0
ENDSEC
  0
SECTION
  2
TABLES
  0
TABLE
  2
VPORT
 70
     1
  0
VPORT
  2
*ACTIVE
 70
     0
 10
0.0
 20
0.0
 11
1.0
 21
1.0
 12
0.0
 22
0.0
 13
0.0
 23
0.0
 14
1.0
 24
1.0
 15
0.0
 25
0.0
 16
0.0
 26
0.0
 36
21.5957939998927095
 17
4197.7272949218740905
 27
206.8600158691405966
 37
0.0
 40
5.2018657763823724
 41
3.314341846758349
 42
50.0
 43
0.0
 44
0.0
 50
0.0
 51
0.0
 71
     0
 72
   100
 73
     1
 74
     1
 75
     0
 76
     0
 77
     0
 78
     0
  0
ENDTAB
  0
TABLE
  2
LTYPE
 70
     2
  0
LTYPE
  2
CONTINUOUS
 70
     0
  3
Solid line
 72
    65
 73
     0
 40
0.0
  0
LTYPE
  2
PHANTOM2
 70
     0
  3
___ _ _ ___ _ _ ___ _ _ ___ _ _
 72
    65
 73
     6
 40
1.25
 49
0.625
 49
-0.125
 49
0.125
 49
-0.125
 49
0.125
 49
-0.125
  0
ENDTAB
  0
TABLE
  2
LAYER
 70
     2
  0
LAYER
  2
0
 70
     0
 62
   255
  6
CONTINUOUS
  0
LAYER
  2
DEFPOINTS
 70
     0
 62
     7
  6
CONTINUOUS
  0
ENDTAB
  0
TABLE
  2
STYLE
 70
     1
  0
STYLE
  2
STANDARD
 70
     0
 40
0.0
 41
0.8
 50
0.0
 71
     0
 42
0.2
  3
txt
  4

  0
ENDTAB
  0
TABLE
  2
VIEW
 70
     0
  0
ENDTAB
  0
TABLE
  2
UCS
 70
     0
  0
ENDTAB
  0
TABLE
  2
APPID
 70
     9
  0
APPID
  2
ACAD
 70
     0
  0
APPID
  2
ACAD_MLEADERVER
 70
     0
  0
APPID
  2
ACAD_EXEMPT_FROM_CAD_STANDARDS
 70
     0
  0
APPID
  2
ACAD_NAV_VCDISPLAY
 70
     0
  0
APPID
  2
ACAECLAYERSTANDARD
 70
     0
  0
APPID
  2
ACCMTRANSPARENCY
 70
     0
  0
APPID
  2
ACAD_DSTYLE_DIMJAG
 70
     0
  0
APPID
  2
ACAD_DSTYLE_DIMTALN
 70
     0
  0
APPID
  2
ACDBATTR
 70
     0
  0
ENDTAB
  0
TABLE
  2
DIMSTYLE
 70
     1
  0
DIMSTYLE
  2
STANDARD
 70
     0
  3

  4

  5

  6

  7

 40
1.0
 41
0.1875
 42
0.0625
 43
0.38
 44
0.125
 45
0.0
 46
0.0
 47
0.01
 48
0.01
140
0.15625
141
0.09
142
0.0
143
25.3999999999999986
144
1.0
145
0.0
146
1.0
147
0.09
 71
     1
 72
     0
 73
     1
 74
     1
 75
     0
 76
     0
 77
     0
 78
     4
170
     0
171
     2
172
     0
173
     0
174
     0
175
     0
176
     0
177
     0
178
     0
  0
ENDTAB
  0
ENDSEC
  0
SECTION
  2
BLOCKS
  0
BLOCK
  8
0
  2
$MODEL_SPACE
 70
     0
 10
0.0
 20
0.0
 30
0.0
  3
$MODEL_SPACE
  1

  0
ENDBLK
  5
21
  8
0
  0
BLOCK
 67
     1
  8
0
  2
$PAPER_SPACE
 70
     0
 10
0.0
 20
0.0
 30
0.0
  3
$PAPER_SPACE
  1

  0
ENDBLK
  5
1D
 67
     1
  8
0
  0
BLOCK
  8
0
  2
_FILLED
 70
     0
 10
0.0
 20
0.0
 30
0.0
  3
_FILLED
  1

  0
SOLID
  5
6F59
  8
0
  6
BYBLOCK
 62
     0
 10
0.0
 20
0.0
 30
0.0
 11
-1.0
 21
0.1666666667
 31
0.0
 12
-1.0
 22
-0.1666666667
 32
0.0
 13
-1.0
 23
-0.1666666667
 33
0.0
  0
ENDBLK
  5
6F5A
  8
0
  6
BYBLOCK
 62
     0
  0
ENDSEC
  0
SECTION
  2
ENTITIES
  0
ATTDEF
  5
3930
  8
DEFPOINTS
 10
4199.5751937849563546
 20
206.4898777705228952
 30
0.0
 40
0.001
  1
K-16146T
  3

  2
MODELNUMBER
 70
     0
1001
ACDBATTR
1070
     0
1070
     1
  0
ATTDEF
  5
3931
  8
DEFPOINTS
 10
4199.5751937849563546
 20
206.4882111038562869
 30
0.0
 40
0.001
  1
REVIVAL
  3

  2
TRADENAME
 70
     0
1001
ACDBATTR
1070
     0
1070
     1
  0
ATTDEF
  5
3932
  8
DEFPOINTS
 10
4199.5751937849563546
 20
206.4865444371895933
 30
0.0
 40
0.001
  1
ROBE HOOK
  3

  2
PRODUCT
 70
     0
1001
ACDBATTR
1070
     0
1070
     1
  0
LINE
  5
9150
  8
0
 10
4196.333719884824859
 20
207.8716147477927905
 30
0.0
 11
4196.2786832618794506
 21
207.8716147477927905
 31
0.0
  0
LINE
  5
9151
  8
0
 10
4196.083700076702371
 20
206.8710840910127899
 30
0.0
 11
4196.204148107902256
 21
208.6463747613128135
 31
0.0
  0
LINE
  5
9152
  8
0
 10
4196.0837001375020918
 20
206.8710849870126935
 30
0.0
 11
4196.0837001375020918
 21
206.8310849870127015
 31
0.0
  0
ARC
  5
9153
  8
0
 10
4196.2390678142946854
 20
208.6440056107608996
 30
0.0
 40
0.0349999824134942
 50
93.5473319503055762
 51
176.1186779762481933
  0
LINE
  5
9154
  8
0
 10
4196.6793599287020697
 20
206.2348391584127967
 30
0.0
 11
4196.6793599287020697
 21
206.7473308156127985
 31
0.0
  0
LINE
  5
9155
  8
0
 10
4197.0562001375019463
 20
206.9010849870128084
 30
0.0
 11
4197.0562001375019463
 21
206.0810849870127868
 31
0.0
  0
LINE
  5
9156
  8
0
 10
4197.114273424903331
 20
206.0705071548127023
 30
0.0
 11
4197.114273424903331
 21
206.9116628192126939
 31
0.0
  0
LINE
  5
9157
  8
0
 10
4198.466866193702117
 20
205.679798513812699
 30
0.0
 11
4198.466866193702117
 21
207.3023714602128109
 31
0.0
  0
LINE
  5
9158
  8
0
 10
4198.512612355400961
 20
205.6609724582127114
 30
0.0
 11
4198.512612355400961
 21
207.3211975158127984
 31
0.0
  0
LINE
  5
9159
  8
0
 10
4199.0493804331536012
 20
205.6576423882841027
 30
0.0
 11
4199.0493804332008949
 21
207.3245275857667878
 31
0.0
  0
LINE
  5
915A
  8
0
 10
4199.104443912538045
 20
205.6609711760735877
 30
0.0
 11
4199.1044439125016652
 21
207.3211987980525919
 31
0.0
  0
LINE
  5
915B
  8
0
 10
4199.4662001375018008
 20
207.5810849870127868
 30
0.0
 11
4199.4662001375018008
 21
205.4010849870126947
 31
0.0
  0
LINE
  5
915C
  8
0
 10
4199.5862001375016916
 20
207.5810706605126938
 30
0.0
 11
4199.5862001375016916
 21
205.4010849870126947
 31
0.0
  0
ARC
  5
915D
  8
0
 10
4198.6271674404024452
 20
206.2724264296126933
 30
0.0
 40
1.1200000000000001
 50
68.8888118899108406
 51
86.9222423194122769
  0
ARC
  5
915E
  8
0
 10
4196.9001644531017519
 20
210.1438968198127952
 30
0.0
 40
3.25
 50
274.0440930332201788
 51
298.6699538652115962
  0
ARC
  5
915F
  8
0
 10
4196.2515453748019354
 20
208.4442323176126877
 30
0.0
 40
1.75
 50
284.1502462474024924
 51
297.074676270483792
  0
ARC
  5
9160
  8
0
 10
4197.0862001375007821
 20
206.9010849870128084
 30
0.0
 40
0.03
 50
20.6460830395980501
 51
180.0
  0
ARC
  5
9161
  8
0
 10
4196.6745413417584132
 20
206.7682326537369022
 30
0.0
 40
0.0214500726791012
 50
229.0117105494294947
 51
282.9818265643398263
  0
ARC
  5
9162
  8
0
 10
4197.0412330613007725
 20
206.8993639226127925
 30
0.0
 40
0.0150000000000013
 50
297.0746762718214882
 51
356.2031237122013749
  0
ARC
  5
9163
  8
0
 10
4197.1283100686023317
 20
206.9169517354127947
 30
0.0
 40
0.015
 50
200.6460830400905024
 51
274.0440930332201788
  0
ARC
  5
9164
  8
0
 10
4199.1073471971012623
 20
207.6910832558127993
 30
0.0
 40
0.38
 50
271.7613146504115775
 51
340.7953789205043904
  0
ARC
  5
9165
  8
0
 10
4198.6771002334016885
 20
207.2010849870127913
 30
0.0
 40
0.19
 50
86.9222423194122769
 51
139.6718171933075041
  0
ARC
  5
9166
  8
0
 10
4199.5262001628452708
 20
207.5812900945850004
 30
0.0
 40
0.0600003759172784
 50
359.7904567420616786
 51
180.1958624582487971
  0
ARC
  5
9167
  8
0
 10
4198.4962001375015461
 20
207.2960849870127902
 30
0.0
 40
0.03
 50
56.833496832918371
 51
167.9040699661003089
  0
ARC
  5
9168
  8
0
 10
4199.0762001375023829
 20
207.3110849870126913
 30
0.0
 40
0.03
 50
19.7019336377946495
 51
153.3790101033922042
  0
ARC
  5
9169
  8
0
 10
4198.4521992219024469
 20
207.3055146968127076
 30
0.0
 40
0.015
 50
298.6699538652115962
 51
347.9040699660047835
  0
ARC
  5
916A
  8
0
 10
4198.5208184644016001
 20
207.3337537802127883
 30
0.0
 40
0.015
 50
236.83349683192111
 51
319.6718171921959879
  0
ARC
  5
916B
  8
0
 10
4199.1185658000013063
 20
207.3262557034126985
 30
0.0
 40
0.015
 50
199.7019336378996002
 51
271.7613146504115775
  0
ARC
  5
916C
  8
0
 10
4199.0359705810024025
 20
207.3312488851128137
 30
0.0
 40
0.015
 50
248.8888118899108122
 51
333.3790101033922042
  0
ARC
  5
916D
  8
0
 10
4198.6271674404024452
 20
206.7097435444127882
 30
0.0
 40
1.1200000000000001
 50
273.0777576805876947
 51
291.1111881100890741
  0
ARC
  5
916E
  8
0
 10
4196.9001644531017519
 20
202.8382731542126862
 30
0.0
 40
3.25
 50
61.3300461347883115
 51
85.9559069667797786
  0
ARC
  5
916F
  8
0
 10
4196.2515453748019354
 20
204.5379376564127085
 30
0.0
 40
1.75
 50
62.925323729516137
 51
75.8497537525975929
  0
ARC
  5
9170
  8
0
 10
4197.0862001375007821
 20
206.0810849870127868
 30
0.0
 40
0.03
 50
180.0
 51
339.3539169604018753
  0
ARC
  5
9171
  8
0
 10
4196.674653188454613
 20
206.2115513575971022
 30
0.0
 40
0.0237586841288581
 50
78.5737693260686285
 51
124.420493987202903
  0
ARC
  5
9172
  8
0
 10
4197.0412330613007725
 20
206.0828060514126889
 30
0.0
 40
0.0149999999999991
 50
3.7968762877969948
 51
62.9253237281806292
  0
ARC
  5
9173
  8
0
 10
4197.1283100686023317
 20
206.0652182386128004
 30
0.0
 40
0.015
 50
85.9559069667797786
 51
159.3539169599094976
  0
ARC
  5
9174
  8
0
 10
4199.1073471971012623
 20
205.2910867182127959
 30
0.0
 40
0.38
 50
19.2046210794955492
 51
88.2386853495884367
  0
ARC
  5
9175
  8
0
 10
4198.6771002334016885
 20
205.7810849870126901
 30
0.0
 40
0.19
 50
220.3281828066924959
 51
273.0777576805876947
  0
ARC
  5
9176
  8
0
 10
4199.526200137502201
 20
205.4010849870126947
 30
0.0
 40
0.06
 50
180.0
 51
0.0
  0
ARC
  5
9177
  8
0
 10
4198.4962001375015461
 20
205.6860849870126913
 30
0.0
 40
0.03
 50
192.0959300338996059
 51
303.1665031670816006
  0
ARC
  5
9178
  8
0
 10
4199.0762001375023829
 20
205.6710849870127902
 30
0.0
 40
0.03
 50
206.6209898966077105
 51
340.298066362206896
  0
ARC
  5
9179
  8
0
 10
4198.4521992219024469
 20
205.6766552772126886
 30
0.0
 40
0.015
 50
12.0959300339952005
 51
61.3300461347883115
  0
ARC
  5
917A
  8
0
 10
4198.5208184644016001
 20
205.6484161938126931
 30
0.0
 40
0.015
 50
40.3281828078039624
 51
123.1665031680789042
  0
ARC
  5
917B
  8
0
 10
4199.1185658000013063
 20
205.6559142706126977
 30
0.0
 40
0.015
 50
88.2386853495884367
 51
160.2980663621003998
  0
ARC
  5
917C
  8
0
 10
4199.0359705810024025
 20
205.6509210889128099
 30
0.0
 40
0.015
 50
26.6209898966077496
 51
111.1111881100891026
  0
LINE
  5
917D
  8
0
 10
4196.5287017723021563
 20
206.1510849870126947
 30
0.0
 11
4196.5287017723021563
 21
206.101084987012797
 31
0.0
  0
LINE
  5
917E
  8
0
 10
4196.0837017723024474
 20
206.1510849870126947
 30
0.0
 11
4196.0837017723024474
 21
206.101084987012797
 31
0.0
  0
ARC
  5
917F
  8
0
 10
4197.5287017723012468
 20
206.101084987012797
 30
0.0
 40
1.0
 50
180.0
 51
197.2182235943066075
  0
ARC
  5
9180
  8
0
 10
4196.7730355517105636
 20
205.292575382508204
 30
0.0
 40
0.8750000010846013
 50
153.7608526229747099
 51
171.3922885075180886
  0
ARC
  5
9181
  8
0
 10
4196.5562017723023018
 20
205.4010849870126947
 30
0.0
 40
0.15
 50
300.2299831386977758
 51
8.6077114788975582
  0
ARC
  5
9182
  8
0
 10
4196.5962017723022655
 20
205.2010849870127913
 30
0.0
 40
0.05
 50
287.2490734725134871
 51
49.3611029014894669
  0
ARC
  5
9183
  8
0
 10
4196.5962017723022655
 20
205.7410849870128118
 30
0.0
 40
0.05
 50
311.0199222279144919
 51
90.0
  0
ARC
  5
9184
  8
0
 10
4196.6199238628023522
 20
205.1246830078127061
 30
0.0
 40
0.03
 50
107.2490734725135013
 51
129.8104015631892878
  0
ARC
  5
9185
  8
0
 10
4196.6417920389021674
 20
205.2542030403126887
 30
0.0
 40
0.02
 50
120.2299831388132958
 51
229.3611029020999013
  0
ARC
  5
9186
  8
0
 10
4196.6422278355312301
 20
205.6882544819885936
 30
0.0
 40
0.0200675923561764
 50
131.1684408732793941
 51
206.0892775232046006
  0
ARC
  5
9187
  8
0
 10
4196.5926211971009252
 20
205.8109933519127992
 30
0.0
 40
0.0200000000000008
 50
197.2182235940952921
 51
264.5131950701265282
  0
ARC
  5
9188
  8
0
 10
4195.8442536334878241
 20
205.2941086437882916
 30
0.0
 40
0.8699402643135558
 50
8.5560255040158655
 51
26.2908333655027491
  0
ARC
  5
9189
  8
0
 10
4196.3062017723023018
 20
205.501084987012689
 30
0.0
 40
0.4600000000000001
 50
230.1895984364884953
 51
309.8104015635115047
  0
ARC
  5
918A
  8
0
 10
4196.0562017723023018
 20
205.4010849870126947
 30
0.0
 40
0.15
 50
171.3922885211023868
 51
239.7700168613021958
  0
ARC
  5
918B
  8
0
 10
4196.0162017723023382
 20
205.2010849870127913
 30
0.0
 40
0.05
 50
130.6388970985105118
 51
252.7509265274863992
  0
ARC
  5
918C
  8
0
 10
4196.0162017723023382
 20
205.7410849870128118
 30
0.0
 40
0.05
 50
90.0
 51
228.9800777720855933
  0
ARC
  5
918D
  8
0
 10
4195.9924796818022514
 20
205.1246830078127061
 30
0.0
 40
0.03
 50
50.1895984368106625
 51
72.7509265274864418
  0
ARC
  5
918E
  8
0
 10
4195.9706115057024363
 20
205.2542030403126887
 30
0.0
 40
0.02
 50
310.6388970979000987
 51
59.7700168611867184
  0
ARC
  5
918F
  8
0
 10
4195.9702592736057341
 20
205.6882712877568053
 30
0.0
 40
0.0200000001053013
 50
333.7622039340686797
 51
48.9800776694951097
  0
ARC
  5
9190
  8
0
 10
4196.3062447460160911
 20
206.4910843175734954
 30
0.0
 40
0.4399722039664162
 50
36.3788192908724497
 51
50.6039754942382771
  0
ARC
  5
9191
  8
0
 10
4196.3062447460160911
 20
206.4910843175734954
 30
0.0
 40
0.4399722039664162
 50
309.396299222175287
 51
323.7864310714260228
  0
ARC
  5
9192
  8
0
 10
4196.0197823475018595
 20
205.8109933519127992
 30
0.0
 40
0.0199999999999993
 50
275.4868049298734718
 51
342.7817764059076922
  0
ARC
  5
9193
  8
0
 10
4195.0837017723024474
 20
206.101084987012797
 30
0.0
 40
1.0
 50
342.7817764056932788
 51
0.0
  0
ARC
  5
9194
  8
0
 10
4196.3061982920980881
 20
206.4910849838092872
 30
0.0
 40
0.4399970083802629
 50
129.4000938402174086
 51
230.5999048453288083
  0
ARC
  5
9195
  8
0
 10
4196.2873021230179802
 20
207.9986896413774957
 30
0.0
 40
0.127366845556151
 50
181.4977397671007111
 51
266.1198534159127007
  0
LINE
  5
9196
  8
0
 10
4196.0269182083020496
 20
206.8310849870127015
 30
0.0
 11
4196.58548493840226
 21
206.8310849870127015
 31
0.0
  0
LINE
  5
9197
  8
0
 10
4196.026918200502223
 20
206.1510849870126947
 30
0.0
 11
4196.5854865686023913
 21
206.1510849870126947
 31
0.0
  0
LINE
  5
9198
  8
0
 10
4196.0162017723023382
 20
205.7910849870127947
 30
0.0
 11
4196.5962017723022655
 21
205.7910849870127947
 31
0.0
  0
LINE
  5
9199
  8
0
 10
4195.9833857019293646
 20
205.7033609161127004
 30
0.0
 11
4196.6290178426752391
 21
205.7033609161127004
 31
0.0
  0
LINE
  5
919A
  8
0
 10
4196.001375465782985
 20
205.1533337500127061
 30
0.0
 11
4196.6110280788197997
 21
205.1533337500127061
 31
0.0
  0
LINE
  5
919B
  8
0
 10
4195.9836372960708104
 20
205.2390264536128086
 30
0.0
 11
4196.6287662485328838
 21
205.2390264536128086
 31
0.0
  0
LINE
  5
919D
  8
0
 10
4196.5287030700019386
 20
206.8710840910127899
 30
0.0
 11
4196.4082550388020536
 21
208.6463747613128135
 31
0.0
  0
LINE
  5
919E
  8
0
 10
4196.5287030092022178
 20
206.8710849870126935
 30
0.0
 11
4196.5287030092022178
 21
206.8310849870127015
 31
0.0
  0
ARC
  5
919F
  8
0
 10
4196.3733353324087147
 20
208.6440056107608996
 30
0.0
 40
0.0349999824134942
 50
3.8813220237517352
 51
86.4526680496944238
  0
ARC
  5
91A0
  8
0
 10
4196.3251010236854199
 20
207.9986896413774957
 30
0.0
 40
0.127366845556151
 50
273.8801465840872993
 51
358.5022602328994026
  0
ARC
  5
91A1
  8
0
 10
4196.3062015733521548
 20
207.5613300650115889
 30
0.0
 40
1.119754922001186
 50
86.4518152803718465
 51
93.5481847196281677
  0
ENDSEC
  0
EOF
