  0
SECTION
  2
HEADER
  9
$ACADVER
  1
AC1009
  9
$INSBASE
 10
3874.8911674297210084
 20
96.1518768031333622
 30
0.0
  9
$EXTMIN
 10
3861.4711674297209356
 20
83.3405155391779715
 30
0.0
  9
$EXTMAX
 10
3901.9857094410122045
 20
97.3014212240846774
 30
0.0
  9
$LIMMIN
 10
0.0
 20
0.0
  9
$LIMMAX
 10
11.6929133858000007
 20
8.2677165353999982
  9
$ORTHOMODE
 70
     0
  9
$REGENMODE
 70
     1
  9
$FILLMODE
 70
     1
  9
$QTEXTMODE
 70
     0
  9
$MIRRTEXT
 70
     0
  9
$DRAGMODE
 70
     2
  9
$LTSCALE
 40
0.6431102362
  9
$OSMODE
 70
  4095
  9
$ATTMODE
 70
     1
  9
$TEXTSIZE
 40
0.2
  9
$TRACEWID
 40
0.05
  9
$TEXTSTYLE
  7
STANDARD
  9
$CLAYER
  8
0
  9
$CELTYPE
  6
BYLAYER
  9
$CECOLOR
 62
   256
  9
$DIMSCALE
 40
1.0
  9
$DIMASZ
 40
0.1875
  9
$DIMEXO
 40
0.0625
  9
$DIMDLI
 40
0.4443307087
  9
$DIMRND
 40
0.0
  9
$DIMDLE
 40
0.0
  9
$DIMEXE
 40
0.125
  9
$DIMTP
 40
0.01
  9
$DIMTM
 40
0.01
  9
$DIMTXT
 40
2.0
  9
$DIMCEN
 40
0.1052362205
  9
$DIMTSZ
 40
0.0
  9
$DIMTOL
 70
     1
  9
$DIMLIM
 70
     0
  9
$DIMTIH
 70
     1
  9
$DIMTOH
 70
     1
  9
$DIMSE1
 70
     0
  9
$DIMSE2
 70
     0
  9
$DIMTAD
 70
     0
  9
$DIMZIN
 70
     0
  9
$DIMBLK
  1

  9
$DIMASO
 70
     1
  9
$DIMSHO
 70
     1
  9
$DIMPOST
  1
\X
  9
$DIMAPOST
  1

  9
$DIMALT
 70
     1
  9
$DIMALTD
 70
     2
  9
$DIMALTF
 40
25.3999999999999986
  9
$DIMLFAC
 40
1.0
  9
$DIMTOFL
 70
     0
  9
$DIMTVP
 40
0.0
  9
$DIMTIX
 70
     0
  9
$DIMSOXD
 70
     0
  9
$DIMSAH
 70
     0
  9
$DIMBLK1
  1

  9
$DIMBLK2
  1

  9
$DIMSTYLE
  2
STANDARD
  9
$DIMCLRD
 70
     0
  9
$DIMCLRE
 70
     0
  9
$DIMCLRT
 70
     0
  9
$DIMTFAC
 40
1.0
  9
$DIMGAP
 40
0.09
  9
$LUNITS
 70
     2
  9
$LUPREC
 70
     4
  9
$SKETCHINC
 40
0.1
  9
$FILLETRAD
 40
0.0
  9
$AUNITS
 70
     0
  9
$AUPREC
 70
     0
  9
$MENU
  1
.
  9
$ELEVATION
 40
0.0
  9
$PELEVATION
 40
0.0
  9
$THICKNESS
 40
0.0
  9
$LIMCHECK
 70
     0
  9
$BLIPMODE
 70
     0
  9
$CHAMFERA
 40
0.0
  9
$CHAMFERB
 40
0.0
  9
$SKPOLY
 70
     0
  9
$TDCREATE
 40
2458060.468368056230247
  9
$TDUPDATE
 40
2459068.9977893522009254
  9
$TDINDWG
 40
0.4107362269
  9
$TDUSRTIMER
 40
0.4107362269
  9
$USRTIMER
 70
     1
  9
$ANGBASE
 50
0.0
  9
$ANGDIR
 70
     0
  9
$PDMODE
 70
     0
  9
$PDSIZE
 40
0.3125
  9
$PLINEWID
 40
0.0
  9
$COORDS
 70
     1
  9
$SPLFRAME
 70
     0
  9
$SPLINETYPE
 70
     6
  9
$SPLINESEGS
 70
     8
  9
$ATTDIA
 70
     1
  9
$ATTREQ
 70
     1
  9
$HANDLING
 70
     1
  9
$HANDSEED
  5
747D
  9
$SURFTAB1
 70
     6
  9
$SURFTAB2
 70
     6
  9
$SURFTYPE
 70
     6
  9
$SURFU
 70
     6
  9
$SURFV
 70
     6
  9
$UCSNAME
  2

  9
$UCSORG
 10
0.0
 20
0.0
 30
0.0
  9
$UCSXDIR
 10
1.0
 20
0.0
 30
0.0
  9
$UCSYDIR
 10
0.0
 20
1.0
 30
0.0
  9
$PUCSNAME
  2

  9
$PUCSORG
 10
0.0
 20
0.0
 30
0.0
  9
$PUCSXDIR
 10
1.0
 20
0.0
 30
0.0
  9
$PUCSYDIR
 10
0.0
 20
1.0
 30
0.0
  9
$USERI1
 70
     0
  9
$USERI2
 70
     0
  9
$USERI3
 70
     0
  9
$USERI4
 70
     0
  9
$USERI5
 70
     0
  9
$USERR1
 40
0.0
  9
$USERR2
 40
0.0
  9
$USERR3
 40
0.0
  9
$USERR4
 40
0.0
  9
$USERR5
 40
0.0
  9
$WORLDVIEW
 70
     1
  9
$SHADEDGE
 70
     3
  9
$SHADEDIF
 70
    70
  9
$TILEMODE
 70
     1
  9
$MAXACTVP
 70
    64
  9
$PLIMCHECK
 70
     0
  9
$PEXTMIN
 10
1.0000000000000000E+20
 20
1.0000000000000000E+20
 30
1.0000000000000000E+20
  9
$PEXTMAX
 10
-1.0000000000000000E+20
 20
-1.0000000000000000E+20
 30
-1.0000000000000000E+20
  9
$PLIMMIN
 10
0.0
 20
0.0
  9
$PLIMMAX
 10
12.0
 20
9.0
  9
$UNITMODE
 70
     0
  9
$VISRETAIN
 70
     1
  9
$PLINEGEN
 70
     0
  9
$PSLTSCALE
 70
     1
  0
ENDSEC
  0
SECTION
  2
TABLES
  0
TABLE
  2
VPORT
 70
     1
  0
VPORT
  2
*ACTIVE
 70
     0
 10
0.0
 20
0.0
 11
1.0
 21
1.0
 12
163.9477438621607064
 22
-15.0475902066258396
 13
0.0
 23
0.0
 14
1.0
 24
1.0
 15
0.0
 25
0.0
 16
0.0
 26
0.0
 36
5.1040778033513332
 17
3792.35791015625
 27
120.1806564331053977
 37
0.0
 40
266.022467756024696
 41
2.005224660397074
 42
50.0
 43
0.0
 44
0.0
 50
0.0
 51
0.0
 71
     0
 72
   100
 73
     1
 74
     1
 75
     0
 76
     0
 77
     0
 78
     0
  0
ENDTAB
  0
TABLE
  2
LTYPE
 70
     2
  0
LTYPE
  2
CONTINUOUS
 70
     0
  3
Solid line
 72
    65
 73
     0
 40
0.0
  0
LTYPE
  2
PHANTOM2
 70
     0
  3
___ _ _ ___ _ _ ___ _ _ ___ _ _
 72
    65
 73
     6
 40
1.25
 49
0.625
 49
-0.125
 49
0.125
 49
-0.125
 49
0.125
 49
-0.125
  0
ENDTAB
  0
TABLE
  2
LAYER
 70
     2
  0
LAYER
  2
0
 70
     0
 62
   255
  6
CONTINUOUS
  0
LAYER
  2
DEFPOINTS
 70
     0
 62
     7
  6
CONTINUOUS
  0
ENDTAB
  0
TABLE
  2
STYLE
 70
     1
  0
STYLE
  2
STANDARD
 70
     0
 40
0.0
 41
0.8
 50
0.0
 71
     0
 42
0.2
  3
txt
  4

  0
ENDTAB
  0
TABLE
  2
VIEW
 70
     0
  0
ENDTAB
  0
TABLE
  2
UCS
 70
     0
  0
ENDTAB
  0
TABLE
  2
APPID
 70
     9
  0
APPID
  2
ACAD
 70
     0
  0
APPID
  2
ACAD_MLEADERVER
 70
     0
  0
APPID
  2
ACAD_EXEMPT_FROM_CAD_STANDARDS
 70
     0
  0
APPID
  2
ACAD_NAV_VCDISPLAY
 70
     0
  0
APPID
  2
ACAECLAYERSTANDARD
 70
     0
  0
APPID
  2
ACCMTRANSPARENCY
 70
     0
  0
APPID
  2
ACAD_DSTYLE_DIMJAG
 70
     0
  0
APPID
  2
ACAD_DSTYLE_DIMTALN
 70
     0
  0
APPID
  2
ACDBATTR
 70
     0
  0
ENDTAB
  0
TABLE
  2
DIMSTYLE
 70
     1
  0
DIMSTYLE
  2
STANDARD
 70
     0
  3

  4

  5

  6

  7

 40
1.0
 41
0.1875
 42
0.0625
 43
0.38
 44
0.125
 45
0.0
 46
0.0
 47
0.01
 48
0.01
140
0.15625
141
0.09
142
0.0
143
25.3999999999999986
144
1.0
145
0.0
146
1.0
147
0.09
 71
     1
 72
     0
 73
     1
 74
     1
 75
     0
 76
     0
 77
     0
 78
     4
170
     0
171
     2
172
     0
173
     0
174
     0
175
     0
176
     0
177
     0
178
     0
  0
ENDTAB
  0
ENDSEC
  0
SECTION
  2
BLOCKS
  0
BLOCK
  8
0
  2
$MODEL_SPACE
 70
     0
 10
0.0
 20
0.0
 30
0.0
  3
$MODEL_SPACE
  1

  0
ENDBLK
  5
21
  8
0
  0
BLOCK
 67
     1
  8
0
  2
$PAPER_SPACE
 70
     0
 10
0.0
 20
0.0
 30
0.0
  3
$PAPER_SPACE
  1

  0
ENDBLK
  5
1D
 67
     1
  8
0
  0
BLOCK
  8
0
  2
_FILLED
 70
     0
 10
0.0
 20
0.0
 30
0.0
  3
_FILLED
  1

  0
SOLID
  5
69B4
  8
0
  6
BYBLOCK
 62
     0
 10
0.0
 20
0.0
 30
0.0
 11
-1.0
 21
0.1666666667
 31
0.0
 12
-1.0
 22
-0.1666666667
 32
0.0
 13
-1.0
 23
-0.1666666667
 33
0.0
  0
ENDBLK
  5
69B5
  8
0
  6
BYBLOCK
 62
     0
  0
BLOCK
  8
0
  2
A$CDFAF6206
 70
     0
 10
0.0
 20
0.0
 30
0.0
  3
A$CDFAF6206
  1

  0
LINE
  5
6A0E
  8
0
 10
7.4646650085734834
 20
10.9287685970688493
 30
0.0
 11
7.4646650085734896
 21
10.8905784766688498
 31
0.0
  0
ARC
  5
6A0F
  8
0
 10
7.7269027075262349
 20
10.8926811525838598
 30
0.0
 40
0.2622461286616791
 50
180.4593995232625048
 51
217.0214027758331099
  0
LINE
  5
6A10
  8
0
 10
9.767814609867095
 20
10.9287685970688493
 30
0.0
 11
9.767814609867095
 21
10.8905433757650094
 31
0.0
  0
ARC
  5
6A11
  8
0
 10
9.5068669568548287
 20
10.8922438613003703
 30
0.0
 40
0.2609531936261092
 50
322.8847083717149076
 51
359.6266329125650145
  0
LINE
  5
6A12
  8
0
 10
7.517522606271406
 20
10.7347792678688396
 30
0.0
 11
9.7149570120691777
 21
10.7347792678688396
 31
0.0
  0
LINE
  5
6A13
  8
0
 10
7.4646650085734834
 20
10.9287685970688493
 30
0.0
 11
9.7678146123202936
 21
10.9287685970688493
 31
0.0
  0
ARC
  5
6A14
  8
0
 10
4.0826771419203629
 20
8.527951346868889
 30
0.0
 40
4.0826771653999172
 50
13.3117747050523896
 51
32.7200330051415591
  0
ARC
  5
6A15
  8
0
 10
4.0826771460567306
 20
8.5279513475907933
 30
0.0
 40
4.0826771612084691
 50
359.6656501984817851
 51
13.3117747085593798
  0
ARC
  5
6A16
  8
0
 10
13.1498041284835097
 20
8.5279508235212234
 30
0.0
 40
4.0826788382043553
 50
147.2799733478981068
 51
166.6882233021349862
  0
ARC
  5
6A17
  8
0
 10
13.1498064934207992
 20
8.5279506557033251
 30
0.0
 40
4.0826811782395342
 50
166.688228652086309
 51
180.3343397625230011
  0
LINE
  5
6A18
  8
0
 10
8.1652847935202928
 20
8.504127000268852
 30
0.0
 11
9.0671948248202892
 21
8.5041270002687881
 31
0.0
  0
LINE
  5
6A19
  8
0
 10
8.1652847935202786
 20
8.5041270002667204
 30
0.0
 11
8.1652847935202928
 21
8.3607006934688481
 31
0.0
  0
ARC
  5
6A1A
  8
0
 10
5.6196779630382627
 20
8.3631022096452732
 30
0.0
 40
2.545607963272567
 50
342.0511668832173768
 51
359.945947387132378
  0
LINE
  5
6A1B
  8
0
 10
9.0671948248202892
 20
8.5041270002687881
 30
0.0
 11
9.0671948248202892
 21
8.2885990108688503
 31
0.0
  0
ARC
  5
6A1C
  8
0
 10
9.4521885297801163
 20
7.9614488056228501
 30
0.0
 40
0.5052201595850959
 50
139.6436242991769916
 51
174.6757930071850069
  0
ARC
  5
6A1D
  8
0
 10
9.9238413395551746
 20
8.1492417579399508
 30
0.0
 40
0.9848265662939324
 50
188.2263441834095943
 51
209.5593615864376034
  0
ARC
  5
6A1E
  8
0
 10
8.0788764238271256
 20
7.5665710856463297
 30
0.0
 40
0.0393715937169877
 50
162.1669117288323037
 51
227.2023190037006088
  0
ARC
  5
6A1F
  8
0
 10
8.7223682141740682
 20
8.2079667397440517
 30
0.0
 40
0.947895137885075
 50
225.0018610752970858
 51
261.4598823366255829
  0
ARC
  5
6A20
  8
0
 10
8.6645157662702701
 20
8.1695128573935332
 30
0.0
 40
0.9027466462812931
 50
264.7303071214498118
 51
281.8608311947915013
  0
ARC
  5
6A21
  8
0
 10
8.6645157662698935
 20
8.1695128573999671
 30
0.0
 40
0.9027466462876658
 50
299.1741886792128753
 51
299.1743179154552195
  0
ARC
  5
6A22
  8
0
 10
9.0843330931590316
 20
7.4150554710086141
 30
0.0
 40
0.0393703053609601
 50
251.9700352025496954
 51
252.4698971938937859
  0
ARC
  5
6A23
  8
0
 10
9.0843330931590316
 20
7.4150554710086141
 30
0.0
 40
0.0393703053609601
 50
297.2453716727138726
 51
6.8376113572703074
  0
LINE
  5
6A24
  8
0
 10
9.0671948248202892
 20
7.663402160468852
 30
0.0
 11
9.1234233799329516
 21
7.419742732911689
 31
0.0
  0
ARC
  5
6A25
  8
0
 10
8.8843741880892395
 20
9.8961379890094676
 30
0.0
 40
2.5255097382132701
 50
263.792800240752797
 51
274.9514951129821156
  0
ARC
  5
6A26
  8
0
 10
8.8258167405968848
 20
9.2763025889666508
 30
0.0
 40
1.9029970832759311
 50
246.0108363320686067
 51
263.5276935074397215
  0
ARC
  5
6A27
  8
0
 10
8.607491361665744
 20
8.3225444804829642
 30
0.0
 40
1.064510137163637
 50
283.1717405874071005
 51
297.7022170607311864
  0
LINE
  5
6A28
  8
0
 10
9.0671948248202892
 20
8.2885990108688503
 30
0.0
 11
26.2014378595979593
 21
8.2885990108689942
 31
0.0
  0
LINE
  5
6A29
  8
0
 10
26.2014378595979913
 20
7.6634021604689053
 30
0.0
 11
9.0671948248202892
 21
7.6634021604688618
 31
0.0
  0
LINE
  5
6A2A
  8
0
 10
27.8039676758446994
 20
10.9287685970690802
 30
0.0
 11
27.8039676758446888
 21
10.8905784766690807
 31
0.0
  0
ARC
  5
6A2B
  8
0
 10
27.5417299768919399
 20
10.8926811525840801
 30
0.0
 40
0.2622461286616791
 50
322.9785972241680838
 51
359.5406004767386889
  0
LINE
  5
6A2C
  8
0
 10
25.5008180745510913
 20
10.9287685970690305
 30
0.0
 11
25.5008180745510913
 21
10.8905433757651799
 31
0.0
  0
ARC
  5
6A2D
  8
0
 10
25.7617657275633505
 20
10.8922438613005497
 30
0.0
 40
0.2609531936261092
 50
180.3733670874362929
 51
217.1152916282862861
  0
LINE
  5
6A2E
  8
0
 10
27.7511100781467803
 20
10.7347792678690706
 30
0.0
 11
25.5536756723490015
 21
10.7347792678690208
 31
0.0
  0
LINE
  5
6A2F
  8
0
 10
27.8039676758446888
 20
10.9287685970686006
 30
0.0
 11
25.5008180745510806
 21
10.9287685970686006
 31
0.0
  0
ARC
  5
6A30
  8
0
 10
31.1859555424978616
 20
8.5279513468691981
 30
0.0
 40
4.0826771653999172
 50
147.2799669948597057
 51
166.6882252949490066
  0
ARC
  5
6A31
  8
0
 10
31.185955538361501
 20
8.5279513475911024
 30
0.0
 40
4.0826771612084691
 50
166.6882252914419098
 51
180.3343498015194086
  0
ARC
  5
6A32
  8
0
 10
22.1188285559344706
 20
8.5279508235212251
 30
0.0
 40
4.0826788382046102
 50
13.3117766978667795
 51
32.7200266521023977
  0
ARC
  5
6A33
  8
0
 10
22.1188261909974315
 20
8.5279506557034264
 30
0.0
 40
4.0826811782395342
 50
359.665660237478221
 51
13.31177134791497
  0
LINE
  5
6A34
  8
0
 10
27.1033478908979397
 20
8.5041270002690652
 30
0.0
 11
26.2014378595979416
 21
8.5041270002689835
 31
0.0
  0
LINE
  5
6A35
  8
0
 10
27.1033478908979504
 20
8.5041270002669354
 30
0.0
 11
27.1033478908979397
 21
8.3607006934690649
 31
0.0
  0
ARC
  5
6A36
  8
0
 10
29.6489547213799689
 20
8.3631022096455467
 30
0.0
 40
2.545607963272567
 50
180.0540526128687873
 51
197.9488331167837032
  0
LINE
  5
6A37
  8
0
 10
26.2014378595979416
 20
8.5041270002689835
 30
0.0
 11
26.2014378595979487
 21
8.2885990108690457
 31
0.0
  0
ARC
  5
6A38
  8
0
 10
25.8164441546381305
 20
7.9614488056230366
 30
0.0
 40
0.5052201595850959
 50
5.324206992816312
 51
40.3563757008241879
  0
ARC
  5
6A39
  8
0
 10
25.3447913448601803
 20
8.149241757940846
 30
0.0
 40
0.9848265662968968
 50
330.4406384136033807
 51
351.7736558165743759
  0
ARC
  5
6A3A
  8
0
 10
27.1897562605911212
 20
7.5665710856465473
 30
0.0
 40
0.0393715937169877
 50
312.7976809963004143
 51
17.8330882711689185
  0
ARC
  5
6A3B
  8
0
 10
26.5462644702441715
 20
8.2079667397442542
 30
0.0
 40
0.947895137885075
 50
278.5401176633754972
 51
314.9981389247041079
  0
ARC
  5
6A3C
  8
0
 10
26.6041169181479695
 20
8.1695128573937392
 30
0.0
 40
0.9027466462812931
 50
258.139168805210204
 51
275.2696928785518935
  0
ARC
  5
6A3D
  8
0
 10
26.6041169181483497
 20
8.1695128574001732
 30
0.0
 40
0.9027466462876658
 50
240.8256820845460027
 51
240.8258113207880058
  0
ARC
  5
6A3E
  8
0
 10
26.1842995912592293
 20
7.4150554710088086
 30
0.0
 40
0.0393703053609601
 50
287.5301028061073794
 51
288.0299647974517825
  0
ARC
  5
6A3F
  8
0
 10
26.1842995912592293
 20
7.4150554710088086
 30
0.0
 40
0.0393703053609601
 50
173.1623886427310026
 51
242.7546283272870085
  0
LINE
  5
6A40
  8
0
 10
26.2014378595981192
 20
7.6634021604690448
 30
0.0
 11
26.1452093044853093
 21
7.4197427329118826
 31
0.0
  0
ARC
  5
6A41
  8
0
 10
26.384258496328961
 20
9.8961379890096666
 30
0.0
 40
2.5255097382132701
 50
265.0485048870193054
 51
276.2071997592482262
  0
ARC
  5
6A42
  8
0
 10
26.4428159438213299
 20
9.2763025889668516
 30
0.0
 40
1.9029970832759311
 50
276.4723064925619838
 51
293.9891636679327007
  0
ARC
  5
6A43
  8
0
 10
26.6611413227524885
 20
8.3225444804831703
 30
0.0
 40
1.064510137163637
 50
242.2977829392704052
 51
256.8282594125943774
  0
LINE
  5
6A44
  8
0
 62
     4
 10
17.9031473532159602
 20
10.9287685970686006
 30
0.0
 11
24.6329820359843588
 21
20.0952817181593808
 31
0.0
  0
LINE
  5
6A45
  8
0
 62
     4
 10
17.9031473532159602
 20
-0.0000000300842942
 30
0.0
 11
22.3963351323106608
 21
4.993614497796286
 31
0.0
  0
ENDBLK
  5
6A49
  8
0
  0
ENDSEC
  0
SECTION
  2
ENTITIES
  0
ATTDEF
  5
3930
  8
DEFPOINTS
 10
3874.8912069186740155
 20
96.1535200566855508
 30
0.0
 40
0.001
  1
K-16150T
  3

  2
MODELNUMBER
 70
     0
1001
ACDBATTR
1070
     0
1070
     1
  0
ATTDEF
  5
3931
  8
DEFPOINTS
 10
3874.8912069186740155
 20
96.1518533900188856
 30
0.0
 40
0.001
  1
REVIVAL
  3

  2
TRADENAME
 70
     0
1001
ACDBATTR
1070
     0
1070
     1
  0
ATTDEF
  5
3932
  8
DEFPOINTS
 10
3874.8912069186740155
 20
96.1501867233522063
 30
0.0
 40
0.001
  1
TOWEL BAR
  3

  2
PRODUCT
 70
     0
1001
ACDBATTR
1070
     0
1070
     1
  0
ARC
  5
7364
  8
0
 10
3861.9311674296582169
 20
96.151420688980906
 30
0.0
 40
0.4599999999373912
 50
140.1895984449332104
 51
180.0000000016023876
  0
ARC
  5
7365
  8
0
 10
3861.5547654494748713
 20
96.4651427800554728
 30
0.0
 40
0.0300000011993447
 50
320.1895987087931985
 51
342.7509259450575883
  0
ARC
  5
7366
  8
0
 10
3861.6311674297439822
 20
96.4414206889498615
 30
0.0
 40
0.0500000000226122
 50
101.6949040102992967
 51
162.7509265948114034
  0
ARC
  5
7367
  8
0
 10
3861.6311674297198806
 20
96.4414206889680514
 30
0.0
 40
0.0499999999999924
 50
40.6388972053346933
 51
101.6949039880013999
  0
ARC
  5
7368
  8
0
 10
3861.6842854830510987
 20
96.4870109555329236
 30
0.0
 40
0.0199999999648732
 50
220.6388966898365993
 51
329.7700167431054865
  0
ARC
  5
7369
  8
0
 10
3861.8312601860670839
 20
96.4013200838912354
 30
0.0
 40
0.150130799788811
 50
85.5837894774496419
 51
149.7546659598131953
  0
ARC
  5
736A
  8
0
 10
3861.7889387887958037
 20
96.0506132097164453
 30
0.0
 40
0.5032845328205892
 50
76.8913943271032707
 51
83.8541356140548686
  0
ARC
  5
736B
  8
0
 10
3861.7226578255199456
 20
95.6845869105671341
 30
0.0
 40
0.8750000000009318
 50
65.6163608244609264
 51
78.100266208835265
  0
ARC
  5
736C
  8
0
 10
3861.7230369711128333
 20
95.6853885875529073
 30
0.0
 40
0.8741133033265867
 50
63.7599113957321606
 51
65.617301990780021
  0
ARC
  5
736D
  8
0
 10
3862.1183537305059872
 20
96.4873631874937274
 30
0.0
 40
0.0200000000277007
 50
243.7622035298788035
 51
318.9800777842596062
  0
ARC
  5
736E
  8
0
 10
3862.1708385442479994
 20
96.4424855145908566
 30
0.0
 40
0.0490565126198594
 50
74.661685564891755
 51
139.6663102569862076
  0
ARC
  5
736F
  8
0
 10
3862.1710747787769833
 20
96.4410962336948643
 30
0.0
 40
0.0503373403938623
 50
354.3483377142430868
 51
75.339304536092726
  0
ARC
  5
7370
  8
0
 10
3862.2410429675392152
 20
96.4377917990840814
 30
0.0
 40
0.0199441406487719
 50
184.7536319200872015
 51
252.8307697528045139
  0
ARC
  5
7371
  8
0
 10
3862.531167429720881
 20
97.3739206889680844
 30
0.0
 40
1.0000000000000631
 50
252.7817764034452921
 51
270.0
  0
LINE
  5
7372
  8
0
 10
3862.531167429720881
 20
96.3739206889680418
 30
0.0
 11
3862.541628998089891
 21
96.3739206889680418
 31
0.0
  0
ARC
  5
7373
  8
0
 10
3862.9211674297198442
 20
96.1515225906913713
 30
0.0
 40
0.4398980963836679
 50
39.3844078241391813
 51
140.6155921758582963
  0
LINE
  5
7374
  8
0
 10
3863.3007058613520712
 20
96.3739206889680418
 30
0.0
 11
3863.3088009744210467
 21
96.3739206889680418
 31
0.0
  0
LINE
  5
7375
  8
0
 10
3863.3088009744210467
 20
96.3739206889680418
 30
0.0
 11
3863.3134918965211
 21
96.3744785889680458
 31
0.0
  0
ARC
  5
7376
  8
0
 10
3863.0791741602961338
 20
97.3460626916672709
 30
0.0
 40
0.9994400783312656
 50
283.5591460055010771
 51
303.7884879340010116
  0
ARC
  5
7377
  8
0
 10
3857.5566268442148612
 20
105.3046897098092956
 30
0.0
 40
10.6863263171292893
 50
304.666472121903098
 51
304.848927364039298
  0
ARC
  5
7378
  8
0
 10
3863.0789457881051021
 20
97.3465835848903254
 30
0.0
 40
1.0000000000275311
 50
305.7326345050615259
 51
307.0542913559773979
  0
ARC
  5
7379
  8
0
 10
3863.6694658690789765
 20
96.5644799879726747
 30
0.0
 40
0.0199999988309807
 50
307.0542906259702818
 51
331.8178827877234767
  0
ARC
  5
737A
  8
0
 10
3863.7311745821771183
 20
96.5314125284947266
 30
0.0
 40
0.0500101586413719
 50
110.6534929681714061
 51
151.8135095012623879
  0
ARC
  5
737B
  8
0
 10
3863.7311674297211539
 20
96.5314206889680548
 30
0.0
 40
0.0500000000000002
 50
0.0
 51
110.649121932240007
  0
ARC
  5
737C
  8
0
 10
3861.9311674296582169
 20
96.1514206889809344
 30
0.0
 40
0.4599999999373879
 50
180.0000000016048034
 51
219.8104015550667896
  0
ARC
  5
737D
  8
0
 10
3861.5547654494748713
 20
95.8376985979063534
 30
0.0
 40
0.0300000011993447
 50
17.2490740549424508
 51
39.8104012912068015
  0
ARC
  5
737E
  8
0
 10
3861.6311674297439822
 20
95.8614206890119931
 30
0.0
 40
0.0500000000226122
 50
197.2490734051885966
 51
258.3050959897005896
  0
ARC
  5
737F
  8
0
 10
3861.6311674297198806
 20
95.861420688993789
 30
0.0
 40
0.0499999999999924
 50
258.3050960119986144
 51
319.361102794665328
  0
ARC
  5
7380
  8
0
 10
3861.6842854830510987
 20
95.8158304224289168
 30
0.0
 40
0.0199999999648732
 50
30.2299832568945597
 51
139.3611033101634007
  0
ARC
  5
7381
  8
0
 10
3861.8312601860670839
 20
95.9015212940705908
 30
0.0
 40
0.150130799788811
 50
210.2453340401868047
 51
274.4162105225502728
  0
ARC
  5
7382
  8
0
 10
3861.7889387887958037
 20
96.2522281682453951
 30
0.0
 40
0.5032845328205892
 50
276.1458643859451172
 51
283.1086056728967151
  0
ARC
  5
7383
  8
0
 10
3861.7226578255199456
 20
96.6182544673946779
 30
0.0
 40
0.8750000000009318
 50
281.8997337911646923
 51
294.3836391755389741
  0
ARC
  5
7384
  8
0
 10
3861.7230369711128333
 20
96.6174527904089331
 30
0.0
 40
0.8741133033265867
 50
294.3826980092200074
 51
296.2400886042678962
  0
ARC
  5
7385
  8
0
 10
3862.1183537305059872
 20
95.8154781904680846
 30
0.0
 40
0.0200000000277007
 50
41.0199222157404009
 51
116.2377964701211965
  0
ARC
  5
7386
  8
0
 10
3862.1708385442479994
 20
95.8603558633709554
 30
0.0
 40
0.0490565126198594
 50
220.3336897430137071
 51
285.338314435108316
  0
ARC
  5
7387
  8
0
 10
3862.1710747787769833
 20
95.8617451442669619
 30
0.0
 40
0.0503373403938623
 50
284.6606954639073024
 51
5.6516622857569008
  0
ARC
  5
7388
  8
0
 10
3862.2410429675392152
 20
95.8650495788777448
 30
0.0
 40
0.0199441406487719
 50
107.1692302471953013
 51
175.246368079911889
  0
ARC
  5
7389
  8
0
 10
3862.531167429720881
 20
94.9289206889937134
 30
0.0
 40
1.0000000000000631
 50
90.0
 51
107.2182235965546937
  0
LINE
  5
738A
  8
0
 10
3862.531167429720881
 20
95.9289206889937844
 30
0.0
 11
3862.541628998089891
 21
95.9289206889937844
 31
0.0
  0
ARC
  5
738B
  8
0
 10
3862.9211674297198442
 20
96.1513187872704549
 30
0.0
 40
0.4398980963836679
 50
219.3844078241417037
 51
320.6155921758607974
  0
ARC
  5
738C
  8
0
 10
3862.9211674297198442
 20
96.1513187872704549
 30
0.0
 40
0.4398980963836679
 50
329.6159671776403002
 51
329.6309809387958012
  0
LINE
  5
738D
  8
0
 10
3863.3007058613520712
 20
95.9289206889937844
 30
0.0
 11
3863.3088009744210467
 21
95.9289206889937844
 31
0.0
  0
LINE
  5
738E
  8
0
 10
3863.3088009744210467
 20
95.9289206889937844
 30
0.0
 11
3863.3134918965211
 21
95.9283627889937947
 31
0.0
  0
ARC
  5
738F
  8
0
 10
3863.0791741602961338
 20
94.9567786862945553
 30
0.0
 40
0.9994400783312656
 50
56.2115120659990026
 51
76.4408539944988519
  0
ARC
  5
7390
  8
0
 10
3857.5566268442148612
 20
86.9981516681525449
 30
0.0
 40
10.6863263171292893
 50
55.151072635960773
 51
55.333527878096838
  0
ARC
  5
7391
  8
0
 10
3863.0789457881051021
 20
94.9562577930715008
 30
0.0
 40
1.0000000000275311
 50
52.9457086440226092
 51
54.2673654949384527
  0
ARC
  5
7392
  8
0
 10
3863.6694658690789765
 20
95.738361389989123
 30
0.0
 40
0.0199999988309807
 50
28.1821172122765091
 51
52.9457093740296827
  0
ARC
  5
7393
  8
0
 10
3863.7311745821771183
 20
95.7714288494671138
 30
0.0
 40
0.0500101586413719
 50
208.1864904987376121
 51
249.3465070318285939
  0
ARC
  5
7394
  8
0
 10
3863.7311674297211539
 20
95.7714206889937998
 30
0.0
 40
0.0500000000000002
 50
249.3508780677599077
 51
0.0
  0
LINE
  5
7395
  8
0
 10
3862.5811674297201535
 20
96.4306468196683255
 30
0.0
 11
3862.5811674297201535
 21
95.8721945582935007
 31
0.0
  0
LINE
  5
7396
  8
0
 10
3863.2611674297199897
 20
96.4306468196683255
 30
0.0
 11
3863.2611674297199897
 21
95.8721945582935007
 31
0.0
  0
LINE
  5
7397
  8
0
 10
3863.3007058613520712
 20
95.9288210957179359
 30
0.0
 11
3863.2611674297199897
 21
95.9289206889680344
 31
0.0
  0
LINE
  5
7398
  8
0
 10
3863.2611674297199897
 20
96.3739206889680418
 30
0.0
 11
3863.3007058613520712
 21
96.3739206889680418
 31
0.0
  0
LINE
  5
7399
  8
0
 10
3862.541628998089891
 20
96.3739206889680418
 30
0.0
 11
3862.5811674297201535
 21
96.3739206889680418
 31
0.0
  0
LINE
  5
739A
  8
0
 10
3862.5416289981048976
 20
95.9289206889680344
 30
0.0
 11
3862.5811674297201535
 21
95.9289206889680344
 31
0.0
  0
LINE
  5
739B
  8
0
 10
3861.5834161927209607
 20
95.8465943823680249
 30
0.0
 11
3861.5834161927209607
 21
96.4562469954680353
 31
0.0
  0
LINE
  5
739C
  8
0
 10
3861.6691088964048504
 20
96.4739851651021354
 30
0.0
 11
3861.6691088964048504
 21
95.8288562128596766
 31
0.0
  0
LINE
  5
739D
  8
0
 10
3862.2211674297209356
 20
96.4359277835119286
 30
0.0
 11
3862.2211674297209356
 21
95.8667023773083002
 31
0.0
  0
LINE
  5
739E
  8
0
 10
3862.1334433621141216
 20
96.4742367631264131
 30
0.0
 11
3862.13344336302589
 21
95.8286046137609162
 31
0.0
  0
LINE
  5
739F
  8
0
 10
3863.6870948860209865
 20
96.5550344750221967
 30
0.0
 11
3863.6870948860209865
 21
95.7478069028680352
 31
0.0
  0
LINE
  5
73A0
  8
0
 10
3863.781167429720881
 20
96.5314206885680335
 30
0.0
 11
3863.781167429720881
 21
95.7714206889680355
 31
0.0
  0
ARC
  5
73A1
  8
0
 10
3862.921154369298165
 20
96.151440276722937
 30
0.0
 40
1.1499809473617399
 50
15.7670354421591199
 51
159.6683632139398981
  0
ARC
  5
73A2
  8
0
 10
3862.9211611565378917
 20
96.1514301887831238
 30
0.0
 40
1.074990733398091
 50
16.8993502571600196
 51
158.9512348131661099
  0
ARC
  5
73A3
  8
0
 10
3862.921165621579803
 20
96.1514233464681922
 30
0.0
 40
0.8999973425016653
 50
28.307743437692011
 51
158.4818789450185079
  0
ARC
  5
73A4
  8
0
 10
3862.9211743760438367
 20
96.1514100853509888
 30
0.0
 40
0.8012794838895952
 50
27.0200051097818594
 51
155.295544081887698
  0
ARC
  5
73A5
  8
0
 10
3862.9211674297212085
 20
96.1514206889680167
 30
0.0
 40
0.8112864732000112
 50
27.1143125717106912
 51
155.349423984088105
  0
ARC
  5
73A6
  8
0
 10
3862.921154369298165
 20
96.151401100971654
 30
0.0
 40
1.1499809473617399
 50
200.3316367755078033
 51
344.2329645472814263
  0
ARC
  5
73A7
  8
0
 10
3862.9211611565378917
 20
96.1514111889114531
 30
0.0
 40
1.074990733398091
 50
201.0487651762792041
 51
343.1006497322781001
  0
ARC
  5
73A8
  8
0
 10
3862.9211656215447874
 20
96.1514180311840505
 30
0.0
 40
0.8999973424573028
 50
201.5181210377903938
 51
331.6922565813308097
  0
ARC
  5
73A9
  8
0
 10
3862.9211735776389105
 20
96.1514300734904879
 30
0.0
 40
0.8012782491534359
 50
204.7044005898634964
 51
332.9801118495169021
  0
ARC
  5
73AA
  8
0
 10
3862.9211674297212085
 20
96.1514206887265459
 30
0.0
 40
0.8112864732000112
 50
204.6505760053518941
 51
332.8856874177259897
  0
ARC
  5
73AB
  8
0
 10
3887.8511674297828904
 20
96.1514206889809344
 30
0.0
 40
0.4599999999373733
 50
0.0
 51
39.8104015550673935
  0
ARC
  5
73AC
  8
0
 10
3888.2275694099657812
 20
96.4651427800554728
 30
0.0
 40
0.0300000011993447
 50
197.2490740549424117
 51
219.8104012912068015
  0
ARC
  5
73AD
  8
0
 10
3888.151167429697125
 20
96.4414206889498615
 30
0.0
 40
0.0500000000226122
 50
17.2490734051885504
 51
78.3050959897006322
  0
ARC
  5
73AE
  8
0
 10
3888.1511674297198624
 20
96.4414206889680514
 30
0.0
 40
0.0499999999999924
 50
78.3050960119985291
 51
139.3611027946652996
  0
ARC
  5
73AF
  8
0
 10
3888.0980493763900085
 20
96.4870109555329236
 30
0.0
 40
0.0199999999648732
 50
210.2299832568945988
 51
319.3611033101634007
  0
ARC
  5
73B0
  8
0
 10
3887.9510746733740234
 20
96.4013200838912354
 30
0.0
 40
0.150130799788811
 50
30.2453340401868012
 51
94.4162105225503723
  0
ARC
  5
73B1
  8
0
 10
3887.993396070646213
 20
96.0506132097164453
 30
0.0
 40
0.5032845328205892
 50
96.1458643859451456
 51
103.1086056728967009
  0
ARC
  5
73B2
  8
0
 10
3888.0596770339211616
 20
95.6845869105671341
 30
0.0
 40
0.8750000000009318
 50
101.8997337911647065
 51
114.3836391755390025
  0
ARC
  5
73B3
  8
0
 10
3888.0592978883278192
 20
95.6853885875529073
 30
0.0
 40
0.8741133033265867
 50
114.3826980092199932
 51
116.2400886042677968
  0
ARC
  5
73B4
  8
0
 10
3887.6639811289351201
 20
96.4873631874937274
 30
0.0
 40
0.0200000000277007
 50
221.0199222157403938
 51
296.237796470121225
  0
ARC
  5
73B5
  8
0
 10
3887.6114963151931079
 20
96.4424855145908566
 30
0.0
 40
0.0490565126198594
 50
40.3336897430137213
 51
105.3383144351083018
  0
ARC
  5
73B6
  8
0
 10
3887.611260080664124
 20
96.4410962336948643
 30
0.0
 40
0.0503373403938623
 50
104.6606954639073024
 51
185.6516622857569132
  0
ARC
  5
73B7
  8
0
 10
3887.5412918919028016
 20
96.4377917990840814
 30
0.0
 40
0.0199441406487719
 50
287.1692302471955145
 51
355.2463680799119743
  0
ARC
  5
73B8
  8
0
 10
3887.2511674297211357
 20
97.3739206889680844
 30
0.0
 40
1.0000000000000631
 50
270.0
 51
287.2182235965547079
  0
LINE
  5
73B9
  8
0
 10
3887.2511674297211357
 20
96.3739206889680418
 30
0.0
 11
3887.2407058613521258
 21
96.3739206889680418
 31
0.0
  0
ARC
  5
73BA
  8
0
 10
3886.8611674297208083
 20
96.1515225906913713
 30
0.0
 40
0.4398980963836679
 50
39.3844078241404318
 51
140.6155921758582963
  0
LINE
  5
73BB
  8
0
 10
3886.481628998089036
 20
96.3739206889680418
 30
0.0
 11
3886.4735338850200606
 21
96.3739206889680418
 31
0.0
  0
LINE
  5
73BC
  8
0
 10
3886.4735338850200606
 20
96.3739206889680418
 30
0.0
 11
3886.4688429629209168
 21
96.3744785889680458
 31
0.0
  0
ARC
  5
73BD
  8
0
 10
3886.7031606991449735
 20
97.3460626916672709
 30
0.0
 40
0.9994400783312656
 50
236.2115120659989884
 51
256.4408539944988092
  0
ARC
  5
73BE
  8
0
 10
3892.2257080152257913
 20
105.3046897098092956
 30
0.0
 40
10.6863263171292893
 50
235.1510726359607872
 51
235.3335278780967883
  0
ARC
  5
73BF
  8
0
 10
3886.7033890713369146
 20
97.3465835848903254
 30
0.0
 40
1.0000000000275311
 50
232.9457086440226021
 51
234.2673654949383888
  0
ARC
  5
73C0
  8
0
 10
3886.1128689903630402
 20
96.5644799879726747
 30
0.0
 40
0.0199999988309807
 50
208.1821172122764949
 51
232.9457093740296898
  0
ARC
  5
73C1
  8
0
 10
3886.051160277263989
 20
96.5314125284947266
 30
0.0
 40
0.0500101586413719
 50
28.1864904987375908
 51
69.3465070318285939
  0
ARC
  5
73C2
  8
0
 10
3886.0511674297208629
 20
96.5314206889680548
 30
0.0
 40
0.0500000000000002
 50
69.3508780677599646
 51
180.0
  0
ARC
  5
73C3
  8
0
 10
3887.8511674297828904
 20
96.1514206889809344
 30
0.0
 40
0.4599999999373737
 50
320.1895984449325852
 51
0.0
  0
ARC
  5
73C4
  8
0
 10
3888.2275694099657812
 20
95.8376985979063534
 30
0.0
 40
0.0300000011993447
 50
140.1895987087931985
 51
162.750925945057503
  0
ARC
  5
73C5
  8
0
 10
3888.151167429697125
 20
95.8614206890119931
 30
0.0
 40
0.0500000000226122
 50
281.6949040102994104
 51
342.7509265948115171
  0
ARC
  5
73C6
  8
0
 10
3888.1511674297198624
 20
95.861420688993789
 30
0.0
 40
0.0499999999999924
 50
220.6388972053347004
 51
281.6949039880013856
  0
ARC
  5
73C7
  8
0
 10
3888.0980493763900085
 20
95.8158304224289168
 30
0.0
 40
0.0199999999648732
 50
40.638896689836649
 51
149.7700167431054012
  0
ARC
  5
73C8
  8
0
 10
3887.9510746733740234
 20
95.9015212940705908
 30
0.0
 40
0.150130799788811
 50
265.5837894774496135
 51
329.7546659598132237
  0
ARC
  5
73C9
  8
0
 10
3887.993396070646213
 20
96.2522281682453951
 30
0.0
 40
0.5032845328205892
 50
256.8913943271032849
 51
263.8541356140548828
  0
ARC
  5
73CA
  8
0
 10
3888.0596770339211616
 20
96.6182544673946779
 30
0.0
 40
0.8750000000009318
 50
245.6163608244609122
 51
258.100266208835194
  0
ARC
  5
73CB
  8
0
 10
3888.0592978883278192
 20
96.6174527904089331
 30
0.0
 40
0.8741133033265867
 50
243.7599113957321038
 51
245.6173019907799926
  0
ARC
  5
73CC
  8
0
 10
3887.6639811289351201
 20
95.8154781904680846
 30
0.0
 40
0.0200000000277007
 50
63.7622035298787821
 51
138.9800777842596062
  0
ARC
  5
73CD
  8
0
 10
3887.6114963151931079
 20
95.8603558633709554
 30
0.0
 40
0.0490565126198594
 50
254.6616855648917124
 51
319.6663102569863213
  0
ARC
  5
73CE
  8
0
 10
3887.611260080664124
 20
95.8617451442669619
 30
0.0
 40
0.0503373403938623
 50
174.3483377142430868
 51
255.3393045360926976
  0
ARC
  5
73CF
  8
0
 10
3887.5412918919028016
 20
95.8650495788777448
 30
0.0
 40
0.0199441406487719
 50
4.753631920088071
 51
72.8307697528046987
  0
ARC
  5
73D0
  8
0
 10
3887.2511674297211357
 20
94.9289206889937134
 30
0.0
 40
1.0000000000000631
 50
72.7817764034453063
 51
90.0
  0
LINE
  5
73D1
  8
0
 10
3887.2511674297211357
 20
95.9289206889937844
 30
0.0
 11
3887.2407058613521258
 21
95.9289206889937844
 31
0.0
  0
ARC
  5
73D2
  8
0
 10
3886.8611674297208083
 20
96.1513187872704549
 30
0.0
 40
0.4398980963836679
 50
210.3690190612041988
 51
210.3840328223589893
  0
ARC
  5
73D3
  8
0
 10
3886.8611674297208083
 20
96.1513187872704549
 30
0.0
 40
0.4398980963836679
 50
219.3844078241403963
 51
320.61559217585949
  0
LINE
  5
73D4
  8
0
 10
3886.481628998089036
 20
95.9289206889937844
 30
0.0
 11
3886.4735338850200606
 21
95.9289206889937844
 31
0.0
  0
LINE
  5
73D5
  8
0
 10
3886.4735338850200606
 20
95.9289206889937844
 30
0.0
 11
3886.4688429629209168
 21
95.9283627889937947
 31
0.0
  0
ARC
  5
73D6
  8
0
 10
3886.7031606991449735
 20
94.9567786862945553
 30
0.0
 40
0.9994400783312656
 50
103.5591460055011055
 51
123.7884879340009974
  0
ARC
  5
73D7
  8
0
 10
3892.2257080152257913
 20
86.9981516681525449
 30
0.0
 40
10.6863263171292893
 50
124.666472121903098
 51
124.8489273640391986
  0
ARC
  5
73D8
  8
0
 10
3886.7033890713369146
 20
94.9562577930715008
 30
0.0
 40
1.0000000000275311
 50
125.732634505061597
 51
127.0542913559773979
  0
ARC
  5
73D9
  8
0
 10
3886.1128689903630402
 20
95.738361389989123
 30
0.0
 40
0.0199999988309807
 50
127.054290625970296
 51
151.8178827877235051
  0
ARC
  5
73DA
  8
0
 10
3886.051160277263989
 20
95.7714288494671138
 30
0.0
 40
0.0500101586413719
 50
290.6534929681714061
 51
331.8135095012625015
  0
ARC
  5
73DB
  8
0
 10
3886.0511674297208629
 20
95.7714206889937998
 30
0.0
 40
0.0500000000000002
 50
180.0
 51
290.6491219322401207
  0
LINE
  5
73DC
  8
0
 10
3887.2011674297209538
 20
96.4306468196683255
 30
0.0
 11
3887.2011674297209538
 21
95.8721945582935007
 31
0.0
  0
LINE
  5
73DD
  8
0
 10
3886.5211674297211175
 20
96.4306468196683255
 30
0.0
 11
3886.5211674297211175
 21
95.8721945582935007
 31
0.0
  0
LINE
  5
73DE
  8
0
 10
3886.481628998089036
 20
95.9288210957179359
 30
0.0
 11
3886.5211674297211175
 21
95.9289206889680344
 31
0.0
  0
LINE
  5
73DF
  8
0
 10
3886.5211674297211175
 20
96.3739206889680418
 30
0.0
 11
3886.481628998089036
 21
96.3739206889680418
 31
0.0
  0
LINE
  5
73E0
  8
0
 10
3887.2407058613521258
 20
96.3739206889680418
 30
0.0
 11
3887.2011674297209538
 21
96.3739206889680418
 31
0.0
  0
LINE
  5
73E1
  8
0
 10
3887.2407058613362096
 20
95.9289206889680344
 30
0.0
 11
3887.2011674297209538
 21
95.9289206889680344
 31
0.0
  0
LINE
  5
73E2
  8
0
 10
3888.1989186667201466
 20
95.8465943823680249
 30
0.0
 11
3888.1989186667201466
 21
96.4562469954680353
 31
0.0
  0
LINE
  5
73E3
  8
0
 10
3888.1132259630371664
 20
96.4739851651021354
 30
0.0
 11
3888.1132259630371664
 21
95.8288562128596766
 31
0.0
  0
LINE
  5
73E4
  8
0
 10
3887.5611674297210811
 20
96.4359277835119286
 30
0.0
 11
3887.5611674297210811
 21
95.8667023773083002
 31
0.0
  0
LINE
  5
73E5
  8
0
 10
3887.6488914973278952
 20
96.4742367631264131
 30
0.0
 11
3887.6488914964161268
 21
95.8286046137609162
 31
0.0
  0
LINE
  5
73E6
  8
0
 10
3886.0952399734210303
 20
96.5550344750221967
 30
0.0
 11
3886.0952399734210303
 21
95.7478069028680352
 31
0.0
  0
LINE
  5
73E7
  8
0
 10
3886.0011674297211357
 20
96.5314206885680335
 30
0.0
 11
3886.0011674297211357
 21
95.7714206889680355
 31
0.0
  0
ARC
  5
73E8
  8
0
 10
3886.8611804901429423
 20
96.151440276722937
 30
0.0
 40
1.1499809473617399
 50
20.3316367860600913
 51
164.2329645578408019
  0
ARC
  5
73E9
  8
0
 10
3886.8611737029041251
 20
96.1514301887831238
 30
0.0
 40
1.074990733398091
 50
21.0487651868339114
 51
163.1006497428398916
  0
ARC
  5
73EA
  8
0
 10
3886.8611692378622138
 20
96.1514233464681922
 30
0.0
 40
0.8999973425016653
 50
21.5181210549814601
 51
151.692256562307989
  0
ARC
  5
73EB
  8
0
 10
3886.8611604833968158
 20
96.1514100853509888
 30
0.0
 40
0.8012794838895952
 50
24.7044559181122914
 51
152.9799948902181086
  0
ARC
  5
73EC
  8
0
 10
3886.8611804901429423
 20
96.151401100971654
 30
0.0
 40
1.1499809473617399
 50
195.7670354527186021
 51
339.6683632244922251
  0
ARC
  5
73ED
  8
0
 10
3886.8611737029041251
 20
96.1514111889114531
 30
0.0
 40
1.074990733398091
 50
196.8993502677218999
 51
338.9512348237208244
  0
ARC
  5
73EE
  8
0
 10
3886.8611692378967746
 20
96.1514180311840505
 30
0.0
 40
0.8999973424573028
 50
208.3077434186691903
 51
338.4818789622095778
  0
ARC
  5
73EF
  8
0
 10
3886.8611612818021968
 20
96.1514300734904879
 30
0.0
 40
0.8012782491534359
 50
207.0198881504832116
 51
335.2955994101365036
  0
LINE
  5
73F0
  8
0
 10
3863.781167429720881
 20
96.463920688968031
 30
0.0
 11
3886.0011674297211357
 21
96.4639206889680736
 31
0.0
  0
LINE
  5
73F1
  8
0
 10
3863.781167429720881
 20
95.838920688968031
 30
0.0
 11
3886.0011674297211357
 21
95.838920688968031
 31
0.0
  0
ARC
  5
73F2
  8
0
 10
3886.8614068955548646
 20
96.1511060139451672
 30
0.0
 40
0.8353693504216304
 50
106.3508761339256949
 51
152.6548558283990076
  0
ARC
  5
73F3
  8
0
 10
3886.8611674297480931
 20
96.1514206887794671
 30
0.0
 40
0.8350000001885663
 50
90.0000000018499264
 51
106.3411877348296031
  0
ARC
  5
73F4
  8
0
 10
3886.8611674297208083
 20
96.1514206889680452
 30
0.0
 40
0.8349999999999927
 50
31.7993467493498194
 51
90.0
  0
ARC
  5
73F5
  8
0
 10
3886.8611674297221725
 20
96.1514206889687131
 30
0.0
 40
0.8349999999984659
 50
23.9046258490593395
 51
31.7993467493560509
  0
ARC
  5
73F6
  8
0
 10
3886.8614068957390373
 20
96.1517351648636094
 30
0.0
 40
0.8353693504216304
 50
207.3451106345409869
 51
253.6490903290043946
  0
ARC
  5
73F7
  8
0
 10
3886.8611653437928908
 20
96.1514108876285718
 30
0.0
 40
0.8349901986620704
 50
253.6587306914526891
 51
270.000109595870299
  0
ARC
  5
73F8
  8
0
 10
3886.8611679917999027
 20
96.1514199007793735
 30
0.0
 40
0.8349992118119965
 50
269.9999278942976275
 51
328.2006337511265883
  0
ARC
  5
73F9
  8
0
 10
3886.8611674297221725
 20
96.1514204899802252
 30
0.0
 40
0.8349999999984659
 50
328.2006197135851266
 51
336.0953406138867194
  0
ENDSEC
  0
EOF
