  0
SECTION
  2
HEADER
  9
$ACADVER
  1
AC1009
  9
$INSBASE
 10
3745.7076018712377845
 20
113.2777363988496973
 30
0.0
  9
$EXTMIN
 10
3744.4775903543891218
 20
113.2723902258878041
 30
0.0
  9
$EXTMAX
 10
3746.9376133880891757
 20
122.4271194127496045
 30
0.0
  9
$LIMMIN
 10
0.0
 20
0.0
  9
$LIMMAX
 10
11.6929133858000007
 20
8.2677165353999982
  9
$ORTHOMODE
 70
     0
  9
$REGENMODE
 70
     1
  9
$FILLMODE
 70
     1
  9
$QTEXTMODE
 70
     0
  9
$MIRRTEXT
 70
     0
  9
$DRAGMODE
 70
     2
  9
$LTSCALE
 40
0.6431102362
  9
$OSMODE
 70
  4095
  9
$ATTMODE
 70
     1
  9
$TEXTSIZE
 40
0.2
  9
$TRACEWID
 40
0.05
  9
$TEXTSTYLE
  7
STANDARD
  9
$CLAYER
  8
0
  9
$CELTYPE
  6
BYLAYER
  9
$CECOLOR
 62
   256
  9
$DIMSCALE
 40
1.0
  9
$DIMASZ
 40
0.1875
  9
$DIMEXO
 40
0.0625
  9
$DIMDLI
 40
0.4443307087
  9
$DIMRND
 40
0.0
  9
$DIMDLE
 40
0.0
  9
$DIMEXE
 40
0.125
  9
$DIMTP
 40
0.01
  9
$DIMTM
 40
0.01
  9
$DIMTXT
 40
2.0
  9
$DIMCEN
 40
0.1052362205
  9
$DIMTSZ
 40
0.0
  9
$DIMTOL
 70
     1
  9
$DIMLIM
 70
     0
  9
$DIMTIH
 70
     1
  9
$DIMTOH
 70
     1
  9
$DIMSE1
 70
     0
  9
$DIMSE2
 70
     0
  9
$DIMTAD
 70
     0
  9
$DIMZIN
 70
     0
  9
$DIMBLK
  1

  9
$DIMASO
 70
     1
  9
$DIMSHO
 70
     1
  9
$DIMPOST
  1
\X
  9
$DIMAPOST
  1

  9
$DIMALT
 70
     1
  9
$DIMALTD
 70
     2
  9
$DIMALTF
 40
25.3999999999999986
  9
$DIMLFAC
 40
1.0
  9
$DIMTOFL
 70
     0
  9
$DIMTVP
 40
0.0
  9
$DIMTIX
 70
     0
  9
$DIMSOXD
 70
     0
  9
$DIMSAH
 70
     0
  9
$DIMBLK1
  1

  9
$DIMBLK2
  1

  9
$DIMSTYLE
  2
STANDARD
  9
$DIMCLRD
 70
     0
  9
$DIMCLRE
 70
     0
  9
$DIMCLRT
 70
     0
  9
$DIMTFAC
 40
1.0
  9
$DIMGAP
 40
0.09
  9
$LUNITS
 70
     2
  9
$LUPREC
 70
     4
  9
$SKETCHINC
 40
0.1
  9
$FILLETRAD
 40
0.0
  9
$AUNITS
 70
     0
  9
$AUPREC
 70
     0
  9
$MENU
  1
.
  9
$ELEVATION
 40
0.0
  9
$PELEVATION
 40
0.0
  9
$THICKNESS
 40
0.0
  9
$LIMCHECK
 70
     0
  9
$BLIPMODE
 70
     0
  9
$CHAMFERA
 40
0.0
  9
$CHAMFERB
 40
0.0
  9
$SKPOLY
 70
     0
  9
$TDCREATE
 40
2458060.468368056230247
  9
$TDUPDATE
 40
2459037.507118056062609
  9
$TDINDWG
 40
0.302784838
  9
$TDUSRTIMER
 40
0.302784838
  9
$USRTIMER
 70
     1
  9
$ANGBASE
 50
0.0
  9
$ANGDIR
 70
     0
  9
$PDMODE
 70
     0
  9
$PDSIZE
 40
0.3125
  9
$PLINEWID
 40
0.0
  9
$COORDS
 70
     1
  9
$SPLFRAME
 70
     0
  9
$SPLINETYPE
 70
     6
  9
$SPLINESEGS
 70
     8
  9
$ATTDIA
 70
     1
  9
$ATTREQ
 70
     1
  9
$HANDLING
 70
     1
  9
$HANDSEED
  5
6DAC
  9
$SURFTAB1
 70
     6
  9
$SURFTAB2
 70
     6
  9
$SURFTYPE
 70
     6
  9
$SURFU
 70
     6
  9
$SURFV
 70
     6
  9
$UCSNAME
  2

  9
$UCSORG
 10
0.0
 20
0.0
 30
0.0
  9
$UCSXDIR
 10
1.0
 20
0.0
 30
0.0
  9
$UCSYDIR
 10
0.0
 20
1.0
 30
0.0
  9
$PUCSNAME
  2

  9
$PUCSORG
 10
0.0
 20
0.0
 30
0.0
  9
$PUCSXDIR
 10
1.0
 20
0.0
 30
0.0
  9
$PUCSYDIR
 10
0.0
 20
1.0
 30
0.0
  9
$USERI1
 70
     0
  9
$USERI2
 70
     0
  9
$USERI3
 70
     0
  9
$USERI4
 70
     0
  9
$USERI5
 70
     0
  9
$USERR1
 40
0.0
  9
$USERR2
 40
0.0
  9
$USERR3
 40
0.0
  9
$USERR4
 40
0.0
  9
$USERR5
 40
0.0
  9
$WORLDVIEW
 70
     1
  9
$SHADEDGE
 70
     3
  9
$SHADEDIF
 70
    70
  9
$TILEMODE
 70
     1
  9
$MAXACTVP
 70
    64
  9
$PLIMCHECK
 70
     0
  9
$PEXTMIN
 10
1.0000000000000000E+20
 20
1.0000000000000000E+20
 30
1.0000000000000000E+20
  9
$PEXTMAX
 10
-1.0000000000000000E+20
 20
-1.0000000000000000E+20
 30
-1.0000000000000000E+20
  9
$PLIMMIN
 10
0.0
 20
0.0
  9
$PLIMMAX
 10
12.0
 20
9.0
  9
$UNITMODE
 70
     0
  9
$VISRETAIN
 70
     1
  9
$PLINEGEN
 70
     0
  9
$PSLTSCALE
 70
     1
  0
ENDSEC
  0
SECTION
  2
TABLES
  0
TABLE
  2
VPORT
 70
     1
  0
VPORT
  2
*ACTIVE
 70
     0
 10
0.0
 20
0.0
 11
1.0
 21
1.0
 12
4.9590667149882393
 22
0.042097843066145
 13
0.0
 23
0.0
 14
1.0
 24
1.0
 15
0.0
 25
0.0
 16
0.0
 26
0.0
 36
27.0678946719781486
 17
3740.74853515625
 27
117.807656976252602
 37
0.0
 40
9.2120656953390139
 41
2.005224660397074
 42
50.0
 43
0.0
 44
0.0
 50
0.0
 51
0.0
 71
     0
 72
   100
 73
     1
 74
     1
 75
     0
 76
     0
 77
     0
 78
     0
  0
ENDTAB
  0
TABLE
  2
LTYPE
 70
     2
  0
LTYPE
  2
CONTINUOUS
 70
     0
  3
Solid line
 72
    65
 73
     0
 40
0.0
  0
LTYPE
  2
PHANTOM2
 70
     0
  3
___ _ _ ___ _ _ ___ _ _ ___ _ _
 72
    65
 73
     6
 40
1.25
 49
0.625
 49
-0.125
 49
0.125
 49
-0.125
 49
0.125
 49
-0.125
  0
ENDTAB
  0
TABLE
  2
LAYER
 70
     2
  0
LAYER
  2
0
 70
     0
 62
   255
  6
CONTINUOUS
  0
LAYER
  2
DEFPOINTS
 70
     0
 62
     7
  6
CONTINUOUS
  0
ENDTAB
  0
TABLE
  2
STYLE
 70
     1
  0
STYLE
  2
STANDARD
 70
     0
 40
0.0
 41
0.8
 50
0.0
 71
     0
 42
0.2
  3
txt
  4

  0
ENDTAB
  0
TABLE
  2
VIEW
 70
     0
  0
ENDTAB
  0
TABLE
  2
UCS
 70
     0
  0
ENDTAB
  0
TABLE
  2
APPID
 70
     9
  0
APPID
  2
ACAD
 70
     0
  0
APPID
  2
ACAD_MLEADERVER
 70
     0
  0
APPID
  2
ACAD_EXEMPT_FROM_CAD_STANDARDS
 70
     0
  0
APPID
  2
ACAD_NAV_VCDISPLAY
 70
     0
  0
APPID
  2
ACAECLAYERSTANDARD
 70
     0
  0
APPID
  2
ACCMTRANSPARENCY
 70
     0
  0
APPID
  2
ACAD_DSTYLE_DIMJAG
 70
     0
  0
APPID
  2
ACAD_DSTYLE_DIMTALN
 70
     0
  0
APPID
  2
ACDBATTR
 70
     0
  0
ENDTAB
  0
TABLE
  2
DIMSTYLE
 70
     1
  0
DIMSTYLE
  2
STANDARD
 70
     0
  3

  4

  5

  6

  7

 40
1.0
 41
0.1875
 42
0.0625
 43
0.38
 44
0.125
 45
0.0
 46
0.0
 47
0.01
 48
0.01
140
0.15625
141
0.09
142
0.0
143
25.3999999999999986
144
1.0
145
0.0
146
1.0
147
0.09
 71
     1
 72
     0
 73
     1
 74
     1
 75
     0
 76
     0
 77
     0
 78
     4
170
     0
171
     2
172
     0
173
     0
174
     0
175
     0
176
     0
177
     0
178
     0
  0
ENDTAB
  0
ENDSEC
  0
SECTION
  2
BLOCKS
  0
BLOCK
  8
0
  2
$MODEL_SPACE
 70
     0
 10
0.0
 20
0.0
 30
0.0
  3
$MODEL_SPACE
  1

  0
ENDBLK
  5
21
  8
0
  0
BLOCK
 67
     1
  8
0
  2
$PAPER_SPACE
 70
     0
 10
0.0
 20
0.0
 30
0.0
  3
$PAPER_SPACE
  1

  0
ENDBLK
  5
1D
 67
     1
  8
0
  0
ENDSEC
  0
SECTION
  2
ENTITIES
  0
ATTDEF
  5
3930
  8
DEFPOINTS
 10
3745.7042546471770947
 20
113.2757235592212055
 30
0.0
 40
0.001
  1
K-16230X-4
  3

  2
MODELNUMBER
 70
     0
1001
ACDBATTR
1070
     0
1070
     1
  0
ATTDEF
  5
3931
  8
DEFPOINTS
 10
3745.7042546471770947
 20
113.2740568925544977
 30
0.0
 40
0.001
  1
MARGAUX
  3

  2
TRADENAME
 70
     0
1001
ACDBATTR
1070
     0
1070
     1
  0
ATTDEF
  5
3932
  8
DEFPOINTS
 10
3745.7042546471770947
 20
113.2723902258879036
 30
0.0
 40
0.001
  1
BATHROOM SINK FAUCET
  3

  2
PRODUCT
 70
     0
1001
ACDBATTR
1070
     0
1070
     1
  0
LINE
  5
6C9E
  8
0
 10
3744.4876133880879934
 20
113.2777363988496973
 30
0.0
 11
3746.9275903543880304
 21
113.2777363988496973
 31
0.0
  0
LINE
  5
6C9F
  8
0
 10
3744.4775903543891218
 20
113.2877363988497024
 30
0.0
 11
3744.4775903543891218
 21
113.5051626366496009
 31
0.0
  0
LINE
  5
6CA0
  8
0
 10
3744.6469672540879401
 20
113.5051626366496009
 30
0.0
 11
3744.6469672540879401
 21
113.2877363988497024
 31
0.0
  0
LINE
  5
6CA1
  8
0
 10
3745.0641195230891753
 20
119.4804939935497003
 30
0.0
 11
3745.0659903944879261
 21
119.4005928948495949
 31
0.0
  0
LINE
  5
6CA2
  8
0
 10
3745.3775903543892127
 20
119.8409402000496016
 30
0.0
 11
3745.3775903543892127
 21
119.7664406603497014
 31
0.0
  0
LINE
  5
6CA3
  8
0
 10
3745.45592225865812
 20
122.3896218418405937
 30
0.0
 11
3745.4081266993439385
 21
119.9178948227309007
 31
0.0
  0
LINE
  5
6CA4
  8
0
 10
3744.97304444108795
 20
119.2777363988496973
 30
0.0
 11
3744.6395563063879308
 21
119.2777363988496973
 31
0.0
  0
LINE
  5
6CA5
  8
0
 10
3745.4075904143887783
 20
119.7364406603496008
 30
0.0
 11
3746.0076133280590511
 21
119.7364406603496008
 31
0.0
  0
ARC
  5
6CA6
  8
0
 10
3745.707590351809813
 20
119.5827363990970014
 30
0.0
 40
0.2649999974423383
 50
147.3628136248663054
 51
183.5870492023748
  0
ARC
  5
6CA7
  8
0
 10
3745.408718214387136
 20
119.7675685226054014
 30
0.0
 40
0.0311482863313758
 50
182.0751021729903982
 51
267.9250124720060171
  0
ARC
  5
6CA8
  8
0
 10
3745.4675903506499708
 20
119.7364406607857035
 30
0.0
 40
0.0200000037387745
 50
327.3669305984743119
 51
359.9999984643292805
  0
ARC
  5
6CA9
  8
0
 10
3744.4884836532892223
 20
113.2886317288209028
 30
0.0
 40
0.0109300309560858
 50
184.6986300257775042
 51
265.4331914788002109
  0
LINE
  5
6CAA
  8
0
 10
3745.0418949733880254
 20
114.1401648662496058
 30
0.0
 11
3744.9168307506879501
 21
117.050732207149693
 31
0.0
  0
ARC
  5
6CAB
  8
0
 10
3744.5120984413902079
 20
113.5018691170492957
 30
0.0
 40
0.0346649006899069
 50
112.4094653907448986
 51
174.5480923633398049
  0
ARC
  5
6CAC
  8
0
 10
3744.3066319917470537
 20
114.4007610324766944
 30
0.0
 40
0.8879079381407535
 50
282.5048208741287112
 51
303.6000159337199875
  0
ARC
  5
6CAD
  8
0
 10
3744.4047907351468893
 20
114.0638543034838932
 30
0.0
 40
0.5627925170255547
 50
314.3198207426200952
 51
8.6630759161883475
  0
ARC
  5
6CAE
  8
0
 10
-39270.1239613913567155
 20
-2844.7561281311400307
 30
0.0
 40
43116.7330110276670894
 50
3.9350408284271992
 51
3.9418300778352129
  0
ARC
  5
6CAF
  8
0
 10
3744.6427769784359043
 20
119.2453635928067968
 30
0.0
 40
0.0325326190081456
 50
95.6814876544454194
 51
179.468360910758804
  0
ARC
  5
6CB0
  8
0
 10
3744.9694879869871329
 20
119.4806135721868969
 30
0.0
 40
0.2029083434141731
 50
271.0042970207539952
 51
298.9011649879951165
  0
ARC
  5
6CB1
  8
0
 10
3745.1250268986400442
 20
119.4796418220193033
 30
0.0
 40
0.0609133367404629
 50
107.6727856588994996
 51
179.1984115870145047
  0
ARC
  5
6CB2
  8
0
 10
3745.7099900599851026
 20
114.4084637853606949
 30
0.0
 40
5.1645930480569078
 50
90.0264944671361746
 51
96.7100353023816979
  0
ARC
  5
6CB3
  8
0
 10
3745.4181394324491521
 20
119.8361115909068957
 30
0.0
 40
0.0408355629059656
 50
137.591559493977087
 51
173.2091613373451935
  0
ARC
  5
6CB4
  8
0
 10
3745.3488142111368688
 20
119.9090553244779045
 30
0.0
 40
0.0599675577807351
 50
310.7873804969959224
 51
8.476553387912789
  0
ARC
  5
6CB5
  8
0
 10
3745.798754311805169
 20
120.5163782062171975
 30
0.0
 40
1.912914255769411
 50
92.7312772236397933
 51
98.4272869663927708
  0
ARC
  5
6CB6
  8
0
 10
3745.5244103473851283
 20
122.3776086147227034
 30
0.0
 40
0.0316045077332252
 50
100.9466954536468961
 51
182.18263335662391
  0
ARC
  5
6CB7
  8
0
 10
4638.7859608381204453
 20
122.0229406643214958
 30
0.0
 40
893.2932020001630917
 50
179.9773288179069937
 51
180.1361345387639119
  0
ARC
  5
6CB8
  8
0
 10
3745.4890554891521788
 20
122.3922269203328028
 30
0.0
 40
0.0332354840036766
 50
90.6404235600401194
 51
184.4955946616952076
  0
ARC
  5
6CB9
  8
0
 10
3745.2018850441199902
 20
117.8066524012154019
 30
0.0
 40
4.6277035678186333
 50
85.1772656406274962
 51
86.4468538002129065
  0
LINE
  5
6CBA
  8
0
 10
3746.0272154928311465
 20
119.863651550481606
 30
0.0
 11
3745.3879882496448772
 21
119.863651550481606
 31
0.0
  0
ARC
  5
6CBB
  8
0
 10
3745.4229320288818599
 20
119.9066927557726956
 30
0.0
 40
0.0726144096010735
 50
323.6485656179123112
 51
355.0931856132369262
  0
ARC
  5
6CBC
  8
0
 10
3759.8895510683641987
 20
119.5891571991176932
 30
0.0
 40
14.8247599491154407
 50
180.728796296364095
 51
183.8838647593003941
  0
ARC
  5
6CBD
  8
0
 10
3745.3154118622828719
 20
118.5574310956097008
 30
0.0
 40
0.3206305415235414
 50
240.3931431738070899
 51
255.6786783723331098
  0
ARC
  5
6CBE
  8
0
 10
3745.20096064656218
 20
118.3559095075616057
 30
0.0
 40
0.0888763158415815
 50
184.2717004295641061
 51
240.3590191716037907
  0
ARC
  5
6CBF
  8
0
 10
3731.1156387093578815
 20
117.6663247071108032
 30
0.0
 40
14.0133451473748405
 50
2.79351607953667
 51
3.7588944612588642
  0
ARC
  5
6CC0
  8
0
 10
3745.4010127440028555
 20
118.1179488583910029
 30
0.0
 40
0.302401070754556
 50
101.2007531875718058
 51
123.0503852396717974
  0
ARC
  5
6CC1
  8
0
 10
3745.7729322712671092
 20
115.9611668528825987
 30
0.0
 40
2.4909341908055311
 50
91.5028841292541841
 51
99.9559506286775843
  0
ARC
  5
6CC2
  8
0
 10
3745.2534105330842067
 20
118.3403225824528988
 30
0.0
 40
0.0355944313637267
 50
119.1172213997005969
 51
240.9020608250818043
  0
ARC
  5
6CC3
  8
0
 10
3745.1765333354778704
 20
118.3505433635754969
 30
0.0
 40
0.0642143541537839
 50
160.8879064708995941
 51
181.1188855843246017
  0
ARC
  5
6CC4
  8
0
 10
3745.6271208592561379
 20
118.1985771098169948
 30
0.0
 40
0.5397361850296414
 50
147.0455241100484045
 51
161.306195794772492
  0
ARC
  5
6CC5
  8
0
 10
3745.9916730452778211
 20
86.2056737297549347
 30
0.0
 40
32.3015724000370881
 50
90.503885351456546
 51
91.405145033384855
  0
ARC
  5
6CC6
  8
0
 10
3745.2155752021631088
 20
118.3590964445320992
 30
0.0
 40
0.1393578448171529
 50
96.5926639519258572
 51
107.2599982406847943
  0
ARC
  5
6CC7
  8
0
 10
3744.6577854684328486
 20
113.2884967344461984
 30
0.0
 40
0.0108449007301228
 50
184.0203031913181064
 51
262.8401632283996037
  0
ARC
  5
6CC8
  8
0
 10
3744.6768500681541809
 20
113.5055307778734033
 30
0.0
 40
0.0298850816364864
 50
108.2278437043726029
 51
180.7058194501005914
  0
ARC
  5
6CC9
  8
0
 10
3744.5553790492308508
 20
114.0239089979722991
 30
0.0
 40
0.502657432559156
 50
282.8888606838381179
 51
327.6640169556649198
  0
ARC
  5
6CCA
  8
0
 10
3744.1908349080949847
 20
114.0792319708685056
 30
0.0
 40
0.853238567152923
 50
337.6695640555528257
 51
4.0951876428884173
  0
ARC
  5
6CCB
  8
0
 10
3751.529388169178219
 20
117.0442397754168979
 30
0.0
 40
6.6125606057327868
 50
166.525834248686607
 51
179.943745090743505
  0
ARC
  5
6CCC
  8
0
 10
3731.1792348539770501
 20
118.0582714878332951
 30
0.0
 40
14.0017166456864608
 50
1.7758562426024589
 51
5.0835704202231558
  0
ARC
  5
6CCD
  8
0
 10
3744.8312907647659813
 20
119.2858689739552034
 30
0.0
 40
0.2948752615426498
 50
2.5415904267649032
 51
19.5710195007100616
  0
ARC
  5
6CCE
  8
0
 10
3745.2804539900280361
 20
119.5235913772353058
 30
0.0
 40
0.2205855527153167
 50
191.2667583534361029
 51
219.0426495329093086
  0
LINE
  5
6CCF
  8
0
 10
3746.9376133880891757
 20
113.2877363988497024
 30
0.0
 11
3746.9376133880891757
 21
113.5051626366496009
 31
0.0
  0
LINE
  5
6CD0
  8
0
 10
3746.7682364883889932
 20
113.5051626366496009
 30
0.0
 11
3746.7682364883889932
 21
113.2877363988497024
 31
0.0
  0
LINE
  5
6CD1
  8
0
 10
3746.3510842193891222
 20
119.4804939935497003
 30
0.0
 11
3746.3492133479880977
 21
119.4005928948495949
 31
0.0
  0
LINE
  5
6CD2
  8
0
 10
3746.0376133880890848
 20
119.8409402000496016
 30
0.0
 11
3746.0376133880890848
 21
119.7664406603497014
 31
0.0
  0
LINE
  5
6CD3
  8
0
 10
3745.9592816694180328
 20
122.3896122436359946
 30
0.0
 11
3746.0070770431339042
 21
119.9178948227309007
 31
0.0
  0
LINE
  5
6CD4
  8
0
 10
3746.4421593013880738
 20
119.2777363988496973
 30
0.0
 11
3746.7756474360880929
 21
119.2777363988496973
 31
0.0
  0
ARC
  5
6CD5
  8
0
 10
3745.7076133906662108
 20
119.5827363990970014
 30
0.0
 40
0.2649999974423383
 50
356.4129507976251716
 51
32.6371863751336519
  0
ARC
  5
6CD6
  8
0
 10
3746.0064855280897973
 20
119.7675685226054014
 30
0.0
 40
0.0311482863313758
 50
272.0749875279939829
 51
357.9248978270096018
  0
ARC
  5
6CD7
  8
0
 10
3745.9476133918269625
 20
119.7364406607857035
 30
0.0
 40
0.0200000037387745
 50
180.0000015356706911
 51
212.6330694015256881
  0
ARC
  5
6CD8
  8
0
 10
3746.9267200891868015
 20
113.2886317288209028
 30
0.0
 40
0.0109300309560858
 50
274.5668085211999028
 51
355.3013699742217
  0
LINE
  5
6CD9
  8
0
 10
3746.3733087690889079
 20
114.1401648662496058
 30
0.0
 11
3746.4983729917880737
 21
117.050732207149693
 31
0.0
  0
ARC
  5
6CDA
  8
0
 10
3746.9031053010871801
 20
113.5018691170492957
 30
0.0
 40
0.0346649006899069
 50
5.4519076366601356
 51
67.5905346092550303
  0
ARC
  5
6CDB
  8
0
 10
3747.1085717507289701
 20
114.4007610324766944
 30
0.0
 40
0.8879079381407535
 50
236.3999840662800125
 51
257.4951791258711751
  0
ARC
  5
6CDC
  8
0
 10
3747.0104130073450506
 20
114.0638543034932013
 30
0.0
 40
0.5627925170424951
 50
171.3369240842000067
 51
225.6801792569717975
  0
ARC
  5
6CDD
  8
0
 10
46761.5391651338213705
 20
-2844.7561281311400307
 30
0.0
 40
43116.7330110276670894
 50
176.058169922164808
 51
176.0649591715728093
  0
ARC
  5
6CDE
  8
0
 10
3746.7724267640401195
 20
119.2453635928067968
 30
0.0
 40
0.0325326190081456
 50
0.5316390892412172
 51
84.3185123455545948
  0
ARC
  5
6CDF
  8
0
 10
3746.4457157554888909
 20
119.4806135721868969
 30
0.0
 40
0.2029083434141731
 50
241.0988350120047983
 51
268.9957029792460048
  0
ARC
  5
6CE0
  8
0
 10
3746.290176843836889
 20
119.4796418220193033
 30
0.0
 40
0.0609133367404629
 50
0.8015884129854249
 51
72.3272143411004436
  0
ARC
  5
6CE1
  8
0
 10
3745.7052136824909212
 20
114.4084637853605955
 30
0.0
 40
5.1645930480569922
 50
83.2899646976184158
 51
89.9735055328638538
  0
ARC
  5
6CE2
  8
0
 10
3745.9970643100277812
 20
119.8361115909068957
 30
0.0
 40
0.0408355629059656
 50
6.7908386626548056
 51
42.4084405060228917
  0
ARC
  5
6CE3
  8
0
 10
3746.0663895313391549
 20
119.9090553244779045
 30
0.0
 40
0.0599675577807351
 50
171.5234466120793968
 51
229.2126195030037081
  0
ARC
  5
6CE4
  8
0
 10
3745.6164469714708503
 20
120.5163782062171975
 30
0.0
 40
1.912914255769411
 50
81.5727130336073287
 51
87.2687227763602067
  0
ARC
  5
6CE5
  8
0
 10
3745.890787916123827
 20
122.3776034146535068
 30
0.0
 40
0.0316101866862042
 50
357.8083342144644803
 51
79.0497204525919841
  0
ARC
  5
6CE6
  8
0
 10
2852.6276805635998244
 20
122.0229428453755958
 30
0.0
 40
893.2947643415074026
 50
359.8638655595714795
 51
0.0226703357555553
  0
ARC
  5
6CE7
  8
0
 10
3745.9261439148349382
 20
122.392222059314193
 30
0.0
 40
0.0332403657740176
 50
355.4968762968688907
 51
89.3564309997980359
  0
ARC
  5
6CE8
  8
0
 10
3746.2133162391569385
 20
117.8066524012154019
 30
0.0
 40
4.6277035678186333
 50
93.5531461997870935
 51
94.8227343593725038
  0
ARC
  5
6CE9
  8
0
 10
3745.9922717135941639
 20
119.9066927557726956
 30
0.0
 40
0.0726144096010735
 50
184.9068127341550962
 51
216.3514343820872057
  0
ARC
  5
6CEA
  8
0
 10
3731.5256526741131893
 20
119.5891571991176932
 30
0.0
 40
14.8247599491154407
 50
356.1161352406994069
 51
359.2712037036358197
  0
ARC
  5
6CEB
  8
0
 10
3746.0997918801931519
 20
118.5574310956097008
 30
0.0
 40
0.3206305415235414
 50
284.3213216276668049
 51
299.6068568261928249
  0
ARC
  5
6CEC
  8
0
 10
3746.2142430959138437
 20
118.3559095075616057
 30
0.0
 40
0.0888763158415815
 50
299.640980828396323
 51
355.7282995704358086
  0
ARC
  5
6CED
  8
0
 10
3760.2995650331190518
 20
117.6663247071108032
 30
0.0
 40
14.0133451473748405
 50
176.2411055387410954
 51
177.2064839204633131
  0
ARC
  5
6CEE
  8
0
 10
3746.2386704069990628
 20
118.3505433635754969
 30
0.0
 40
0.0642143541537839
 50
358.881114415675313
 51
19.1120935291003704
  0
ARC
  5
6CEF
  8
0
 10
3745.7880828832198858
 20
118.1985771098169948
 30
0.0
 40
0.5397361850296414
 50
18.6938042052274511
 51
32.9544758899516168
  0
ARC
  5
6CF0
  8
0
 10
3745.4235306971982027
 20
86.2056737297549347
 30
0.0
 40
32.3015724000370881
 50
88.5948549666412362
 51
89.4961146485434256
  0
ARC
  5
6CF1
  8
0
 10
3746.199628540312915
 20
118.3590964445320992
 30
0.0
 40
0.1393578448171529
 50
72.7400017593151631
 51
83.407336048074157
  0
ARC
  5
6CF2
  8
0
 10
3746.7574182740431752
 20
113.2884967344461984
 30
0.0
 40
0.0108449007301228
 50
277.1598367716003963
 51
355.979696808681922
  0
ARC
  5
6CF3
  8
0
 10
3746.7383536743232071
 20
113.5055307778734033
 30
0.0
 40
0.0298850816364887
 50
359.2941805499011139
 51
71.772156295602386
  0
ARC
  5
6CF4
  8
0
 10
3746.859824693245173
 20
114.0239089979722991
 30
0.0
 40
0.5026574325591566
 50
212.3359830443351086
 51
257.1111393161618821
  0
ARC
  5
6CF5
  8
0
 10
3747.224368834382858
 20
114.0792319708685056
 30
0.0
 40
0.853238567152923
 50
175.9048123571116093
 51
202.3304359444466911
  0
ARC
  5
6CF6
  8
0
 10
3739.885815573299169
 20
117.0442397754168979
 30
0.0
 40
6.6125606057327868
 50
0.0562549092565455
 51
13.4741657513134001
  0
ARC
  5
6CF7
  8
0
 10
3760.2359688884998832
 20
118.0582714878332951
 30
0.0
 40
14.0017166456864608
 50
174.9164295797768034
 51
178.2241437573983092
  0
ARC
  5
6CF8
  8
0
 10
3746.583912977710952
 20
119.2858689739552034
 30
0.0
 40
0.2948752615426498
 50
160.4289804992899064
 51
177.4584095732350875
  0
ARC
  5
6CF9
  8
0
 10
3746.1347497524488972
 20
119.5235913772353058
 30
0.0
 40
0.2205855527153167
 50
320.9573504670906914
 51
348.7332416465637834
  0
LINE
  5
6CFA
  8
0
 10
3744.4988833802021873
 20
113.533916230767403
 30
0.0
 11
3746.9163203622738365
 21
113.533916230767403
 31
0.0
  0
LINE
  5
6CFB
  8
0
 10
3745.4844331796871302
 20
119.7256555201008013
 30
0.0
 11
3745.9307705628480107
 21
119.7256555201008013
 31
0.0
  0
ARC
  5
6CFD
  8
0
 10
3745.5503302533670649
 20
118.6310426033931975
 30
0.0
 40
0.6436341673364159
 50
244.6342764239319081
 51
266.0048556699850906
  0
ARC
  5
6CFE
  8
0
 10
3745.7036096556048506
 20
119.7972461881955013
 30
0.0
 40
1.81909492149899
 50
263.7473555685143083
 51
270.1257423609744137
  0
LINE
  5
6CFF
  8
0
 10
3745.2746008204380814
 20
118.0494600888868035
 30
0.0
 11
3745.2746008204380814
 21
118.3926604037877013
 31
0.0
  0
ARC
  5
6D00
  8
0
 10
3745.6921223989529608
 20
119.3127022772254975
 30
0.0
 40
1.323449549559051
 50
257.6529983796239094
 51
270.6701643100727779
  0
ARC
  5
6D01
  8
0
 10
3745.4631252058670725
 20
118.2665501982355067
 30
0.0
 40
0.2525275697601967
 50
237.74352080230301
 51
257.6529983796239094
  0
ARC
  5
6D02
  8
0
 10
3745.3443610716130934
 20
118.0783675951845026
 30
0.0
 40
0.0300020393682719
 50
118.4451767869725956
 51
237.743520802301191
  0
ARC
  5
6D03
  8
0
 10
3745.5260696703758185
 20
117.7429369948393969
 30
0.0
 40
0.4114882154115611
 50
94.3394435830849716
 51
118.4451767869725956
  0
ARC
  5
6D04
  8
0
 10
3745.6991175165330787
 20
116.6587357616200933
 30
0.0
 40
1.5083933158024589
 50
89.6777231278015279
 51
97.7797081760368059
  0
ARC
  5
6D05
  8
0
 10
3745.6845629134159026
 20
118.957379049406498
 30
0.0
 40
0.9537198461180603
 50
253.879841017246406
 51
271.3842256432801037
  0
ARC
  5
6D06
  8
0
 10
3745.4433635554109969
 20
118.1228264380355029
 30
0.0
 40
0.0850109239536914
 50
223.8625703982382049
 51
253.8798410172464912
  0
ARC
  5
6D07
  8
0
 10
3745.3975637087878567
 20
118.078809851764106
 30
0.0
 40
0.0214885986049474
 50
117.8501058127558991
 51
223.8625703982363859
  0
ARC
  5
6D08
  8
0
 10
3745.5762556367599245
 20
117.7406076828338968
 30
0.0
 40
0.4039954772249481
 50
94.0908009453886933
 51
117.8501058127558991
  0
ARC
  5
6D09
  8
0
 10
3745.7025340258701362
 20
116.8458168056230022
 30
0.0
 40
1.306992317736225
 50
89.7778358185573069
 51
96.8152428867158505
  0
LINE
  5
6D0A
  8
0
 10
3745.3580365041889308
 20
118.1185530308176936
 30
0.0
 11
3745.3767591878749954
 21
118.0734310247952976
 31
0.0
  0
ARC
  5
6D0B
  8
0
 10
3745.3994658438050465
 20
118.1579317953451067
 30
0.0
 40
0.0726520130627487
 50
219.5433370145503034
 51
245.276039677400604
  0
ARC
  5
6D0C
  8
0
 10
3745.6932345395462107
 20
116.6441495842688028
 30
0.0
 40
1.533373936480672
 50
89.4631449676779908
 51
101.3828564139495967
  0
ARC
  5
6D0D
  8
0
 10
3745.4608856297559214
 20
117.798253898515398
 30
0.0
 40
0.3561132244704688
 50
101.3828564139495967
 51
121.5407981240119994
  0
ARC
  5
6D0E
  8
0
 10
3745.2968310683281743
 20
118.210671107706105
 30
0.0
 40
0.0632337548326053
 50
110.5825572200027977
 51
163.8236357624952007
  0
ARC
  5
6D0F
  8
0
 10
3745.2892486349260253
 20
118.239941420643504
 30
0.0
 40
0.054410468786369
 50
192.367504574409196
 51
254.3827677452096054
  0
LINE
  5
6D10
  8
0
 10
3745.2361008204379687
 20
118.2282877118496032
 30
0.0
 11
3745.2361008204379687
 21
118.3714256128671991
 31
0.0
  0
ARC
  5
6D11
  8
0
 10
3746.0141909984740778
 20
118.1179488583910029
 30
0.0
 40
0.302401070754556
 50
56.9496147603281884
 51
78.7992468124280236
  0
ARC
  5
6D12
  8
0
 10
3745.6422714712089146
 20
115.9611668528825987
 30
0.0
 40
2.4909341908055311
 50
80.0440493713224157
 51
88.4971158707458443
  0
ARC
  5
6D13
  8
0
 10
3746.1617932093931813
 20
118.3403225824528988
 30
0.0
 40
0.0355944313637267
 50
299.0979391749179968
 51
60.8827786002993676
  0
ARC
  5
6D14
  8
0
 10
3745.8648734891098684
 20
118.6310426033931975
 30
0.0
 40
0.6436341673364159
 50
273.9951443300149094
 51
295.3657235760680919
  0
ARC
  5
6D15
  8
0
 10
3745.7115940868711732
 20
119.7972461881955013
 30
0.0
 40
1.81909492149899
 50
269.8742576390257
 51
276.2526444314856917
  0
LINE
  5
6D16
  8
0
 10
3746.1406029220379423
 20
118.0494600888868035
 30
0.0
 11
3746.1406029220379423
 21
118.3926604037877013
 31
0.0
  0
ARC
  5
6D17
  8
0
 10
3745.723081343523063
 20
119.3127022772254975
 30
0.0
 40
1.323449549559051
 50
269.3298356899272221
 51
282.3470016203760906
  0
ARC
  5
6D18
  8
0
 10
3745.9520785366098607
 20
118.2665501982355067
 30
0.0
 40
0.2525275697601967
 50
282.3470016203760906
 51
302.2564791976968763
  0
ARC
  5
6D19
  8
0
 10
3746.0708426708638399
 20
118.0783675951845026
 30
0.0
 40
0.0300020393682719
 50
302.256479197698809
 51
61.5548232130274116
  0
ARC
  5
6D1A
  8
0
 10
3745.8891340721011147
 20
117.7429369948393969
 30
0.0
 40
0.4114882154115611
 50
61.5548232130274116
 51
85.6605564169150284
  0
ARC
  5
6D1B
  8
0
 10
3745.7160862259438545
 20
116.6587357616200933
 30
0.0
 40
1.5083933158024589
 50
82.2202918239631941
 51
90.3222768721984863
  0
ARC
  5
6D1C
  8
0
 10
3745.7306408290610307
 20
118.957379049406498
 30
0.0
 40
0.9537198461180603
 50
268.6157743567197826
 51
286.1201589827534804
  0
ARC
  5
6D1D
  8
0
 10
3745.9718401870659363
 20
118.1228264380355029
 30
0.0
 40
0.0850109239536914
 50
286.1201589827534235
 51
316.1374296017618235
  0
ARC
  5
6D1E
  8
0
 10
3746.017640033688167
 20
118.078809851764106
 30
0.0
 40
0.0214885986049474
 50
316.137429601763472
 51
62.1498941872441009
  0
ARC
  5
6D1F
  8
0
 10
3745.8389481057160992
 20
117.7406076828338968
 30
0.0
 40
0.4039954772249481
 50
62.1498941872441009
 51
85.9091990546114204
  0
ARC
  5
6D20
  8
0
 10
3745.7126697166058875
 20
116.8458168056230022
 30
0.0
 40
1.306992317736225
 50
83.1847571132842631
 51
90.2221641814426931
  0
LINE
  5
6D21
  8
0
 10
3746.0571672382870929
 20
118.1185530308176936
 30
0.0
 11
3746.0384445546019379
 21
118.0734310247952976
 31
0.0
  0
ARC
  5
6D22
  8
0
 10
3746.0157378986718868
 20
118.1579317953451067
 30
0.0
 40
0.0726520130627487
 50
294.7239603225989981
 51
320.4566629854497251
  0
ARC
  5
6D23
  8
0
 10
3745.7219692029311773
 20
116.6441495842688028
 30
0.0
 40
1.533373936480672
 50
78.6171435860504033
 51
90.5368550323220234
  0
ARC
  5
6D24
  8
0
 10
3745.9543181127191929
 20
117.798253898515398
 30
0.0
 40
0.3561132244704688
 50
58.4592018759884198
 51
78.6171435860504033
  0
ARC
  5
6D25
  8
0
 10
3746.1183726741492137
 20
118.210671107706105
 30
0.0
 40
0.0632337548326053
 50
16.1763642375047212
 51
69.417442779997188
  0
ARC
  5
6D26
  8
0
 10
3746.1259551075499985
 20
118.239941420643504
 30
0.0
 40
0.054410468786369
 50
285.617232254790224
 51
347.6324954255907755
  0
LINE
  5
6D27
  8
0
 10
3746.1791029220380551
 20
118.2282877118496032
 30
0.0
 11
3746.1791029220380551
 21
118.3714256128671991
 31
0.0
  0
ENDSEC
  0
EOF
